ISO-10303-21;
HEADER;
FILE_DESCRIPTION( ( 'Unknown' ), '1' );
FILE_NAME( '//SBS2003/HD_Usb/Disegni/08_LIB/Users_3D/PROD_GAMM_3D/CP/7321050.stp', 'Unknown', ( 'Unknown' ), ( 'Unknown' ), 'PSStep 14.0', 'Unknown', '  ' );
FILE_SCHEMA( ( 'AUTOMOTIVE_DESIGN { 1 0 10303 214 1 1 1 1 }' ) );
ENDSEC;
DATA;
#1 = MECHANICAL_DESIGN_GEOMETRIC_PRESENTATION_REPRESENTATION( ' ', ( #10, #11, #12, #13, #14, #15, #16, #17, #18, #19, #20, #21, #22, #23, #24, #25 ), #6 );
#2 = PRODUCT_DEFINITION_CONTEXT( '', #26, 'design' );
#3 = APPLICATION_PROTOCOL_DEFINITION( 'international standard', 'automotive_design', 2001, #26 );
#4 = PRODUCT_CATEGORY_RELATIONSHIP( 'NONE', 'NONE', #27, #28 );
#5 = SHAPE_DEFINITION_REPRESENTATION( #29, #30 );
#6 =  ( GEOMETRIC_REPRESENTATION_CONTEXT( 3 )GLOBAL_UNCERTAINTY_ASSIGNED_CONTEXT( ( #33 ) )GLOBAL_UNIT_ASSIGNED_CONTEXT( ( #35, #36, #37 ) )REPRESENTATION_CONTEXT( 'NONE', 'WORKSPACE' ) );
#10 = STYLED_ITEM( '', ( #39 ), #40 );
#11 = STYLED_ITEM( '', ( #41 ), #42 );
#12 = STYLED_ITEM( '', ( #43 ), #44 );
#13 = STYLED_ITEM( '', ( #45 ), #46 );
#14 = STYLED_ITEM( '', ( #47 ), #48 );
#15 = STYLED_ITEM( '', ( #49 ), #50 );
#16 = STYLED_ITEM( '', ( #51 ), #52 );
#17 = STYLED_ITEM( '', ( #53 ), #54 );
#18 = STYLED_ITEM( '', ( #55 ), #56 );
#19 = STYLED_ITEM( '', ( #57 ), #58 );
#20 = STYLED_ITEM( '', ( #59 ), #60 );
#21 = STYLED_ITEM( '', ( #61 ), #62 );
#22 = STYLED_ITEM( '', ( #63 ), #64 );
#23 = STYLED_ITEM( '', ( #65 ), #66 );
#24 = STYLED_ITEM( '', ( #67 ), #68 );
#25 = STYLED_ITEM( '', ( #69 ), #70 );
#26 = APPLICATION_CONTEXT( 'core data for automotive mechanical design processes' );
#27 = PRODUCT_CATEGORY( 'part', 'NONE' );
#28 = PRODUCT_RELATED_PRODUCT_CATEGORY( 'detail', ' ', ( #71 ) );
#29 = PRODUCT_DEFINITION_SHAPE( 'NONE', 'NONE', #72 );
#30 = ADVANCED_BREP_SHAPE_REPRESENTATION( '1', ( #73, #74 ), #6 );
#33 = UNCERTAINTY_MEASURE_WITH_UNIT( LENGTH_MEASURE( 0.00100000000000000 ), #35, '', '' );
#35 =  ( CONVERSION_BASED_UNIT( 'MILLIMETRE', #77 )LENGTH_UNIT(  )NAMED_UNIT( #80 ) );
#36 =  ( NAMED_UNIT( #82 )PLANE_ANGLE_UNIT(  )SI_UNIT( $, .RADIAN. ) );
#37 =  ( NAMED_UNIT( #82 )SI_UNIT( $, .STERADIAN. )SOLID_ANGLE_UNIT(  ) );
#39 = PRESENTATION_STYLE_ASSIGNMENT( ( #88 ) );
#40 = ADVANCED_FACE( '', ( #89, #90 ), #91, .T. );
#41 = PRESENTATION_STYLE_ASSIGNMENT( ( #92 ) );
#42 = ADVANCED_FACE( '', ( #93, #94 ), #95, .T. );
#43 = PRESENTATION_STYLE_ASSIGNMENT( ( #96 ) );
#44 = ADVANCED_FACE( '', ( #97, #98 ), #99, .T. );
#45 = PRESENTATION_STYLE_ASSIGNMENT( ( #100 ) );
#46 = ADVANCED_FACE( '', ( #101 ), #102, .F. );
#47 = PRESENTATION_STYLE_ASSIGNMENT( ( #103 ) );
#48 = ADVANCED_FACE( '', ( #104 ), #105, .T. );
#49 = PRESENTATION_STYLE_ASSIGNMENT( ( #106 ) );
#50 = ADVANCED_FACE( '', ( #107, #108 ), #109, .F. );
#51 = PRESENTATION_STYLE_ASSIGNMENT( ( #110 ) );
#52 = ADVANCED_FACE( '', ( #111, #112 ), #113, .T. );
#53 = PRESENTATION_STYLE_ASSIGNMENT( ( #114 ) );
#54 = ADVANCED_FACE( '', ( #115, #116 ), #117, .T. );
#55 = PRESENTATION_STYLE_ASSIGNMENT( ( #118 ) );
#56 = ADVANCED_FACE( '', ( #119, #120 ), #121, .T. );
#57 = PRESENTATION_STYLE_ASSIGNMENT( ( #122 ) );
#58 = ADVANCED_FACE( '', ( #123, #124 ), #125, .T. );
#59 = PRESENTATION_STYLE_ASSIGNMENT( ( #126 ) );
#60 = ADVANCED_FACE( '', ( #127, #128 ), #129, .T. );
#61 = PRESENTATION_STYLE_ASSIGNMENT( ( #130 ) );
#62 = ADVANCED_FACE( '', ( #131, #132 ), #133, .T. );
#63 = PRESENTATION_STYLE_ASSIGNMENT( ( #134 ) );
#64 = ADVANCED_FACE( '', ( #135, #136 ), #137, .T. );
#65 = PRESENTATION_STYLE_ASSIGNMENT( ( #138 ) );
#66 = ADVANCED_FACE( '', ( #139, #140 ), #141, .T. );
#67 = PRESENTATION_STYLE_ASSIGNMENT( ( #142 ) );
#68 = ADVANCED_FACE( '', ( #143, #144 ), #145, .T. );
#69 = PRESENTATION_STYLE_ASSIGNMENT( ( #146 ) );
#70 = ADVANCED_FACE( '', ( #147, #148 ), #149, .T. );
#71 = PRODUCT( '1', '1', 'PART-1-DESC', ( #150 ) );
#72 = PRODUCT_DEFINITION( 'NONE', 'NONE', #151, #2 );
#73 = MANIFOLD_SOLID_BREP( '1', #152 );
#74 = AXIS2_PLACEMENT_3D( '', #153, #154, #155 );
#77 = LENGTH_MEASURE_WITH_UNIT( LENGTH_MEASURE( 1.00000000000000 ), #156 );
#80 = DIMENSIONAL_EXPONENTS( 1.00000000000000, 0.000000000000000, 0.000000000000000, 0.000000000000000, 0.000000000000000, 0.000000000000000, 0.000000000000000 );
#82 = DIMENSIONAL_EXPONENTS( 0.000000000000000, 0.000000000000000, 0.000000000000000, 0.000000000000000, 0.000000000000000, 0.000000000000000, 0.000000000000000 );
#88 = SURFACE_STYLE_USAGE( .BOTH., #157 );
#89 = FACE_OUTER_BOUND( '', #158, .T. );
#90 = FACE_OUTER_BOUND( '', #159, .T. );
#91 = CYLINDRICAL_SURFACE( '', #160, 4.50000000000000 );
#92 = SURFACE_STYLE_USAGE( .BOTH., #161 );
#93 = FACE_OUTER_BOUND( '', #162, .T. );
#94 = FACE_BOUND( '', #163, .T. );
#95 = PLANE( '', #164 );
#96 = SURFACE_STYLE_USAGE( .BOTH., #165 );
#97 = FACE_BOUND( '', #166, .T. );
#98 = FACE_OUTER_BOUND( '', #167, .T. );
#99 = CONICAL_SURFACE( '', #168, 7.00000000000000, 1.37340076694502 );
#100 = SURFACE_STYLE_USAGE( .BOTH., #169 );
#101 = FACE_OUTER_BOUND( '', #170, .T. );
#102 = PLANE( '', #171 );
#103 = SURFACE_STYLE_USAGE( .BOTH., #172 );
#104 = FACE_OUTER_BOUND( '', #173, .T. );
#105 = SPHERICAL_SURFACE( '', #174, 12.0000000000000 );
#106 = SURFACE_STYLE_USAGE( .BOTH., #175 );
#107 = FACE_OUTER_BOUND( '', #176, .T. );
#108 = FACE_BOUND( '', #177, .T. );
#109 = PLANE( '', #178 );
#110 = SURFACE_STYLE_USAGE( .BOTH., #179 );
#111 = FACE_OUTER_BOUND( '', #180, .T. );
#112 = FACE_OUTER_BOUND( '', #181, .T. );
#113 = CYLINDRICAL_SURFACE( '', #182, 4.50000000000000 );
#114 = SURFACE_STYLE_USAGE( .BOTH., #183 );
#115 = FACE_OUTER_BOUND( '', #184, .T. );
#116 = FACE_BOUND( '', #185, .T. );
#117 = PLANE( '', #186 );
#118 = SURFACE_STYLE_USAGE( .BOTH., #187 );
#119 = FACE_OUTER_BOUND( '', #188, .T. );
#120 = FACE_OUTER_BOUND( '', #189, .T. );
#121 = CYLINDRICAL_SURFACE( '', #190, 7.00000000000000 );
#122 = SURFACE_STYLE_USAGE( .BOTH., #191 );
#123 = FACE_OUTER_BOUND( '', #192, .T. );
#124 = FACE_BOUND( '', #193, .T. );
#125 = PLANE( '', #194 );
#126 = SURFACE_STYLE_USAGE( .BOTH., #195 );
#127 = FACE_BOUND( '', #196, .T. );
#128 = FACE_OUTER_BOUND( '', #197, .T. );
#129 = CONICAL_SURFACE( '', #198, 7.00000000000000, 1.37340076694502 );
#130 = SURFACE_STYLE_USAGE( .BOTH., #199 );
#131 = FACE_OUTER_BOUND( '', #200, .T. );
#132 = FACE_OUTER_BOUND( '', #201, .T. );
#133 = CYLINDRICAL_SURFACE( '', #202, 7.00000000000000 );
#134 = SURFACE_STYLE_USAGE( .BOTH., #203 );
#135 = FACE_OUTER_BOUND( '', #204, .T. );
#136 = FACE_OUTER_BOUND( '', #205, .T. );
#137 = CYLINDRICAL_SURFACE( '', #206, 7.00000000000000 );
#138 = SURFACE_STYLE_USAGE( .BOTH., #207 );
#139 = FACE_OUTER_BOUND( '', #208, .T. );
#140 = FACE_OUTER_BOUND( '', #209, .T. );
#141 = CYLINDRICAL_SURFACE( '', #210, 7.00000000000000 );
#142 = SURFACE_STYLE_USAGE( .BOTH., #211 );
#143 = FACE_BOUND( '', #212, .T. );
#144 = FACE_OUTER_BOUND( '', #213, .T. );
#145 = CONICAL_SURFACE( '', #214, 7.00000000000000, 1.37340076694502 );
#146 = SURFACE_STYLE_USAGE( .BOTH., #215 );
#147 = FACE_OUTER_BOUND( '', #216, .T. );
#148 = FACE_OUTER_BOUND( '', #217, .T. );
#149 = CYLINDRICAL_SURFACE( '', #218, 4.50000000000000 );
#150 = PRODUCT_CONTEXT( '', #26, 'mechanical' );
#151 = PRODUCT_DEFINITION_FORMATION_WITH_SPECIFIED_SOURCE( ' ', 'NONE', #71, .NOT_KNOWN. );
#152 = CLOSED_SHELL( '', ( #40, #46, #56, #60, #54, #52, #70, #50, #68, #66, #42, #44, #64, #58, #48, #62 ) );
#153 = CARTESIAN_POINT( '', ( 0.000000000000000, 0.000000000000000, 0.000000000000000 ) );
#154 = DIRECTION( '', ( 0.000000000000000, 0.000000000000000, 1.00000000000000 ) );
#155 = DIRECTION( '', ( 1.00000000000000, 0.000000000000000, 0.000000000000000 ) );
#156 =  ( LENGTH_UNIT(  )NAMED_UNIT( #80 )SI_UNIT( .MILLI., .METRE. ) );
#157 = SURFACE_SIDE_STYLE( '', ( #220 ) );
#158 = EDGE_LOOP( '', ( #221 ) );
#159 = EDGE_LOOP( '', ( #222 ) );
#160 = AXIS2_PLACEMENT_3D( '', #223, #224, #225 );
#161 = SURFACE_SIDE_STYLE( '', ( #226 ) );
#162 = EDGE_LOOP( '', ( #227 ) );
#163 = EDGE_LOOP( '', ( #228 ) );
#164 = AXIS2_PLACEMENT_3D( '', #229, #230, #231 );
#165 = SURFACE_SIDE_STYLE( '', ( #232 ) );
#166 = EDGE_LOOP( '', ( #233 ) );
#167 = EDGE_LOOP( '', ( #234 ) );
#168 = AXIS2_PLACEMENT_3D( '', #235, #236, #237 );
#169 = SURFACE_SIDE_STYLE( '', ( #238 ) );
#170 = EDGE_LOOP( '', ( #239 ) );
#171 = AXIS2_PLACEMENT_3D( '', #240, #241, #242 );
#172 = SURFACE_SIDE_STYLE( '', ( #243 ) );
#173 = EDGE_LOOP( '', ( #244 ) );
#174 = AXIS2_PLACEMENT_3D( '', #245, #246, #247 );
#175 = SURFACE_SIDE_STYLE( '', ( #248 ) );
#176 = EDGE_LOOP( '', ( #249 ) );
#177 = EDGE_LOOP( '', ( #250 ) );
#178 = AXIS2_PLACEMENT_3D( '', #251, #252, #253 );
#179 = SURFACE_SIDE_STYLE( '', ( #254 ) );
#180 = EDGE_LOOP( '', ( #255 ) );
#181 = EDGE_LOOP( '', ( #256 ) );
#182 = AXIS2_PLACEMENT_3D( '', #257, #258, #259 );
#183 = SURFACE_SIDE_STYLE( '', ( #260 ) );
#184 = EDGE_LOOP( '', ( #261 ) );
#185 = EDGE_LOOP( '', ( #262 ) );
#186 = AXIS2_PLACEMENT_3D( '', #263, #264, #265 );
#187 = SURFACE_SIDE_STYLE( '', ( #266 ) );
#188 = EDGE_LOOP( '', ( #267 ) );
#189 = EDGE_LOOP( '', ( #268 ) );
#190 = AXIS2_PLACEMENT_3D( '', #269, #270, #271 );
#191 = SURFACE_SIDE_STYLE( '', ( #272 ) );
#192 = EDGE_LOOP( '', ( #273 ) );
#193 = EDGE_LOOP( '', ( #274 ) );
#194 = AXIS2_PLACEMENT_3D( '', #275, #276, #277 );
#195 = SURFACE_SIDE_STYLE( '', ( #278 ) );
#196 = EDGE_LOOP( '', ( #279 ) );
#197 = EDGE_LOOP( '', ( #280 ) );
#198 = AXIS2_PLACEMENT_3D( '', #281, #282, #283 );
#199 = SURFACE_SIDE_STYLE( '', ( #284 ) );
#200 = EDGE_LOOP( '', ( #285 ) );
#201 = EDGE_LOOP( '', ( #286 ) );
#202 = AXIS2_PLACEMENT_3D( '', #287, #288, #289 );
#203 = SURFACE_SIDE_STYLE( '', ( #290 ) );
#204 = EDGE_LOOP( '', ( #291 ) );
#205 = EDGE_LOOP( '', ( #292 ) );
#206 = AXIS2_PLACEMENT_3D( '', #293, #294, #295 );
#207 = SURFACE_SIDE_STYLE( '', ( #296 ) );
#208 = EDGE_LOOP( '', ( #297 ) );
#209 = EDGE_LOOP( '', ( #298 ) );
#210 = AXIS2_PLACEMENT_3D( '', #299, #300, #301 );
#211 = SURFACE_SIDE_STYLE( '', ( #302 ) );
#212 = EDGE_LOOP( '', ( #303 ) );
#213 = EDGE_LOOP( '', ( #304 ) );
#214 = AXIS2_PLACEMENT_3D( '', #305, #306, #307 );
#215 = SURFACE_SIDE_STYLE( '', ( #308 ) );
#216 = EDGE_LOOP( '', ( #309 ) );
#217 = EDGE_LOOP( '', ( #310 ) );
#218 = AXIS2_PLACEMENT_3D( '', #311, #312, #313 );
#220 = SURFACE_STYLE_FILL_AREA( #314 );
#221 = ORIENTED_EDGE( '', *, *, #315, .T. );
#222 = ORIENTED_EDGE( '', *, *, #316, .F. );
#223 = CARTESIAN_POINT( '', ( 0.000000000000000, 0.000000000000000, 57.1500000000000 ) );
#224 = DIRECTION( '', ( -0.000000000000000, -0.000000000000000, -1.00000000000000 ) );
#225 = DIRECTION( '', ( 1.00000000000000, 0.000000000000000, 0.000000000000000 ) );
#226 = SURFACE_STYLE_FILL_AREA( #317 );
#227 = ORIENTED_EDGE( '', *, *, #318, .T. );
#228 = ORIENTED_EDGE( '', *, *, #315, .F. );
#229 = CARTESIAN_POINT( '', ( 4.50000000000000, 0.000000000000000, 4.00000000000000 ) );
#230 = DIRECTION( '', ( 0.000000000000000, 0.000000000000000, 1.00000000000000 ) );
#231 = DIRECTION( '', ( 1.00000000000000, 0.000000000000000, 0.000000000000000 ) );
#232 = SURFACE_STYLE_FILL_AREA( #319 );
#233 = ORIENTED_EDGE( '', *, *, #316, .T. );
#234 = ORIENTED_EDGE( '', *, *, #320, .F. );
#235 = CARTESIAN_POINT( '', ( 0.000000000000000, 0.000000000000000, 6.50000000000000 ) );
#236 = DIRECTION( '', ( -0.000000000000000, -0.000000000000000, 1.00000000000000 ) );
#237 = DIRECTION( '', ( 1.00000000000000, 0.000000000000000, 0.000000000000000 ) );
#238 = SURFACE_STYLE_FILL_AREA( #321 );
#239 = ORIENTED_EDGE( '', *, *, #322, .F. );
#240 = CARTESIAN_POINT( '', ( 2.60208521396521E-015, 0.000000000000000, 0.000000000000000 ) );
#241 = DIRECTION( '', ( 0.000000000000000, 0.000000000000000, 1.00000000000000 ) );
#242 = DIRECTION( '', ( 1.00000000000000, 0.000000000000000, 0.000000000000000 ) );
#243 = SURFACE_STYLE_FILL_AREA( #323 );
#244 = ORIENTED_EDGE( '', *, *, #324, .T. );
#245 = CARTESIAN_POINT( '', ( 1.46957615897682E-015, 0.000000000000000, 6.93889390390723E-015 ) );
#246 = DIRECTION( '', ( 0.000000000000000, 0.000000000000000, 1.00000000000000 ) );
#247 = DIRECTION( '', ( 1.00000000000000, 0.000000000000000, 0.000000000000000 ) );
#248 = SURFACE_STYLE_FILL_AREA( #325 );
#249 = ORIENTED_EDGE( '', *, *, #326, .F. );
#250 = ORIENTED_EDGE( '', *, *, #327, .T. );
#251 = CARTESIAN_POINT( '', ( 4.50000000000000, 0.000000000000000, 9.00000000000000 ) );
#252 = DIRECTION( '', ( 0.000000000000000, 0.000000000000000, 1.00000000000000 ) );
#253 = DIRECTION( '', ( 1.00000000000000, 0.000000000000000, 0.000000000000000 ) );
#254 = SURFACE_STYLE_FILL_AREA( #328 );
#255 = ORIENTED_EDGE( '', *, *, #329, .T. );
#256 = ORIENTED_EDGE( '', *, *, #327, .F. );
#257 = CARTESIAN_POINT( '', ( 0.000000000000000, 0.000000000000000, 57.1500000000000 ) );
#258 = DIRECTION( '', ( -0.000000000000000, -0.000000000000000, -1.00000000000000 ) );
#259 = DIRECTION( '', ( 1.00000000000000, 0.000000000000000, 0.000000000000000 ) );
#260 = SURFACE_STYLE_FILL_AREA( #330 );
#261 = ORIENTED_EDGE( '', *, *, #331, .T. );
#262 = ORIENTED_EDGE( '', *, *, #332, .F. );
#263 = CARTESIAN_POINT( '', ( 4.50000000000000, 0.000000000000000, 1.00000000000000 ) );
#264 = DIRECTION( '', ( 0.000000000000000, 0.000000000000000, 1.00000000000000 ) );
#265 = DIRECTION( '', ( 1.00000000000000, 0.000000000000000, 0.000000000000000 ) );
#266 = SURFACE_STYLE_FILL_AREA( #333 );
#267 = ORIENTED_EDGE( '', *, *, #334, .T. );
#268 = ORIENTED_EDGE( '', *, *, #331, .F. );
#269 = CARTESIAN_POINT( '', ( 0.000000000000000, 0.000000000000000, 57.1500000000000 ) );
#270 = DIRECTION( '', ( -0.000000000000000, -0.000000000000000, -1.00000000000000 ) );
#271 = DIRECTION( '', ( 1.00000000000000, 0.000000000000000, 0.000000000000000 ) );
#272 = SURFACE_STYLE_FILL_AREA( #335 );
#273 = ORIENTED_EDGE( '', *, *, #336, .T. );
#274 = ORIENTED_EDGE( '', *, *, #329, .F. );
#275 = CARTESIAN_POINT( '', ( 4.50000000000000, 0.000000000000000, 7.00000000000000 ) );
#276 = DIRECTION( '', ( 0.000000000000000, 0.000000000000000, 1.00000000000000 ) );
#277 = DIRECTION( '', ( 1.00000000000000, 0.000000000000000, 0.000000000000000 ) );
#278 = SURFACE_STYLE_FILL_AREA( #337 );
#279 = ORIENTED_EDGE( '', *, *, #322, .T. );
#280 = ORIENTED_EDGE( '', *, *, #334, .F. );
#281 = CARTESIAN_POINT( '', ( 0.000000000000000, 0.000000000000000, 0.500000000000000 ) );
#282 = DIRECTION( '', ( -0.000000000000000, -0.000000000000000, 1.00000000000000 ) );
#283 = DIRECTION( '', ( 1.00000000000000, 0.000000000000000, 0.000000000000000 ) );
#284 = SURFACE_STYLE_FILL_AREA( #338 );
#285 = ORIENTED_EDGE( '', *, *, #324, .F. );
#286 = ORIENTED_EDGE( '', *, *, #326, .T. );
#287 = CARTESIAN_POINT( '', ( 0.000000000000000, 0.000000000000000, 57.1500000000000 ) );
#288 = DIRECTION( '', ( -0.000000000000000, -0.000000000000000, -1.00000000000000 ) );
#289 = DIRECTION( '', ( 1.00000000000000, 0.000000000000000, 0.000000000000000 ) );
#290 = SURFACE_STYLE_FILL_AREA( #339 );
#291 = ORIENTED_EDGE( '', *, *, #320, .T. );
#292 = ORIENTED_EDGE( '', *, *, #336, .F. );
#293 = CARTESIAN_POINT( '', ( 0.000000000000000, 0.000000000000000, 57.1500000000000 ) );
#294 = DIRECTION( '', ( -0.000000000000000, -0.000000000000000, -1.00000000000000 ) );
#295 = DIRECTION( '', ( 1.00000000000000, 0.000000000000000, 0.000000000000000 ) );
#296 = SURFACE_STYLE_FILL_AREA( #340 );
#297 = ORIENTED_EDGE( '', *, *, #341, .T. );
#298 = ORIENTED_EDGE( '', *, *, #318, .F. );
#299 = CARTESIAN_POINT( '', ( 0.000000000000000, 0.000000000000000, 57.1500000000000 ) );
#300 = DIRECTION( '', ( -0.000000000000000, -0.000000000000000, -1.00000000000000 ) );
#301 = DIRECTION( '', ( 1.00000000000000, 0.000000000000000, 0.000000000000000 ) );
#302 = SURFACE_STYLE_FILL_AREA( #342 );
#303 = ORIENTED_EDGE( '', *, *, #343, .T. );
#304 = ORIENTED_EDGE( '', *, *, #341, .F. );
#305 = CARTESIAN_POINT( '', ( 0.000000000000000, 0.000000000000000, 3.50000000000000 ) );
#306 = DIRECTION( '', ( -0.000000000000000, -0.000000000000000, 1.00000000000000 ) );
#307 = DIRECTION( '', ( 1.00000000000000, 0.000000000000000, 0.000000000000000 ) );
#308 = SURFACE_STYLE_FILL_AREA( #344 );
#309 = ORIENTED_EDGE( '', *, *, #332, .T. );
#310 = ORIENTED_EDGE( '', *, *, #343, .F. );
#311 = CARTESIAN_POINT( '', ( 0.000000000000000, 0.000000000000000, 57.1500000000000 ) );
#312 = DIRECTION( '', ( -0.000000000000000, -0.000000000000000, -1.00000000000000 ) );
#313 = DIRECTION( '', ( 1.00000000000000, 0.000000000000000, 0.000000000000000 ) );
#314 = FILL_AREA_STYLE( '', ( #345 ) );
#315 = EDGE_CURVE( '', #346, #346, #347, .T. );
#316 = EDGE_CURVE( '', #348, #348, #349, .T. );
#317 = FILL_AREA_STYLE( '', ( #350 ) );
#318 = EDGE_CURVE( '', #351, #351, #352, .T. );
#319 = FILL_AREA_STYLE( '', ( #353 ) );
#320 = EDGE_CURVE( '', #354, #354, #355, .T. );
#321 = FILL_AREA_STYLE( '', ( #356 ) );
#322 = EDGE_CURVE( '', #357, #357, #358, .T. );
#323 = FILL_AREA_STYLE( '', ( #359 ) );
#324 = EDGE_CURVE( '', #360, #360, #361, .T. );
#325 = FILL_AREA_STYLE( '', ( #362 ) );
#326 = EDGE_CURVE( '', #363, #363, #364, .T. );
#327 = EDGE_CURVE( '', #365, #365, #366, .T. );
#328 = FILL_AREA_STYLE( '', ( #367 ) );
#329 = EDGE_CURVE( '', #368, #368, #369, .T. );
#330 = FILL_AREA_STYLE( '', ( #370 ) );
#331 = EDGE_CURVE( '', #371, #371, #372, .T. );
#332 = EDGE_CURVE( '', #373, #373, #374, .T. );
#333 = FILL_AREA_STYLE( '', ( #375 ) );
#334 = EDGE_CURVE( '', #376, #376, #377, .T. );
#335 = FILL_AREA_STYLE( '', ( #378 ) );
#336 = EDGE_CURVE( '', #379, #379, #380, .T. );
#337 = FILL_AREA_STYLE( '', ( #381 ) );
#338 = FILL_AREA_STYLE( '', ( #382 ) );
#339 = FILL_AREA_STYLE( '', ( #383 ) );
#340 = FILL_AREA_STYLE( '', ( #384 ) );
#341 = EDGE_CURVE( '', #385, #385, #386, .T. );
#342 = FILL_AREA_STYLE( '', ( #387 ) );
#343 = EDGE_CURVE( '', #388, #388, #389, .T. );
#344 = FILL_AREA_STYLE( '', ( #390 ) );
#345 = FILL_AREA_STYLE_COLOUR( '', #391 );
#346 = VERTEX_POINT( '', #392 );
#347 = CIRCLE( '', #393, 4.50000000000000 );
#348 = VERTEX_POINT( '', #394 );
#349 = CIRCLE( '', #395, 4.50000000000000 );
#350 = FILL_AREA_STYLE_COLOUR( '', #396 );
#351 = VERTEX_POINT( '', #397 );
#352 = CIRCLE( '', #398, 7.00000000000000 );
#353 = FILL_AREA_STYLE_COLOUR( '', #399 );
#354 = VERTEX_POINT( '', #400 );
#355 = CIRCLE( '', #401, 7.00000000000000 );
#356 = FILL_AREA_STYLE_COLOUR( '', #402 );
#357 = VERTEX_POINT( '', #403 );
#358 = CIRCLE( '', #404, 4.50000000000000 );
#359 = FILL_AREA_STYLE_COLOUR( '', #405 );
#360 = VERTEX_POINT( '', #406 );
#361 = CIRCLE( '', #407, 7.00000000000000 );
#362 = FILL_AREA_STYLE_COLOUR( '', #408 );
#363 = VERTEX_POINT( '', #409 );
#364 = CIRCLE( '', #410, 7.00000000000000 );
#365 = VERTEX_POINT( '', #411 );
#366 = CIRCLE( '', #412, 4.50000000000000 );
#367 = FILL_AREA_STYLE_COLOUR( '', #413 );
#368 = VERTEX_POINT( '', #414 );
#369 = CIRCLE( '', #415, 4.50000000000000 );
#370 = FILL_AREA_STYLE_COLOUR( '', #416 );
#371 = VERTEX_POINT( '', #417 );
#372 = CIRCLE( '', #418, 7.00000000000000 );
#373 = VERTEX_POINT( '', #419 );
#374 = CIRCLE( '', #420, 4.50000000000000 );
#375 = FILL_AREA_STYLE_COLOUR( '', #421 );
#376 = VERTEX_POINT( '', #422 );
#377 = CIRCLE( '', #423, 7.00000000000000 );
#378 = FILL_AREA_STYLE_COLOUR( '', #424 );
#379 = VERTEX_POINT( '', #425 );
#380 = CIRCLE( '', #426, 7.00000000000000 );
#381 = FILL_AREA_STYLE_COLOUR( '', #427 );
#382 = FILL_AREA_STYLE_COLOUR( '', #428 );
#383 = FILL_AREA_STYLE_COLOUR( '', #429 );
#384 = FILL_AREA_STYLE_COLOUR( '', #430 );
#385 = VERTEX_POINT( '', #431 );
#386 = CIRCLE( '', #432, 7.00000000000000 );
#387 = FILL_AREA_STYLE_COLOUR( '', #433 );
#388 = VERTEX_POINT( '', #434 );
#389 = CIRCLE( '', #435, 4.50000000000000 );
#390 = FILL_AREA_STYLE_COLOUR( '', #436 );
#391 = COLOUR_RGB( '', 0.200000002980232, 0.200000002980232, 0.200000002980232 );
#392 = CARTESIAN_POINT( '', ( 4.50000000000000, 0.000000000000000, 4.00000000000000 ) );
#393 = AXIS2_PLACEMENT_3D( '', #437, #438, #439 );
#394 = CARTESIAN_POINT( '', ( 4.50000000000000, 0.000000000000000, 6.00000000000000 ) );
#395 = AXIS2_PLACEMENT_3D( '', #440, #441, #442 );
#396 = COLOUR_RGB( '', 0.200000002980232, 0.200000002980232, 0.200000002980232 );
#397 = CARTESIAN_POINT( '', ( 7.00000000000000, 0.000000000000000, 4.00000000000000 ) );
#398 = AXIS2_PLACEMENT_3D( '', #443, #444, #445 );
#399 = COLOUR_RGB( '', 0.200000002980232, 0.200000002980232, 0.200000002980232 );
#400 = CARTESIAN_POINT( '', ( 7.00000000000000, 0.000000000000000, 6.50000000000000 ) );
#401 = AXIS2_PLACEMENT_3D( '', #446, #447, #448 );
#402 = COLOUR_RGB( '', 0.200000002980232, 0.200000002980232, 0.200000002980232 );
#403 = CARTESIAN_POINT( '', ( 4.50000000000000, 0.000000000000000, 0.000000000000000 ) );
#404 = AXIS2_PLACEMENT_3D( '', #449, #450, #451 );
#405 = COLOUR_RGB( '', 0.200000002980232, 0.200000002980232, 0.200000002980232 );
#406 = CARTESIAN_POINT( '', ( 7.00000000000000, 0.000000000000000, 9.74679434480897 ) );
#407 = AXIS2_PLACEMENT_3D( '', #452, #453, #454 );
#408 = COLOUR_RGB( '', 0.200000002980232, 0.200000002980232, 0.200000002980232 );
#409 = CARTESIAN_POINT( '', ( 7.00000000000000, 0.000000000000000, 9.00000000000000 ) );
#410 = AXIS2_PLACEMENT_3D( '', #455, #456, #457 );
#411 = CARTESIAN_POINT( '', ( 4.50000000000000, 0.000000000000000, 9.00000000000000 ) );
#412 = AXIS2_PLACEMENT_3D( '', #458, #459, #460 );
#413 = COLOUR_RGB( '', 0.200000002980232, 0.200000002980232, 0.200000002980232 );
#414 = CARTESIAN_POINT( '', ( 4.50000000000000, 0.000000000000000, 7.00000000000000 ) );
#415 = AXIS2_PLACEMENT_3D( '', #461, #462, #463 );
#416 = COLOUR_RGB( '', 0.200000002980232, 0.200000002980232, 0.200000002980232 );
#417 = CARTESIAN_POINT( '', ( 7.00000000000000, 0.000000000000000, 1.00000000000000 ) );
#418 = AXIS2_PLACEMENT_3D( '', #464, #465, #466 );
#419 = CARTESIAN_POINT( '', ( 4.50000000000000, 0.000000000000000, 1.00000000000000 ) );
#420 = AXIS2_PLACEMENT_3D( '', #467, #468, #469 );
#421 = COLOUR_RGB( '', 0.200000002980232, 0.200000002980232, 0.200000002980232 );
#422 = CARTESIAN_POINT( '', ( 7.00000000000000, 0.000000000000000, 0.500000000000000 ) );
#423 = AXIS2_PLACEMENT_3D( '', #470, #471, #472 );
#424 = COLOUR_RGB( '', 0.200000002980232, 0.200000002980232, 0.200000002980232 );
#425 = CARTESIAN_POINT( '', ( 7.00000000000000, 0.000000000000000, 7.00000000000000 ) );
#426 = AXIS2_PLACEMENT_3D( '', #473, #474, #475 );
#427 = COLOUR_RGB( '', 0.200000002980232, 0.200000002980232, 0.200000002980232 );
#428 = COLOUR_RGB( '', 0.200000002980232, 0.200000002980232, 0.200000002980232 );
#429 = COLOUR_RGB( '', 0.200000002980232, 0.200000002980232, 0.200000002980232 );
#430 = COLOUR_RGB( '', 0.200000002980232, 0.200000002980232, 0.200000002980232 );
#431 = CARTESIAN_POINT( '', ( 7.00000000000000, 0.000000000000000, 3.50000000000000 ) );
#432 = AXIS2_PLACEMENT_3D( '', #476, #477, #478 );
#433 = COLOUR_RGB( '', 0.200000002980232, 0.200000002980232, 0.200000002980232 );
#434 = CARTESIAN_POINT( '', ( 4.50000000000000, 0.000000000000000, 3.00000000000000 ) );
#435 = AXIS2_PLACEMENT_3D( '', #479, #480, #481 );
#436 = COLOUR_RGB( '', 0.200000002980232, 0.200000002980232, 0.200000002980232 );
#437 = CARTESIAN_POINT( '', ( 0.000000000000000, 0.000000000000000, 4.00000000000000 ) );
#438 = DIRECTION( '', ( 0.000000000000000, 0.000000000000000, 1.00000000000000 ) );
#439 = DIRECTION( '', ( 1.00000000000000, 0.000000000000000, 0.000000000000000 ) );
#440 = CARTESIAN_POINT( '', ( 0.000000000000000, 0.000000000000000, 6.00000000000000 ) );
#441 = DIRECTION( '', ( 0.000000000000000, 0.000000000000000, 1.00000000000000 ) );
#442 = DIRECTION( '', ( 1.00000000000000, 0.000000000000000, 0.000000000000000 ) );
#443 = CARTESIAN_POINT( '', ( 0.000000000000000, 0.000000000000000, 4.00000000000000 ) );
#444 = DIRECTION( '', ( 0.000000000000000, 0.000000000000000, 1.00000000000000 ) );
#445 = DIRECTION( '', ( 1.00000000000000, 0.000000000000000, 0.000000000000000 ) );
#446 = CARTESIAN_POINT( '', ( 0.000000000000000, 0.000000000000000, 6.50000000000000 ) );
#447 = DIRECTION( '', ( 0.000000000000000, 0.000000000000000, 1.00000000000000 ) );
#448 = DIRECTION( '', ( 1.00000000000000, 0.000000000000000, 0.000000000000000 ) );
#449 = CARTESIAN_POINT( '', ( 0.000000000000000, 0.000000000000000, 0.000000000000000 ) );
#450 = DIRECTION( '', ( 0.000000000000000, 0.000000000000000, 1.00000000000000 ) );
#451 = DIRECTION( '', ( 1.00000000000000, 0.000000000000000, 0.000000000000000 ) );
#452 = CARTESIAN_POINT( '', ( 0.000000000000000, 0.000000000000000, 9.74679434480897 ) );
#453 = DIRECTION( '', ( 0.000000000000000, 0.000000000000000, 1.00000000000000 ) );
#454 = DIRECTION( '', ( 1.00000000000000, 0.000000000000000, 0.000000000000000 ) );
#455 = CARTESIAN_POINT( '', ( 0.000000000000000, 0.000000000000000, 9.00000000000000 ) );
#456 = DIRECTION( '', ( 0.000000000000000, 0.000000000000000, 1.00000000000000 ) );
#457 = DIRECTION( '', ( 1.00000000000000, 0.000000000000000, 0.000000000000000 ) );
#458 = CARTESIAN_POINT( '', ( 0.000000000000000, 0.000000000000000, 9.00000000000000 ) );
#459 = DIRECTION( '', ( 0.000000000000000, 0.000000000000000, 1.00000000000000 ) );
#460 = DIRECTION( '', ( 1.00000000000000, 0.000000000000000, 0.000000000000000 ) );
#461 = CARTESIAN_POINT( '', ( 0.000000000000000, 0.000000000000000, 7.00000000000000 ) );
#462 = DIRECTION( '', ( 0.000000000000000, 0.000000000000000, 1.00000000000000 ) );
#463 = DIRECTION( '', ( 1.00000000000000, 0.000000000000000, 0.000000000000000 ) );
#464 = CARTESIAN_POINT( '', ( 0.000000000000000, 0.000000000000000, 1.00000000000000 ) );
#465 = DIRECTION( '', ( 0.000000000000000, 0.000000000000000, 1.00000000000000 ) );
#466 = DIRECTION( '', ( 1.00000000000000, 0.000000000000000, 0.000000000000000 ) );
#467 = CARTESIAN_POINT( '', ( 0.000000000000000, 0.000000000000000, 1.00000000000000 ) );
#468 = DIRECTION( '', ( 0.000000000000000, 0.000000000000000, 1.00000000000000 ) );
#469 = DIRECTION( '', ( 1.00000000000000, 0.000000000000000, 0.000000000000000 ) );
#470 = CARTESIAN_POINT( '', ( 0.000000000000000, 0.000000000000000, 0.500000000000000 ) );
#471 = DIRECTION( '', ( 0.000000000000000, 0.000000000000000, 1.00000000000000 ) );
#472 = DIRECTION( '', ( 1.00000000000000, 0.000000000000000, 0.000000000000000 ) );
#473 = CARTESIAN_POINT( '', ( 0.000000000000000, 0.000000000000000, 7.00000000000000 ) );
#474 = DIRECTION( '', ( 0.000000000000000, 0.000000000000000, 1.00000000000000 ) );
#475 = DIRECTION( '', ( 1.00000000000000, 0.000000000000000, 0.000000000000000 ) );
#476 = CARTESIAN_POINT( '', ( 0.000000000000000, 0.000000000000000, 3.50000000000000 ) );
#477 = DIRECTION( '', ( 0.000000000000000, 0.000000000000000, 1.00000000000000 ) );
#478 = DIRECTION( '', ( 1.00000000000000, 0.000000000000000, 0.000000000000000 ) );
#479 = CARTESIAN_POINT( '', ( 0.000000000000000, 0.000000000000000, 3.00000000000000 ) );
#480 = DIRECTION( '', ( 0.000000000000000, 0.000000000000000, 1.00000000000000 ) );
#481 = DIRECTION( '', ( 1.00000000000000, 0.000000000000000, 0.000000000000000 ) );
ENDSEC;
END-ISO-10303-21;
