ISO-10303-21;
HEADER;
FILE_DESCRIPTION( ( 'Unknown' ), '1' );
FILE_NAME( '//SBS2003/HD_Usb/Disegni/08_LIB/Users_3D/PROD_GAMM_3D/CP/7321080.stp', 'Unknown', ( 'Unknown' ), ( 'Unknown' ), 'PSStep 14.0', 'Unknown', '  ' );
FILE_SCHEMA( ( 'AUTOMOTIVE_DESIGN { 1 0 10303 214 1 1 1 1 }' ) );
ENDSEC;
DATA;
#1 = MECHANICAL_DESIGN_GEOMETRIC_PRESENTATION_REPRESENTATION( ' ', ( #10, #11, #12, #13, #14, #15, #16, #17, #18, #19, #20, #21, #22, #23, #24, #25 ), #6 );
#2 = PRODUCT_DEFINITION_CONTEXT( '', #26, 'design' );
#3 = APPLICATION_PROTOCOL_DEFINITION( 'international standard', 'automotive_design', 2001, #26 );
#4 = PRODUCT_CATEGORY_RELATIONSHIP( 'NONE', 'NONE', #27, #28 );
#5 = SHAPE_DEFINITION_REPRESENTATION( #29, #30 );
#6 =  ( GEOMETRIC_REPRESENTATION_CONTEXT( 3 )GLOBAL_UNCERTAINTY_ASSIGNED_CONTEXT( ( #33 ) )GLOBAL_UNIT_ASSIGNED_CONTEXT( ( #35, #36, #37 ) )REPRESENTATION_CONTEXT( 'NONE', 'WORKSPACE' ) );
#10 = STYLED_ITEM( '', ( #39 ), #40 );
#11 = STYLED_ITEM( '', ( #41 ), #42 );
#12 = STYLED_ITEM( '', ( #43 ), #44 );
#13 = STYLED_ITEM( '', ( #45 ), #46 );
#14 = STYLED_ITEM( '', ( #47 ), #48 );
#15 = STYLED_ITEM( '', ( #49 ), #50 );
#16 = STYLED_ITEM( '', ( #51 ), #52 );
#17 = STYLED_ITEM( '', ( #53 ), #54 );
#18 = STYLED_ITEM( '', ( #55 ), #56 );
#19 = STYLED_ITEM( '', ( #57 ), #58 );
#20 = STYLED_ITEM( '', ( #59 ), #60 );
#21 = STYLED_ITEM( '', ( #61 ), #62 );
#22 = STYLED_ITEM( '', ( #63 ), #64 );
#23 = STYLED_ITEM( '', ( #65 ), #66 );
#24 = STYLED_ITEM( '', ( #67 ), #68 );
#25 = STYLED_ITEM( '', ( #69 ), #70 );
#26 = APPLICATION_CONTEXT( 'core data for automotive mechanical design processes' );
#27 = PRODUCT_CATEGORY( 'part', 'NONE' );
#28 = PRODUCT_RELATED_PRODUCT_CATEGORY( 'detail', ' ', ( #71 ) );
#29 = PRODUCT_DEFINITION_SHAPE( 'NONE', 'NONE', #72 );
#30 = ADVANCED_BREP_SHAPE_REPRESENTATION( '1', ( #73, #74 ), #6 );
#33 = UNCERTAINTY_MEASURE_WITH_UNIT( LENGTH_MEASURE( 0.00100000000000000 ), #35, '', '' );
#35 =  ( CONVERSION_BASED_UNIT( 'MILLIMETRE', #77 )LENGTH_UNIT(  )NAMED_UNIT( #80 ) );
#36 =  ( NAMED_UNIT( #82 )PLANE_ANGLE_UNIT(  )SI_UNIT( $, .RADIAN. ) );
#37 =  ( NAMED_UNIT( #82 )SI_UNIT( $, .STERADIAN. )SOLID_ANGLE_UNIT(  ) );
#39 = PRESENTATION_STYLE_ASSIGNMENT( ( #88 ) );
#40 = ADVANCED_FACE( '', ( #89, #90 ), #91, .T. );
#41 = PRESENTATION_STYLE_ASSIGNMENT( ( #92 ) );
#42 = ADVANCED_FACE( '', ( #93, #94 ), #95, .T. );
#43 = PRESENTATION_STYLE_ASSIGNMENT( ( #96 ) );
#44 = ADVANCED_FACE( '', ( #97, #98 ), #99, .T. );
#45 = PRESENTATION_STYLE_ASSIGNMENT( ( #100 ) );
#46 = ADVANCED_FACE( '', ( #101, #102 ), #103, .T. );
#47 = PRESENTATION_STYLE_ASSIGNMENT( ( #104 ) );
#48 = ADVANCED_FACE( '', ( #105, #106 ), #107, .T. );
#49 = PRESENTATION_STYLE_ASSIGNMENT( ( #108 ) );
#50 = ADVANCED_FACE( '', ( #109, #110 ), #111, .T. );
#51 = PRESENTATION_STYLE_ASSIGNMENT( ( #112 ) );
#52 = ADVANCED_FACE( '', ( #113, #114 ), #115, .T. );
#53 = PRESENTATION_STYLE_ASSIGNMENT( ( #116 ) );
#54 = ADVANCED_FACE( '', ( #117 ), #118, .F. );
#55 = PRESENTATION_STYLE_ASSIGNMENT( ( #119 ) );
#56 = ADVANCED_FACE( '', ( #120, #121 ), #122, .F. );
#57 = PRESENTATION_STYLE_ASSIGNMENT( ( #123 ) );
#58 = ADVANCED_FACE( '', ( #124 ), #125, .T. );
#59 = PRESENTATION_STYLE_ASSIGNMENT( ( #126 ) );
#60 = ADVANCED_FACE( '', ( #127, #128 ), #129, .T. );
#61 = PRESENTATION_STYLE_ASSIGNMENT( ( #130 ) );
#62 = ADVANCED_FACE( '', ( #131, #132 ), #133, .T. );
#63 = PRESENTATION_STYLE_ASSIGNMENT( ( #134 ) );
#64 = ADVANCED_FACE( '', ( #135, #136 ), #137, .T. );
#65 = PRESENTATION_STYLE_ASSIGNMENT( ( #138 ) );
#66 = ADVANCED_FACE( '', ( #139, #140 ), #141, .T. );
#67 = PRESENTATION_STYLE_ASSIGNMENT( ( #142 ) );
#68 = ADVANCED_FACE( '', ( #143, #144 ), #145, .T. );
#69 = PRESENTATION_STYLE_ASSIGNMENT( ( #146 ) );
#70 = ADVANCED_FACE( '', ( #147, #148 ), #149, .T. );
#71 = PRODUCT( '1', '1', 'PART-1-DESC', ( #150 ) );
#72 = PRODUCT_DEFINITION( 'NONE', 'NONE', #151, #2 );
#73 = MANIFOLD_SOLID_BREP( '1', #152 );
#74 = AXIS2_PLACEMENT_3D( '', #153, #154, #155 );
#77 = LENGTH_MEASURE_WITH_UNIT( LENGTH_MEASURE( 1.00000000000000 ), #156 );
#80 = DIMENSIONAL_EXPONENTS( 1.00000000000000, 0.000000000000000, 0.000000000000000, 0.000000000000000, 0.000000000000000, 0.000000000000000, 0.000000000000000 );
#82 = DIMENSIONAL_EXPONENTS( 0.000000000000000, 0.000000000000000, 0.000000000000000, 0.000000000000000, 0.000000000000000, 0.000000000000000, 0.000000000000000 );
#88 = SURFACE_STYLE_USAGE( .BOTH., #157 );
#89 = FACE_OUTER_BOUND( '', #158, .T. );
#90 = FACE_OUTER_BOUND( '', #159, .T. );
#91 = CYLINDRICAL_SURFACE( '', #160, 20.0000000000000 );
#92 = SURFACE_STYLE_USAGE( .BOTH., #161 );
#93 = FACE_OUTER_BOUND( '', #162, .T. );
#94 = FACE_BOUND( '', #163, .T. );
#95 = PLANE( '', #164 );
#96 = SURFACE_STYLE_USAGE( .BOTH., #165 );
#97 = FACE_OUTER_BOUND( '', #166, .T. );
#98 = FACE_OUTER_BOUND( '', #167, .T. );
#99 = CYLINDRICAL_SURFACE( '', #168, 17.5000000000000 );
#100 = SURFACE_STYLE_USAGE( .BOTH., #169 );
#101 = FACE_OUTER_BOUND( '', #170, .T. );
#102 = FACE_BOUND( '', #171, .T. );
#103 = PLANE( '', #172 );
#104 = SURFACE_STYLE_USAGE( .BOTH., #173 );
#105 = FACE_BOUND( '', #174, .T. );
#106 = FACE_OUTER_BOUND( '', #175, .T. );
#107 = CONICAL_SURFACE( '', #176, 20.0000000000000, 1.37340076694501 );
#108 = SURFACE_STYLE_USAGE( .BOTH., #177 );
#109 = FACE_OUTER_BOUND( '', #178, .T. );
#110 = FACE_OUTER_BOUND( '', #179, .T. );
#111 = CYLINDRICAL_SURFACE( '', #180, 20.0000000000000 );
#112 = SURFACE_STYLE_USAGE( .BOTH., #181 );
#113 = FACE_OUTER_BOUND( '', #182, .T. );
#114 = FACE_OUTER_BOUND( '', #183, .T. );
#115 = CYLINDRICAL_SURFACE( '', #184, 17.5000000000000 );
#116 = SURFACE_STYLE_USAGE( .BOTH., #185 );
#117 = FACE_OUTER_BOUND( '', #186, .T. );
#118 = PLANE( '', #187 );
#119 = SURFACE_STYLE_USAGE( .BOTH., #188 );
#120 = FACE_OUTER_BOUND( '', #189, .T. );
#121 = FACE_BOUND( '', #190, .T. );
#122 = PLANE( '', #191 );
#123 = SURFACE_STYLE_USAGE( .BOTH., #192 );
#124 = FACE_OUTER_BOUND( '', #193, .T. );
#125 = SPHERICAL_SURFACE( '', #194, 50.0000000000000 );
#126 = SURFACE_STYLE_USAGE( .BOTH., #195 );
#127 = FACE_BOUND( '', #196, .T. );
#128 = FACE_OUTER_BOUND( '', #197, .T. );
#129 = CONICAL_SURFACE( '', #198, 20.0000000000000, 1.37340076694502 );
#130 = SURFACE_STYLE_USAGE( .BOTH., #199 );
#131 = FACE_BOUND( '', #200, .T. );
#132 = FACE_OUTER_BOUND( '', #201, .T. );
#133 = CONICAL_SURFACE( '', #202, 20.0000000000000, 1.37340076694501 );
#134 = SURFACE_STYLE_USAGE( .BOTH., #203 );
#135 = FACE_OUTER_BOUND( '', #204, .T. );
#136 = FACE_OUTER_BOUND( '', #205, .T. );
#137 = CYLINDRICAL_SURFACE( '', #206, 17.5000000000000 );
#138 = SURFACE_STYLE_USAGE( .BOTH., #207 );
#139 = FACE_OUTER_BOUND( '', #208, .T. );
#140 = FACE_OUTER_BOUND( '', #209, .T. );
#141 = CYLINDRICAL_SURFACE( '', #210, 20.0000000000000 );
#142 = SURFACE_STYLE_USAGE( .BOTH., #211 );
#143 = FACE_OUTER_BOUND( '', #212, .T. );
#144 = FACE_OUTER_BOUND( '', #213, .T. );
#145 = CYLINDRICAL_SURFACE( '', #214, 20.0000000000000 );
#146 = SURFACE_STYLE_USAGE( .BOTH., #215 );
#147 = FACE_OUTER_BOUND( '', #216, .T. );
#148 = FACE_BOUND( '', #217, .T. );
#149 = PLANE( '', #218 );
#150 = PRODUCT_CONTEXT( '', #26, 'mechanical' );
#151 = PRODUCT_DEFINITION_FORMATION_WITH_SPECIFIED_SOURCE( ' ', 'NONE', #71, .NOT_KNOWN. );
#152 = CLOSED_SHELL( '', ( #52, #54, #66, #60, #42, #64, #44, #56, #48, #50, #46, #62, #40, #70, #58, #68 ) );
#153 = CARTESIAN_POINT( '', ( 0.000000000000000, 0.000000000000000, 0.000000000000000 ) );
#154 = DIRECTION( '', ( 0.000000000000000, 0.000000000000000, 1.00000000000000 ) );
#155 = DIRECTION( '', ( 1.00000000000000, 0.000000000000000, 0.000000000000000 ) );
#156 =  ( LENGTH_UNIT(  )NAMED_UNIT( #80 )SI_UNIT( .MILLI., .METRE. ) );
#157 = SURFACE_SIDE_STYLE( '', ( #220 ) );
#158 = EDGE_LOOP( '', ( #221 ) );
#159 = EDGE_LOOP( '', ( #222 ) );
#160 = AXIS2_PLACEMENT_3D( '', #223, #224, #225 );
#161 = SURFACE_SIDE_STYLE( '', ( #226 ) );
#162 = EDGE_LOOP( '', ( #227 ) );
#163 = EDGE_LOOP( '', ( #228 ) );
#164 = AXIS2_PLACEMENT_3D( '', #229, #230, #231 );
#165 = SURFACE_SIDE_STYLE( '', ( #232 ) );
#166 = EDGE_LOOP( '', ( #233 ) );
#167 = EDGE_LOOP( '', ( #234 ) );
#168 = AXIS2_PLACEMENT_3D( '', #235, #236, #237 );
#169 = SURFACE_SIDE_STYLE( '', ( #238 ) );
#170 = EDGE_LOOP( '', ( #239 ) );
#171 = EDGE_LOOP( '', ( #240 ) );
#172 = AXIS2_PLACEMENT_3D( '', #241, #242, #243 );
#173 = SURFACE_SIDE_STYLE( '', ( #244 ) );
#174 = EDGE_LOOP( '', ( #245 ) );
#175 = EDGE_LOOP( '', ( #246 ) );
#176 = AXIS2_PLACEMENT_3D( '', #247, #248, #249 );
#177 = SURFACE_SIDE_STYLE( '', ( #250 ) );
#178 = EDGE_LOOP( '', ( #251 ) );
#179 = EDGE_LOOP( '', ( #252 ) );
#180 = AXIS2_PLACEMENT_3D( '', #253, #254, #255 );
#181 = SURFACE_SIDE_STYLE( '', ( #256 ) );
#182 = EDGE_LOOP( '', ( #257 ) );
#183 = EDGE_LOOP( '', ( #258 ) );
#184 = AXIS2_PLACEMENT_3D( '', #259, #260, #261 );
#185 = SURFACE_SIDE_STYLE( '', ( #262 ) );
#186 = EDGE_LOOP( '', ( #263 ) );
#187 = AXIS2_PLACEMENT_3D( '', #264, #265, #266 );
#188 = SURFACE_SIDE_STYLE( '', ( #267 ) );
#189 = EDGE_LOOP( '', ( #268 ) );
#190 = EDGE_LOOP( '', ( #269 ) );
#191 = AXIS2_PLACEMENT_3D( '', #270, #271, #272 );
#192 = SURFACE_SIDE_STYLE( '', ( #273 ) );
#193 = EDGE_LOOP( '', ( #274 ) );
#194 = AXIS2_PLACEMENT_3D( '', #275, #276, #277 );
#195 = SURFACE_SIDE_STYLE( '', ( #278 ) );
#196 = EDGE_LOOP( '', ( #279 ) );
#197 = EDGE_LOOP( '', ( #280 ) );
#198 = AXIS2_PLACEMENT_3D( '', #281, #282, #283 );
#199 = SURFACE_SIDE_STYLE( '', ( #284 ) );
#200 = EDGE_LOOP( '', ( #285 ) );
#201 = EDGE_LOOP( '', ( #286 ) );
#202 = AXIS2_PLACEMENT_3D( '', #287, #288, #289 );
#203 = SURFACE_SIDE_STYLE( '', ( #290 ) );
#204 = EDGE_LOOP( '', ( #291 ) );
#205 = EDGE_LOOP( '', ( #292 ) );
#206 = AXIS2_PLACEMENT_3D( '', #293, #294, #295 );
#207 = SURFACE_SIDE_STYLE( '', ( #296 ) );
#208 = EDGE_LOOP( '', ( #297 ) );
#209 = EDGE_LOOP( '', ( #298 ) );
#210 = AXIS2_PLACEMENT_3D( '', #299, #300, #301 );
#211 = SURFACE_SIDE_STYLE( '', ( #302 ) );
#212 = EDGE_LOOP( '', ( #303 ) );
#213 = EDGE_LOOP( '', ( #304 ) );
#214 = AXIS2_PLACEMENT_3D( '', #305, #306, #307 );
#215 = SURFACE_SIDE_STYLE( '', ( #308 ) );
#216 = EDGE_LOOP( '', ( #309 ) );
#217 = EDGE_LOOP( '', ( #310 ) );
#218 = AXIS2_PLACEMENT_3D( '', #311, #312, #313 );
#220 = SURFACE_STYLE_FILL_AREA( #314 );
#221 = ORIENTED_EDGE( '', *, *, #315, .T. );
#222 = ORIENTED_EDGE( '', *, *, #316, .F. );
#223 = CARTESIAN_POINT( '', ( 0.000000000000000, 0.000000000000000, 57.1500000000000 ) );
#224 = DIRECTION( '', ( -0.000000000000000, -0.000000000000000, -1.00000000000000 ) );
#225 = DIRECTION( '', ( 1.00000000000000, 0.000000000000000, 0.000000000000000 ) );
#226 = SURFACE_STYLE_FILL_AREA( #317 );
#227 = ORIENTED_EDGE( '', *, *, #318, .T. );
#228 = ORIENTED_EDGE( '', *, *, #319, .F. );
#229 = CARTESIAN_POINT( '', ( 17.5000000000000, 0.000000000000000, 1.00000000000000 ) );
#230 = DIRECTION( '', ( 0.000000000000000, 0.000000000000000, 1.00000000000000 ) );
#231 = DIRECTION( '', ( 1.00000000000000, 0.000000000000000, 0.000000000000000 ) );
#232 = SURFACE_STYLE_FILL_AREA( #320 );
#233 = ORIENTED_EDGE( '', *, *, #319, .T. );
#234 = ORIENTED_EDGE( '', *, *, #321, .F. );
#235 = CARTESIAN_POINT( '', ( 0.000000000000000, 0.000000000000000, 57.1500000000000 ) );
#236 = DIRECTION( '', ( -0.000000000000000, -0.000000000000000, -1.00000000000000 ) );
#237 = DIRECTION( '', ( 1.00000000000000, 0.000000000000000, 0.000000000000000 ) );
#238 = SURFACE_STYLE_FILL_AREA( #322 );
#239 = ORIENTED_EDGE( '', *, *, #323, .T. );
#240 = ORIENTED_EDGE( '', *, *, #324, .F. );
#241 = CARTESIAN_POINT( '', ( 17.5000000000000, 0.000000000000000, 6.66666666666667 ) );
#242 = DIRECTION( '', ( 0.000000000000000, 0.000000000000000, 1.00000000000000 ) );
#243 = DIRECTION( '', ( 1.00000000000000, 0.000000000000000, 0.000000000000000 ) );
#244 = SURFACE_STYLE_FILL_AREA( #325 );
#245 = ORIENTED_EDGE( '', *, *, #321, .T. );
#246 = ORIENTED_EDGE( '', *, *, #326, .F. );
#247 = CARTESIAN_POINT( '', ( 0.000000000000000, 0.000000000000000, 6.16666666666668 ) );
#248 = DIRECTION( '', ( -0.000000000000000, -0.000000000000000, 1.00000000000000 ) );
#249 = DIRECTION( '', ( 1.00000000000000, 0.000000000000000, 0.000000000000000 ) );
#250 = SURFACE_STYLE_FILL_AREA( #327 );
#251 = ORIENTED_EDGE( '', *, *, #326, .T. );
#252 = ORIENTED_EDGE( '', *, *, #323, .F. );
#253 = CARTESIAN_POINT( '', ( 0.000000000000000, 0.000000000000000, 57.1500000000000 ) );
#254 = DIRECTION( '', ( -0.000000000000000, -0.000000000000000, -1.00000000000000 ) );
#255 = DIRECTION( '', ( 1.00000000000000, 0.000000000000000, 0.000000000000000 ) );
#256 = SURFACE_STYLE_FILL_AREA( #328 );
#257 = ORIENTED_EDGE( '', *, *, #324, .T. );
#258 = ORIENTED_EDGE( '', *, *, #329, .F. );
#259 = CARTESIAN_POINT( '', ( 0.000000000000000, 0.000000000000000, 57.1500000000000 ) );
#260 = DIRECTION( '', ( -0.000000000000000, -0.000000000000000, -1.00000000000000 ) );
#261 = DIRECTION( '', ( 1.00000000000000, 0.000000000000000, 0.000000000000000 ) );
#262 = SURFACE_STYLE_FILL_AREA( #330 );
#263 = ORIENTED_EDGE( '', *, *, #331, .F. );
#264 = CARTESIAN_POINT( '', ( 2.60208521396521E-015, 0.000000000000000, 0.000000000000000 ) );
#265 = DIRECTION( '', ( 0.000000000000000, 0.000000000000000, 1.00000000000000 ) );
#266 = DIRECTION( '', ( 1.00000000000000, 0.000000000000000, 0.000000000000000 ) );
#267 = SURFACE_STYLE_FILL_AREA( #332 );
#268 = ORIENTED_EDGE( '', *, *, #333, .F. );
#269 = ORIENTED_EDGE( '', *, *, #334, .T. );
#270 = CARTESIAN_POINT( '', ( 17.5000000000000, 0.000000000000000, 17.0000000000000 ) );
#271 = DIRECTION( '', ( 0.000000000000000, 0.000000000000000, 1.00000000000000 ) );
#272 = DIRECTION( '', ( 1.00000000000000, 0.000000000000000, 0.000000000000000 ) );
#273 = SURFACE_STYLE_FILL_AREA( #335 );
#274 = ORIENTED_EDGE( '', *, *, #336, .T. );
#275 = CARTESIAN_POINT( '', ( 6.12323399573677E-015, 0.000000000000000, -28.0000000000000 ) );
#276 = DIRECTION( '', ( 0.000000000000000, 0.000000000000000, 1.00000000000000 ) );
#277 = DIRECTION( '', ( 1.00000000000000, 0.000000000000000, 0.000000000000000 ) );
#278 = SURFACE_STYLE_FILL_AREA( #337 );
#279 = ORIENTED_EDGE( '', *, *, #331, .T. );
#280 = ORIENTED_EDGE( '', *, *, #338, .F. );
#281 = CARTESIAN_POINT( '', ( 0.000000000000000, 0.000000000000000, 0.500000000000021 ) );
#282 = DIRECTION( '', ( -0.000000000000000, -0.000000000000000, 1.00000000000000 ) );
#283 = DIRECTION( '', ( 1.00000000000000, 0.000000000000000, 0.000000000000000 ) );
#284 = SURFACE_STYLE_FILL_AREA( #339 );
#285 = ORIENTED_EDGE( '', *, *, #329, .T. );
#286 = ORIENTED_EDGE( '', *, *, #315, .F. );
#287 = CARTESIAN_POINT( '', ( 0.000000000000000, 0.000000000000000, 11.8333333333334 ) );
#288 = DIRECTION( '', ( -0.000000000000000, -0.000000000000000, 1.00000000000000 ) );
#289 = DIRECTION( '', ( 1.00000000000000, 0.000000000000000, 0.000000000000000 ) );
#290 = SURFACE_STYLE_FILL_AREA( #340 );
#291 = ORIENTED_EDGE( '', *, *, #341, .T. );
#292 = ORIENTED_EDGE( '', *, *, #334, .F. );
#293 = CARTESIAN_POINT( '', ( 0.000000000000000, 0.000000000000000, 57.1500000000000 ) );
#294 = DIRECTION( '', ( -0.000000000000000, -0.000000000000000, -1.00000000000000 ) );
#295 = DIRECTION( '', ( 1.00000000000000, 0.000000000000000, 0.000000000000000 ) );
#296 = SURFACE_STYLE_FILL_AREA( #342 );
#297 = ORIENTED_EDGE( '', *, *, #338, .T. );
#298 = ORIENTED_EDGE( '', *, *, #318, .F. );
#299 = CARTESIAN_POINT( '', ( 0.000000000000000, 0.000000000000000, 57.1500000000000 ) );
#300 = DIRECTION( '', ( -0.000000000000000, -0.000000000000000, -1.00000000000000 ) );
#301 = DIRECTION( '', ( 1.00000000000000, 0.000000000000000, 0.000000000000000 ) );
#302 = SURFACE_STYLE_FILL_AREA( #343 );
#303 = ORIENTED_EDGE( '', *, *, #336, .F. );
#304 = ORIENTED_EDGE( '', *, *, #333, .T. );
#305 = CARTESIAN_POINT( '', ( 0.000000000000000, 0.000000000000000, 57.1500000000000 ) );
#306 = DIRECTION( '', ( -0.000000000000000, -0.000000000000000, -1.00000000000000 ) );
#307 = DIRECTION( '', ( 1.00000000000000, 0.000000000000000, 0.000000000000000 ) );
#308 = SURFACE_STYLE_FILL_AREA( #344 );
#309 = ORIENTED_EDGE( '', *, *, #316, .T. );
#310 = ORIENTED_EDGE( '', *, *, #341, .F. );
#311 = CARTESIAN_POINT( '', ( 17.5000000000000, 0.000000000000000, 12.3333333333333 ) );
#312 = DIRECTION( '', ( 0.000000000000000, 0.000000000000000, 1.00000000000000 ) );
#313 = DIRECTION( '', ( 1.00000000000000, 0.000000000000000, 0.000000000000000 ) );
#314 = FILL_AREA_STYLE( '', ( #345 ) );
#315 = EDGE_CURVE( '', #346, #346, #347, .T. );
#316 = EDGE_CURVE( '', #348, #348, #349, .T. );
#317 = FILL_AREA_STYLE( '', ( #350 ) );
#318 = EDGE_CURVE( '', #351, #351, #352, .T. );
#319 = EDGE_CURVE( '', #353, #353, #354, .T. );
#320 = FILL_AREA_STYLE( '', ( #355 ) );
#321 = EDGE_CURVE( '', #356, #356, #357, .T. );
#322 = FILL_AREA_STYLE( '', ( #358 ) );
#323 = EDGE_CURVE( '', #359, #359, #360, .T. );
#324 = EDGE_CURVE( '', #361, #361, #362, .T. );
#325 = FILL_AREA_STYLE( '', ( #363 ) );
#326 = EDGE_CURVE( '', #364, #364, #365, .T. );
#327 = FILL_AREA_STYLE( '', ( #366 ) );
#328 = FILL_AREA_STYLE( '', ( #367 ) );
#329 = EDGE_CURVE( '', #368, #368, #369, .T. );
#330 = FILL_AREA_STYLE( '', ( #370 ) );
#331 = EDGE_CURVE( '', #371, #371, #372, .T. );
#332 = FILL_AREA_STYLE( '', ( #373 ) );
#333 = EDGE_CURVE( '', #374, #374, #375, .T. );
#334 = EDGE_CURVE( '', #376, #376, #377, .T. );
#335 = FILL_AREA_STYLE( '', ( #378 ) );
#336 = EDGE_CURVE( '', #379, #379, #380, .T. );
#337 = FILL_AREA_STYLE( '', ( #381 ) );
#338 = EDGE_CURVE( '', #382, #382, #383, .T. );
#339 = FILL_AREA_STYLE( '', ( #384 ) );
#340 = FILL_AREA_STYLE( '', ( #385 ) );
#341 = EDGE_CURVE( '', #386, #386, #387, .T. );
#342 = FILL_AREA_STYLE( '', ( #388 ) );
#343 = FILL_AREA_STYLE( '', ( #389 ) );
#344 = FILL_AREA_STYLE( '', ( #390 ) );
#345 = FILL_AREA_STYLE_COLOUR( '', #391 );
#346 = VERTEX_POINT( '', #392 );
#347 = CIRCLE( '', #393, 20.0000000000000 );
#348 = VERTEX_POINT( '', #394 );
#349 = CIRCLE( '', #395, 20.0000000000000 );
#350 = FILL_AREA_STYLE_COLOUR( '', #396 );
#351 = VERTEX_POINT( '', #397 );
#352 = CIRCLE( '', #398, 20.0000000000000 );
#353 = VERTEX_POINT( '', #399 );
#354 = CIRCLE( '', #400, 17.5000000000000 );
#355 = FILL_AREA_STYLE_COLOUR( '', #401 );
#356 = VERTEX_POINT( '', #402 );
#357 = CIRCLE( '', #403, 17.5000000000000 );
#358 = FILL_AREA_STYLE_COLOUR( '', #404 );
#359 = VERTEX_POINT( '', #405 );
#360 = CIRCLE( '', #406, 20.0000000000000 );
#361 = VERTEX_POINT( '', #407 );
#362 = CIRCLE( '', #408, 17.5000000000000 );
#363 = FILL_AREA_STYLE_COLOUR( '', #409 );
#364 = VERTEX_POINT( '', #410 );
#365 = CIRCLE( '', #411, 20.0000000000000 );
#366 = FILL_AREA_STYLE_COLOUR( '', #412 );
#367 = FILL_AREA_STYLE_COLOUR( '', #413 );
#368 = VERTEX_POINT( '', #414 );
#369 = CIRCLE( '', #415, 17.5000000000000 );
#370 = FILL_AREA_STYLE_COLOUR( '', #416 );
#371 = VERTEX_POINT( '', #417 );
#372 = CIRCLE( '', #418, 17.5000000000000 );
#373 = FILL_AREA_STYLE_COLOUR( '', #419 );
#374 = VERTEX_POINT( '', #420 );
#375 = CIRCLE( '', #421, 20.0000000000000 );
#376 = VERTEX_POINT( '', #422 );
#377 = CIRCLE( '', #423, 17.5000000000000 );
#378 = FILL_AREA_STYLE_COLOUR( '', #424 );
#379 = VERTEX_POINT( '', #425 );
#380 = CIRCLE( '', #426, 20.0000000000000 );
#381 = FILL_AREA_STYLE_COLOUR( '', #427 );
#382 = VERTEX_POINT( '', #428 );
#383 = CIRCLE( '', #429, 20.0000000000000 );
#384 = FILL_AREA_STYLE_COLOUR( '', #430 );
#385 = FILL_AREA_STYLE_COLOUR( '', #431 );
#386 = VERTEX_POINT( '', #432 );
#387 = CIRCLE( '', #433, 17.5000000000000 );
#388 = FILL_AREA_STYLE_COLOUR( '', #434 );
#389 = FILL_AREA_STYLE_COLOUR( '', #435 );
#390 = FILL_AREA_STYLE_COLOUR( '', #436 );
#391 = COLOUR_RGB( '', 0.200000002980232, 0.200000002980232, 0.200000002980232 );
#392 = CARTESIAN_POINT( '', ( 20.0000000000000, 0.000000000000000, 11.8333333333334 ) );
#393 = AXIS2_PLACEMENT_3D( '', #437, #438, #439 );
#394 = CARTESIAN_POINT( '', ( 20.0000000000000, 0.000000000000000, 12.3333333333334 ) );
#395 = AXIS2_PLACEMENT_3D( '', #440, #441, #442 );
#396 = COLOUR_RGB( '', 0.200000002980232, 0.200000002980232, 0.200000002980232 );
#397 = CARTESIAN_POINT( '', ( 20.0000000000000, 0.000000000000000, 1.00000000000000 ) );
#398 = AXIS2_PLACEMENT_3D( '', #443, #444, #445 );
#399 = CARTESIAN_POINT( '', ( 17.5000000000000, 0.000000000000000, 1.00000000000000 ) );
#400 = AXIS2_PLACEMENT_3D( '', #446, #447, #448 );
#401 = COLOUR_RGB( '', 0.200000002980232, 0.200000002980232, 0.200000002980232 );
#402 = CARTESIAN_POINT( '', ( 17.5000000000000, 0.000000000000000, 5.66666666666667 ) );
#403 = AXIS2_PLACEMENT_3D( '', #449, #450, #451 );
#404 = COLOUR_RGB( '', 0.200000002980232, 0.200000002980232, 0.200000002980232 );
#405 = CARTESIAN_POINT( '', ( 20.0000000000000, 0.000000000000000, 6.66666666666668 ) );
#406 = AXIS2_PLACEMENT_3D( '', #452, #453, #454 );
#407 = CARTESIAN_POINT( '', ( 17.5000000000000, 0.000000000000000, 6.66666666666667 ) );
#408 = AXIS2_PLACEMENT_3D( '', #455, #456, #457 );
#409 = COLOUR_RGB( '', 0.200000002980232, 0.200000002980232, 0.200000002980232 );
#410 = CARTESIAN_POINT( '', ( 20.0000000000000, 0.000000000000000, 6.16666666666668 ) );
#411 = AXIS2_PLACEMENT_3D( '', #458, #459, #460 );
#412 = COLOUR_RGB( '', 0.200000002980232, 0.200000002980232, 0.200000002980232 );
#413 = COLOUR_RGB( '', 0.200000002980232, 0.200000002980232, 0.200000002980232 );
#414 = CARTESIAN_POINT( '', ( 17.5000000000000, 0.000000000000000, 11.3333333333333 ) );
#415 = AXIS2_PLACEMENT_3D( '', #461, #462, #463 );
#416 = COLOUR_RGB( '', 0.200000002980232, 0.200000002980232, 0.200000002980232 );
#417 = CARTESIAN_POINT( '', ( 17.5000000000000, 0.000000000000000, 0.000000000000000 ) );
#418 = AXIS2_PLACEMENT_3D( '', #464, #465, #466 );
#419 = COLOUR_RGB( '', 0.200000002980232, 0.200000002980232, 0.200000002980232 );
#420 = CARTESIAN_POINT( '', ( 20.0000000000000, 0.000000000000000, 17.0000000000000 ) );
#421 = AXIS2_PLACEMENT_3D( '', #467, #468, #469 );
#422 = CARTESIAN_POINT( '', ( 17.5000000000000, 0.000000000000000, 17.0000000000000 ) );
#423 = AXIS2_PLACEMENT_3D( '', #470, #471, #472 );
#424 = COLOUR_RGB( '', 0.200000002980232, 0.200000002980232, 0.200000002980232 );
#425 = CARTESIAN_POINT( '', ( 20.0000000000000, 0.000000000000000, 17.8257569495584 ) );
#426 = AXIS2_PLACEMENT_3D( '', #473, #474, #475 );
#427 = COLOUR_RGB( '', 0.200000002980232, 0.200000002980232, 0.200000002980232 );
#428 = CARTESIAN_POINT( '', ( 20.0000000000000, 0.000000000000000, 0.500000000000021 ) );
#429 = AXIS2_PLACEMENT_3D( '', #476, #477, #478 );
#430 = COLOUR_RGB( '', 0.200000002980232, 0.200000002980232, 0.200000002980232 );
#431 = COLOUR_RGB( '', 0.200000002980232, 0.200000002980232, 0.200000002980232 );
#432 = CARTESIAN_POINT( '', ( 17.5000000000000, 0.000000000000000, 12.3333333333333 ) );
#433 = AXIS2_PLACEMENT_3D( '', #479, #480, #481 );
#434 = COLOUR_RGB( '', 0.200000002980232, 0.200000002980232, 0.200000002980232 );
#435 = COLOUR_RGB( '', 0.200000002980232, 0.200000002980232, 0.200000002980232 );
#436 = COLOUR_RGB( '', 0.200000002980232, 0.200000002980232, 0.200000002980232 );
#437 = CARTESIAN_POINT( '', ( 0.000000000000000, 0.000000000000000, 11.8333333333334 ) );
#438 = DIRECTION( '', ( 0.000000000000000, 0.000000000000000, 1.00000000000000 ) );
#439 = DIRECTION( '', ( 1.00000000000000, 0.000000000000000, 0.000000000000000 ) );
#440 = CARTESIAN_POINT( '', ( 0.000000000000000, 0.000000000000000, 12.3333333333334 ) );
#441 = DIRECTION( '', ( 0.000000000000000, 0.000000000000000, 1.00000000000000 ) );
#442 = DIRECTION( '', ( 1.00000000000000, 0.000000000000000, 0.000000000000000 ) );
#443 = CARTESIAN_POINT( '', ( 0.000000000000000, 0.000000000000000, 1.00000000000000 ) );
#444 = DIRECTION( '', ( 0.000000000000000, 0.000000000000000, 1.00000000000000 ) );
#445 = DIRECTION( '', ( 1.00000000000000, 0.000000000000000, 0.000000000000000 ) );
#446 = CARTESIAN_POINT( '', ( 0.000000000000000, 0.000000000000000, 1.00000000000000 ) );
#447 = DIRECTION( '', ( 0.000000000000000, 0.000000000000000, 1.00000000000000 ) );
#448 = DIRECTION( '', ( 1.00000000000000, 0.000000000000000, 0.000000000000000 ) );
#449 = CARTESIAN_POINT( '', ( 0.000000000000000, 0.000000000000000, 5.66666666666667 ) );
#450 = DIRECTION( '', ( 0.000000000000000, 0.000000000000000, 1.00000000000000 ) );
#451 = DIRECTION( '', ( 1.00000000000000, 0.000000000000000, 0.000000000000000 ) );
#452 = CARTESIAN_POINT( '', ( 0.000000000000000, 0.000000000000000, 6.66666666666668 ) );
#453 = DIRECTION( '', ( 0.000000000000000, 0.000000000000000, 1.00000000000000 ) );
#454 = DIRECTION( '', ( 1.00000000000000, 0.000000000000000, 0.000000000000000 ) );
#455 = CARTESIAN_POINT( '', ( 0.000000000000000, 0.000000000000000, 6.66666666666667 ) );
#456 = DIRECTION( '', ( 0.000000000000000, 0.000000000000000, 1.00000000000000 ) );
#457 = DIRECTION( '', ( 1.00000000000000, 0.000000000000000, 0.000000000000000 ) );
#458 = CARTESIAN_POINT( '', ( 0.000000000000000, 0.000000000000000, 6.16666666666668 ) );
#459 = DIRECTION( '', ( 0.000000000000000, 0.000000000000000, 1.00000000000000 ) );
#460 = DIRECTION( '', ( 1.00000000000000, 0.000000000000000, 0.000000000000000 ) );
#461 = CARTESIAN_POINT( '', ( 0.000000000000000, 0.000000000000000, 11.3333333333333 ) );
#462 = DIRECTION( '', ( 0.000000000000000, 0.000000000000000, 1.00000000000000 ) );
#463 = DIRECTION( '', ( 1.00000000000000, 0.000000000000000, 0.000000000000000 ) );
#464 = CARTESIAN_POINT( '', ( 0.000000000000000, 0.000000000000000, 0.000000000000000 ) );
#465 = DIRECTION( '', ( 0.000000000000000, 0.000000000000000, 1.00000000000000 ) );
#466 = DIRECTION( '', ( 1.00000000000000, 0.000000000000000, 0.000000000000000 ) );
#467 = CARTESIAN_POINT( '', ( 0.000000000000000, 0.000000000000000, 17.0000000000000 ) );
#468 = DIRECTION( '', ( 0.000000000000000, 0.000000000000000, 1.00000000000000 ) );
#469 = DIRECTION( '', ( 1.00000000000000, 0.000000000000000, 0.000000000000000 ) );
#470 = CARTESIAN_POINT( '', ( 0.000000000000000, 0.000000000000000, 17.0000000000000 ) );
#471 = DIRECTION( '', ( 0.000000000000000, 0.000000000000000, 1.00000000000000 ) );
#472 = DIRECTION( '', ( 1.00000000000000, 0.000000000000000, 0.000000000000000 ) );
#473 = CARTESIAN_POINT( '', ( 0.000000000000000, 0.000000000000000, 17.8257569495584 ) );
#474 = DIRECTION( '', ( 0.000000000000000, 0.000000000000000, 1.00000000000000 ) );
#475 = DIRECTION( '', ( 1.00000000000000, 0.000000000000000, 0.000000000000000 ) );
#476 = CARTESIAN_POINT( '', ( 0.000000000000000, 0.000000000000000, 0.500000000000021 ) );
#477 = DIRECTION( '', ( 0.000000000000000, 0.000000000000000, 1.00000000000000 ) );
#478 = DIRECTION( '', ( 1.00000000000000, 0.000000000000000, 0.000000000000000 ) );
#479 = CARTESIAN_POINT( '', ( 0.000000000000000, 0.000000000000000, 12.3333333333333 ) );
#480 = DIRECTION( '', ( 0.000000000000000, 0.000000000000000, 1.00000000000000 ) );
#481 = DIRECTION( '', ( 1.00000000000000, 0.000000000000000, 0.000000000000000 ) );
ENDSEC;
END-ISO-10303-21;
