ISO-10303-21;
HEADER;
FILE_DESCRIPTION( ( 'Unknown' ), '1' );
FILE_NAME( '//SBS2003/HD_Usb/Disegni/08_LIB/Users_3D/PROD_GAMM_3D/PNF/7321260.stp', 'Unknown', ( 'Unknown' ), ( 'Unknown' ), 'PSStep 14.0', 'Unknown', '  ' );
FILE_SCHEMA( ( 'AUTOMOTIVE_DESIGN { 1 0 10303 214 1 1 1 1 }' ) );
ENDSEC;
DATA;
#1 = MECHANICAL_DESIGN_GEOMETRIC_PRESENTATION_REPRESENTATION( ' ', ( #10, #11, #12, #13, #14, #15, #16, #17, #18, #19, #20, #21, #22, #23, #24, #25, #26 ), #6 );
#2 = PRODUCT_DEFINITION_CONTEXT( '', #27, 'design' );
#3 = APPLICATION_PROTOCOL_DEFINITION( 'international standard', 'automotive_design', 2001, #27 );
#4 = PRODUCT_CATEGORY_RELATIONSHIP( 'NONE', 'NONE', #28, #29 );
#5 = SHAPE_DEFINITION_REPRESENTATION( #30, #31 );
#6 =  ( GEOMETRIC_REPRESENTATION_CONTEXT( 3 )GLOBAL_UNCERTAINTY_ASSIGNED_CONTEXT( ( #34 ) )GLOBAL_UNIT_ASSIGNED_CONTEXT( ( #36, #37, #38 ) )REPRESENTATION_CONTEXT( 'NONE', 'WORKSPACE' ) );
#10 = STYLED_ITEM( '', ( #40 ), #41 );
#11 = STYLED_ITEM( '', ( #42 ), #43 );
#12 = STYLED_ITEM( '', ( #44 ), #45 );
#13 = STYLED_ITEM( '', ( #46 ), #47 );
#14 = STYLED_ITEM( '', ( #48 ), #49 );
#15 = STYLED_ITEM( '', ( #50 ), #51 );
#16 = STYLED_ITEM( '', ( #52 ), #53 );
#17 = STYLED_ITEM( '', ( #54 ), #55 );
#18 = STYLED_ITEM( '', ( #56 ), #57 );
#19 = STYLED_ITEM( '', ( #58 ), #59 );
#20 = STYLED_ITEM( '', ( #60 ), #61 );
#21 = STYLED_ITEM( '', ( #62 ), #63 );
#22 = STYLED_ITEM( '', ( #64 ), #65 );
#23 = STYLED_ITEM( '', ( #66 ), #67 );
#24 = STYLED_ITEM( '', ( #68 ), #69 );
#25 = STYLED_ITEM( '', ( #70 ), #71 );
#26 = STYLED_ITEM( '', ( #72 ), #73 );
#27 = APPLICATION_CONTEXT( 'core data for automotive mechanical design processes' );
#28 = PRODUCT_CATEGORY( 'part', 'NONE' );
#29 = PRODUCT_RELATED_PRODUCT_CATEGORY( 'detail', ' ', ( #74 ) );
#30 = PRODUCT_DEFINITION_SHAPE( 'NONE', 'NONE', #75 );
#31 = ADVANCED_BREP_SHAPE_REPRESENTATION( '1', ( #76, #77 ), #6 );
#34 = UNCERTAINTY_MEASURE_WITH_UNIT( LENGTH_MEASURE( 0.00100000000000000 ), #36, '', '' );
#36 =  ( CONVERSION_BASED_UNIT( 'MILLIMETRE', #80 )LENGTH_UNIT(  )NAMED_UNIT( #83 ) );
#37 =  ( NAMED_UNIT( #85 )PLANE_ANGLE_UNIT(  )SI_UNIT( $, .RADIAN. ) );
#38 =  ( NAMED_UNIT( #85 )SI_UNIT( $, .STERADIAN. )SOLID_ANGLE_UNIT(  ) );
#40 = PRESENTATION_STYLE_ASSIGNMENT( ( #91 ) );
#41 = ADVANCED_FACE( '', ( #92, #93 ), #94, .T. );
#42 = PRESENTATION_STYLE_ASSIGNMENT( ( #95 ) );
#43 = ADVANCED_FACE( '', ( #96, #97 ), #98, .F. );
#44 = PRESENTATION_STYLE_ASSIGNMENT( ( #99 ) );
#45 = ADVANCED_FACE( '', ( #100, #101 ), #102, .F. );
#46 = PRESENTATION_STYLE_ASSIGNMENT( ( #103 ) );
#47 = ADVANCED_FACE( '', ( #104, #105 ), #106, .T. );
#48 = PRESENTATION_STYLE_ASSIGNMENT( ( #107 ) );
#49 = ADVANCED_FACE( '', ( #108, #109 ), #110, .F. );
#50 = PRESENTATION_STYLE_ASSIGNMENT( ( #111 ) );
#51 = ADVANCED_FACE( '', ( #112, #113 ), #114, .T. );
#52 = PRESENTATION_STYLE_ASSIGNMENT( ( #115 ) );
#53 = ADVANCED_FACE( '', ( #116, #117 ), #118, .T. );
#54 = PRESENTATION_STYLE_ASSIGNMENT( ( #119 ) );
#55 = ADVANCED_FACE( '', ( #120, #121 ), #122, .T. );
#56 = PRESENTATION_STYLE_ASSIGNMENT( ( #123 ) );
#57 = ADVANCED_FACE( '', ( #124, #125 ), #126, .T. );
#58 = PRESENTATION_STYLE_ASSIGNMENT( ( #127 ) );
#59 = ADVANCED_FACE( '', ( #128, #129 ), #130, .T. );
#60 = PRESENTATION_STYLE_ASSIGNMENT( ( #131 ) );
#61 = ADVANCED_FACE( '', ( #132, #133 ), #134, .T. );
#62 = PRESENTATION_STYLE_ASSIGNMENT( ( #135 ) );
#63 = ADVANCED_FACE( '', ( #136, #137 ), #138, .F. );
#64 = PRESENTATION_STYLE_ASSIGNMENT( ( #139 ) );
#65 = ADVANCED_FACE( '', ( #140, #141 ), #142, .T. );
#66 = PRESENTATION_STYLE_ASSIGNMENT( ( #143 ) );
#67 = ADVANCED_FACE( '', ( #144, #145 ), #146, .T. );
#68 = PRESENTATION_STYLE_ASSIGNMENT( ( #147 ) );
#69 = ADVANCED_FACE( '', ( #148, #149 ), #150, .F. );
#70 = PRESENTATION_STYLE_ASSIGNMENT( ( #151 ) );
#71 = ADVANCED_FACE( '', ( #152, #153 ), #154, .F. );
#72 = PRESENTATION_STYLE_ASSIGNMENT( ( #155 ) );
#73 = ADVANCED_FACE( '', ( #156, #157 ), #158, .F. );
#74 = PRODUCT( '1', '1', 'PART-1-DESC', ( #159 ) );
#75 = PRODUCT_DEFINITION( 'NONE', 'NONE', #160, #2 );
#76 = MANIFOLD_SOLID_BREP( '1', #161 );
#77 = AXIS2_PLACEMENT_3D( '', #162, #163, #164 );
#80 = LENGTH_MEASURE_WITH_UNIT( LENGTH_MEASURE( 1.00000000000000 ), #165 );
#83 = DIMENSIONAL_EXPONENTS( 1.00000000000000, 0.000000000000000, 0.000000000000000, 0.000000000000000, 0.000000000000000, 0.000000000000000, 0.000000000000000 );
#85 = DIMENSIONAL_EXPONENTS( 0.000000000000000, 0.000000000000000, 0.000000000000000, 0.000000000000000, 0.000000000000000, 0.000000000000000, 0.000000000000000 );
#91 = SURFACE_STYLE_USAGE( .BOTH., #166 );
#92 = FACE_BOUND( '', #167, .T. );
#93 = FACE_OUTER_BOUND( '', #168, .T. );
#94 = CONICAL_SURFACE( '', #169, 25.0000000000000, 0.896055384571345 );
#95 = SURFACE_STYLE_USAGE( .BOTH., #170 );
#96 = FACE_BOUND( '', #171, .T. );
#97 = FACE_OUTER_BOUND( '', #172, .T. );
#98 = PLANE( '', #173 );
#99 = SURFACE_STYLE_USAGE( .BOTH., #174 );
#100 = FACE_OUTER_BOUND( '', #175, .T. );
#101 = FACE_OUTER_BOUND( '', #176, .T. );
#102 = CYLINDRICAL_SURFACE( '', #177, 4.18800000000000 );
#103 = SURFACE_STYLE_USAGE( .BOTH., #178 );
#104 = FACE_OUTER_BOUND( '', #179, .T. );
#105 = FACE_OUTER_BOUND( '', #180, .T. );
#106 = CYLINDRICAL_SURFACE( '', #181, 22.5000000000000 );
#107 = SURFACE_STYLE_USAGE( .BOTH., #182 );
#108 = FACE_OUTER_BOUND( '', #183, .T. );
#109 = FACE_BOUND( '', #184, .T. );
#110 = CONICAL_SURFACE( '', #185, 4.18800000000000, 0.785398163397448 );
#111 = SURFACE_STYLE_USAGE( .BOTH., #186 );
#112 = FACE_OUTER_BOUND( '', #187, .T. );
#113 = FACE_OUTER_BOUND( '', #188, .T. );
#114 = TOROIDAL_SURFACE( '', #189, 24.0000000000000, 1.00000000000000 );
#115 = SURFACE_STYLE_USAGE( .BOTH., #190 );
#116 = FACE_BOUND( '', #191, .T. );
#117 = FACE_OUTER_BOUND( '', #192, .T. );
#118 = CONICAL_SURFACE( '', #193, 25.0000000000000, 0.896055384571345 );
#119 = SURFACE_STYLE_USAGE( .BOTH., #194 );
#120 = FACE_OUTER_BOUND( '', #195, .T. );
#121 = FACE_OUTER_BOUND( '', #196, .T. );
#122 = CYLINDRICAL_SURFACE( '', #197, 22.5000000000000 );
#123 = SURFACE_STYLE_USAGE( .BOTH., #198 );
#124 = FACE_OUTER_BOUND( '', #199, .T. );
#125 = FACE_BOUND( '', #200, .T. );
#126 = CONICAL_SURFACE( '', #201, 22.5000000000000, 0.896055384571340 );
#127 = SURFACE_STYLE_USAGE( .BOTH., #202 );
#128 = FACE_OUTER_BOUND( '', #203, .T. );
#129 = FACE_BOUND( '', #204, .T. );
#130 = PLANE( '', #205 );
#131 = SURFACE_STYLE_USAGE( .BOTH., #206 );
#132 = FACE_OUTER_BOUND( '', #207, .T. );
#133 = FACE_BOUND( '', #208, .T. );
#134 = PLANE( '', #209 );
#135 = SURFACE_STYLE_USAGE( .BOTH., #210 );
#136 = FACE_BOUND( '', #211, .T. );
#137 = FACE_OUTER_BOUND( '', #212, .T. );
#138 = CONICAL_SURFACE( '', #213, 4.68800000000000, 0.785398163397448 );
#139 = SURFACE_STYLE_USAGE( .BOTH., #214 );
#140 = FACE_OUTER_BOUND( '', #215, .T. );
#141 = FACE_OUTER_BOUND( '', #216, .T. );
#142 = CYLINDRICAL_SURFACE( '', #217, 22.5000000000000 );
#143 = SURFACE_STYLE_USAGE( .BOTH., #218 );
#144 = FACE_OUTER_BOUND( '', #219, .T. );
#145 = FACE_OUTER_BOUND( '', #220, .T. );
#146 = CYLINDRICAL_SURFACE( '', #221, 25.0000000000000 );
#147 = SURFACE_STYLE_USAGE( .BOTH., #222 );
#148 = FACE_OUTER_BOUND( '', #223, .T. );
#149 = FACE_BOUND( '', #224, .T. );
#150 = PLANE( '', #225 );
#151 = SURFACE_STYLE_USAGE( .BOTH., #226 );
#152 = FACE_OUTER_BOUND( '', #227, .T. );
#153 = FACE_BOUND( '', #228, .T. );
#154 = PLANE( '', #229 );
#155 = SURFACE_STYLE_USAGE( .BOTH., #230 );
#156 = FACE_BOUND( '', #231, .T. );
#157 = FACE_OUTER_BOUND( '', #232, .T. );
#158 = PLANE( '', #233 );
#159 = PRODUCT_CONTEXT( '', #27, 'mechanical' );
#160 = PRODUCT_DEFINITION_FORMATION_WITH_SPECIFIED_SOURCE( ' ', 'NONE', #74, .NOT_KNOWN. );
#161 = CLOSED_SHELL( '', ( #43, #51, #41, #65, #59, #47, #55, #53, #57, #69, #63, #49, #45, #71, #67, #61, #73 ) );
#162 = CARTESIAN_POINT( '', ( 0.000000000000000, 0.000000000000000, 0.000000000000000 ) );
#163 = DIRECTION( '', ( 0.000000000000000, 0.000000000000000, 1.00000000000000 ) );
#164 = DIRECTION( '', ( 1.00000000000000, 0.000000000000000, 0.000000000000000 ) );
#165 =  ( LENGTH_UNIT(  )NAMED_UNIT( #83 )SI_UNIT( .MILLI., .METRE. ) );
#166 = SURFACE_SIDE_STYLE( '', ( #235 ) );
#167 = EDGE_LOOP( '', ( #236 ) );
#168 = EDGE_LOOP( '', ( #237 ) );
#169 = AXIS2_PLACEMENT_3D( '', #238, #239, #240 );
#170 = SURFACE_SIDE_STYLE( '', ( #241 ) );
#171 = EDGE_LOOP( '', ( #242 ) );
#172 = EDGE_LOOP( '', ( #243 ) );
#173 = AXIS2_PLACEMENT_3D( '', #244, #245, #246 );
#174 = SURFACE_SIDE_STYLE( '', ( #247 ) );
#175 = EDGE_LOOP( '', ( #248 ) );
#176 = EDGE_LOOP( '', ( #249 ) );
#177 = AXIS2_PLACEMENT_3D( '', #250, #251, #252 );
#178 = SURFACE_SIDE_STYLE( '', ( #253 ) );
#179 = EDGE_LOOP( '', ( #254 ) );
#180 = EDGE_LOOP( '', ( #255 ) );
#181 = AXIS2_PLACEMENT_3D( '', #256, #257, #258 );
#182 = SURFACE_SIDE_STYLE( '', ( #259 ) );
#183 = EDGE_LOOP( '', ( #260 ) );
#184 = EDGE_LOOP( '', ( #261 ) );
#185 = AXIS2_PLACEMENT_3D( '', #262, #263, #264 );
#186 = SURFACE_SIDE_STYLE( '', ( #265 ) );
#187 = EDGE_LOOP( '', ( #266 ) );
#188 = EDGE_LOOP( '', ( #267 ) );
#189 = AXIS2_PLACEMENT_3D( '', #268, #269, #270 );
#190 = SURFACE_SIDE_STYLE( '', ( #271 ) );
#191 = EDGE_LOOP( '', ( #272 ) );
#192 = EDGE_LOOP( '', ( #273 ) );
#193 = AXIS2_PLACEMENT_3D( '', #274, #275, #276 );
#194 = SURFACE_SIDE_STYLE( '', ( #277 ) );
#195 = EDGE_LOOP( '', ( #278 ) );
#196 = EDGE_LOOP( '', ( #279 ) );
#197 = AXIS2_PLACEMENT_3D( '', #280, #281, #282 );
#198 = SURFACE_SIDE_STYLE( '', ( #283 ) );
#199 = EDGE_LOOP( '', ( #284 ) );
#200 = EDGE_LOOP( '', ( #285 ) );
#201 = AXIS2_PLACEMENT_3D( '', #286, #287, #288 );
#202 = SURFACE_SIDE_STYLE( '', ( #289 ) );
#203 = EDGE_LOOP( '', ( #290 ) );
#204 = EDGE_LOOP( '', ( #291 ) );
#205 = AXIS2_PLACEMENT_3D( '', #292, #293, #294 );
#206 = SURFACE_SIDE_STYLE( '', ( #295 ) );
#207 = EDGE_LOOP( '', ( #296 ) );
#208 = EDGE_LOOP( '', ( #297 ) );
#209 = AXIS2_PLACEMENT_3D( '', #298, #299, #300 );
#210 = SURFACE_SIDE_STYLE( '', ( #301 ) );
#211 = EDGE_LOOP( '', ( #302 ) );
#212 = EDGE_LOOP( '', ( #303 ) );
#213 = AXIS2_PLACEMENT_3D( '', #304, #305, #306 );
#214 = SURFACE_SIDE_STYLE( '', ( #307 ) );
#215 = EDGE_LOOP( '', ( #308 ) );
#216 = EDGE_LOOP( '', ( #309 ) );
#217 = AXIS2_PLACEMENT_3D( '', #310, #311, #312 );
#218 = SURFACE_SIDE_STYLE( '', ( #313 ) );
#219 = EDGE_LOOP( '', ( #314 ) );
#220 = EDGE_LOOP( '', ( #315 ) );
#221 = AXIS2_PLACEMENT_3D( '', #316, #317, #318 );
#222 = SURFACE_SIDE_STYLE( '', ( #319 ) );
#223 = EDGE_LOOP( '', ( #320 ) );
#224 = EDGE_LOOP( '', ( #321 ) );
#225 = AXIS2_PLACEMENT_3D( '', #322, #323, #324 );
#226 = SURFACE_SIDE_STYLE( '', ( #325 ) );
#227 = EDGE_LOOP( '', ( #326 ) );
#228 = EDGE_LOOP( '', ( #327 ) );
#229 = AXIS2_PLACEMENT_3D( '', #328, #329, #330 );
#230 = SURFACE_SIDE_STYLE( '', ( #331 ) );
#231 = EDGE_LOOP( '', ( #332 ) );
#232 = EDGE_LOOP( '', ( #333 ) );
#233 = AXIS2_PLACEMENT_3D( '', #334, #335, #336 );
#235 = SURFACE_STYLE_FILL_AREA( #337 );
#236 = ORIENTED_EDGE( '', *, *, #338, .T. );
#237 = ORIENTED_EDGE( '', *, *, #339, .F. );
#238 = CARTESIAN_POINT( '', ( 0.000000000000000, 0.000000000000000, 16.0000000000000 ) );
#239 = DIRECTION( '', ( -0.000000000000000, -0.000000000000000, 1.00000000000000 ) );
#240 = DIRECTION( '', ( 1.00000000000000, 0.000000000000000, 0.000000000000000 ) );
#241 = SURFACE_STYLE_FILL_AREA( #340 );
#242 = ORIENTED_EDGE( '', *, *, #341, .T. );
#243 = ORIENTED_EDGE( '', *, *, #342, .F. );
#244 = CARTESIAN_POINT( '', ( 3.12284908533845E-015, 0.000000000000000, 0.000000000000000 ) );
#245 = DIRECTION( '', ( 0.000000000000000, 0.000000000000000, 1.00000000000000 ) );
#246 = DIRECTION( '', ( 1.00000000000000, 0.000000000000000, 0.000000000000000 ) );
#247 = SURFACE_STYLE_FILL_AREA( #343 );
#248 = ORIENTED_EDGE( '', *, *, #344, .T. );
#249 = ORIENTED_EDGE( '', *, *, #345, .T. );
#250 = CARTESIAN_POINT( '', ( 0.000000000000000, 0.000000000000000, 75.6901578806651 ) );
#251 = DIRECTION( '', ( -0.000000000000000, -0.000000000000000, 1.00000000000000 ) );
#252 = DIRECTION( '', ( -1.00000000000000, 0.000000000000000, 0.000000000000000 ) );
#253 = SURFACE_STYLE_FILL_AREA( #346 );
#254 = ORIENTED_EDGE( '', *, *, #347, .F. );
#255 = ORIENTED_EDGE( '', *, *, #348, .F. );
#256 = CARTESIAN_POINT( '', ( 0.000000000000000, 0.000000000000000, 57.1500000000000 ) );
#257 = DIRECTION( '', ( -0.000000000000000, -0.000000000000000, -1.00000000000000 ) );
#258 = DIRECTION( '', ( 1.00000000000000, 0.000000000000000, 0.000000000000000 ) );
#259 = SURFACE_STYLE_FILL_AREA( #349 );
#260 = ORIENTED_EDGE( '', *, *, #350, .F. );
#261 = ORIENTED_EDGE( '', *, *, #345, .F. );
#262 = CARTESIAN_POINT( '', ( 0.000000000000000, 0.000000000000000, 26.5000000000000 ) );
#263 = DIRECTION( '', ( -0.000000000000000, -0.000000000000000, 1.00000000000000 ) );
#264 = DIRECTION( '', ( 1.00000000000000, 0.000000000000000, 0.000000000000000 ) );
#265 = SURFACE_STYLE_FILL_AREA( #351 );
#266 = ORIENTED_EDGE( '', *, *, #352, .F. );
#267 = ORIENTED_EDGE( '', *, *, #353, .F. );
#268 = CARTESIAN_POINT( '', ( 0.000000000000000, 0.000000000000000, 26.0000000000000 ) );
#269 = DIRECTION( '', ( 0.000000000000000, 0.000000000000000, -1.00000000000000 ) );
#270 = DIRECTION( '', ( -1.00000000000000, 0.000000000000000, 0.000000000000000 ) );
#271 = SURFACE_STYLE_FILL_AREA( #354 );
#272 = ORIENTED_EDGE( '', *, *, #347, .T. );
#273 = ORIENTED_EDGE( '', *, *, #355, .F. );
#274 = CARTESIAN_POINT( '', ( 0.000000000000000, 0.000000000000000, 9.00000000000000 ) );
#275 = DIRECTION( '', ( -0.000000000000000, -0.000000000000000, 1.00000000000000 ) );
#276 = DIRECTION( '', ( 1.00000000000000, 0.000000000000000, 0.000000000000000 ) );
#277 = SURFACE_STYLE_FILL_AREA( #356 );
#278 = ORIENTED_EDGE( '', *, *, #357, .T. );
#279 = ORIENTED_EDGE( '', *, *, #358, .F. );
#280 = CARTESIAN_POINT( '', ( 0.000000000000000, 0.000000000000000, 57.1500000000000 ) );
#281 = DIRECTION( '', ( -0.000000000000000, -0.000000000000000, -1.00000000000000 ) );
#282 = DIRECTION( '', ( 1.00000000000000, 0.000000000000000, 0.000000000000000 ) );
#283 = SURFACE_STYLE_FILL_AREA( #359 );
#284 = ORIENTED_EDGE( '', *, *, #360, .F. );
#285 = ORIENTED_EDGE( '', *, *, #342, .T. );
#286 = CARTESIAN_POINT( '', ( 0.000000000000000, 0.000000000000000, -6.93889390390723E-015 ) );
#287 = DIRECTION( '', ( -0.000000000000000, -0.000000000000000, 1.00000000000000 ) );
#288 = DIRECTION( '', ( 1.00000000000000, 0.000000000000000, 0.000000000000000 ) );
#289 = SURFACE_STYLE_FILL_AREA( #361 );
#290 = ORIENTED_EDGE( '', *, *, #355, .T. );
#291 = ORIENTED_EDGE( '', *, *, #362, .F. );
#292 = CARTESIAN_POINT( '', ( 22.5000000000000, 0.000000000000000, 9.00000000000000 ) );
#293 = DIRECTION( '', ( 0.000000000000000, 0.000000000000000, 1.00000000000000 ) );
#294 = DIRECTION( '', ( 1.00000000000000, 0.000000000000000, 0.000000000000000 ) );
#295 = SURFACE_STYLE_FILL_AREA( #363 );
#296 = ORIENTED_EDGE( '', *, *, #339, .T. );
#297 = ORIENTED_EDGE( '', *, *, #357, .F. );
#298 = CARTESIAN_POINT( '', ( 22.5000000000000, 0.000000000000000, 16.0000000000000 ) );
#299 = DIRECTION( '', ( 0.000000000000000, 0.000000000000000, 1.00000000000000 ) );
#300 = DIRECTION( '', ( 1.00000000000000, 0.000000000000000, 0.000000000000000 ) );
#301 = SURFACE_STYLE_FILL_AREA( #364 );
#302 = ORIENTED_EDGE( '', *, *, #344, .F. );
#303 = ORIENTED_EDGE( '', *, *, #341, .F. );
#304 = CARTESIAN_POINT( '', ( 0.000000000000000, 0.000000000000000, 0.000000000000000 ) );
#305 = DIRECTION( '', ( -0.000000000000000, 0.000000000000000, -1.00000000000000 ) );
#306 = DIRECTION( '', ( -1.00000000000000, 0.000000000000000, 0.000000000000000 ) );
#307 = SURFACE_STYLE_FILL_AREA( #365 );
#308 = ORIENTED_EDGE( '', *, *, #338, .F. );
#309 = ORIENTED_EDGE( '', *, *, #362, .T. );
#310 = CARTESIAN_POINT( '', ( 0.000000000000000, 0.000000000000000, 57.1500000000000 ) );
#311 = DIRECTION( '', ( -0.000000000000000, -0.000000000000000, -1.00000000000000 ) );
#312 = DIRECTION( '', ( 1.00000000000000, 0.000000000000000, 0.000000000000000 ) );
#313 = SURFACE_STYLE_FILL_AREA( #366 );
#314 = ORIENTED_EDGE( '', *, *, #352, .T. );
#315 = ORIENTED_EDGE( '', *, *, #367, .T. );
#316 = CARTESIAN_POINT( '', ( 0.000000000000000, 0.000000000000000, 57.1500000000000 ) );
#317 = DIRECTION( '', ( -0.000000000000000, -0.000000000000000, -1.00000000000000 ) );
#318 = DIRECTION( '', ( 1.00000000000000, 0.000000000000000, 0.000000000000000 ) );
#319 = SURFACE_STYLE_FILL_AREA( #368 );
#320 = ORIENTED_EDGE( '', *, *, #353, .T. );
#321 = ORIENTED_EDGE( '', *, *, #350, .T. );
#322 = CARTESIAN_POINT( '', ( 25.0000000000000, 0.000000000000000, 27.0000000000000 ) );
#323 = DIRECTION( '', ( 0.000000000000000, 0.000000000000000, -1.00000000000000 ) );
#324 = DIRECTION( '', ( -1.00000000000000, 0.000000000000000, 0.000000000000000 ) );
#325 = SURFACE_STYLE_FILL_AREA( #369 );
#326 = ORIENTED_EDGE( '', *, *, #367, .F. );
#327 = ORIENTED_EDGE( '', *, *, #358, .T. );
#328 = CARTESIAN_POINT( '', ( 22.5000000000000, 0.000000000000000, 21.0000000000000 ) );
#329 = DIRECTION( '', ( 0.000000000000000, 0.000000000000000, 1.00000000000000 ) );
#330 = DIRECTION( '', ( 1.00000000000000, 0.000000000000000, 0.000000000000000 ) );
#331 = SURFACE_STYLE_FILL_AREA( #370 );
#332 = ORIENTED_EDGE( '', *, *, #348, .T. );
#333 = ORIENTED_EDGE( '', *, *, #360, .T. );
#334 = CARTESIAN_POINT( '', ( 25.0000000000000, 0.000000000000000, 2.00000000000000 ) );
#335 = DIRECTION( '', ( 0.000000000000000, 0.000000000000000, -1.00000000000000 ) );
#336 = DIRECTION( '', ( -1.00000000000000, 0.000000000000000, 0.000000000000000 ) );
#337 = FILL_AREA_STYLE( '', ( #371 ) );
#338 = EDGE_CURVE( '', #372, #372, #373, .T. );
#339 = EDGE_CURVE( '', #374, #374, #375, .T. );
#340 = FILL_AREA_STYLE( '', ( #376 ) );
#341 = EDGE_CURVE( '', #377, #377, #378, .T. );
#342 = EDGE_CURVE( '', #379, #379, #380, .T. );
#343 = FILL_AREA_STYLE( '', ( #381 ) );
#344 = EDGE_CURVE( '', #382, #382, #383, .F. );
#345 = EDGE_CURVE( '', #384, #384, #385, .F. );
#346 = FILL_AREA_STYLE( '', ( #386 ) );
#347 = EDGE_CURVE( '', #387, #387, #388, .T. );
#348 = EDGE_CURVE( '', #389, #389, #390, .T. );
#349 = FILL_AREA_STYLE( '', ( #391 ) );
#350 = EDGE_CURVE( '', #392, #392, #393, .T. );
#351 = FILL_AREA_STYLE( '', ( #394 ) );
#352 = EDGE_CURVE( '', #395, #395, #396, .T. );
#353 = EDGE_CURVE( '', #397, #397, #398, .F. );
#354 = FILL_AREA_STYLE( '', ( #399 ) );
#355 = EDGE_CURVE( '', #400, #400, #401, .T. );
#356 = FILL_AREA_STYLE( '', ( #402 ) );
#357 = EDGE_CURVE( '', #403, #403, #404, .T. );
#358 = EDGE_CURVE( '', #405, #405, #406, .T. );
#359 = FILL_AREA_STYLE( '', ( #407 ) );
#360 = EDGE_CURVE( '', #408, #408, #409, .T. );
#361 = FILL_AREA_STYLE( '', ( #410 ) );
#362 = EDGE_CURVE( '', #411, #411, #412, .T. );
#363 = FILL_AREA_STYLE( '', ( #413 ) );
#364 = FILL_AREA_STYLE( '', ( #414 ) );
#365 = FILL_AREA_STYLE( '', ( #415 ) );
#366 = FILL_AREA_STYLE( '', ( #416 ) );
#367 = EDGE_CURVE( '', #417, #417, #418, .T. );
#368 = FILL_AREA_STYLE( '', ( #419 ) );
#369 = FILL_AREA_STYLE( '', ( #420 ) );
#370 = FILL_AREA_STYLE( '', ( #421 ) );
#371 = FILL_AREA_STYLE_COLOUR( '', #422 );
#372 = VERTEX_POINT( '', #423 );
#373 = CIRCLE( '', #424, 22.5000000000000 );
#374 = VERTEX_POINT( '', #425 );
#375 = CIRCLE( '', #426, 25.0000000000000 );
#376 = FILL_AREA_STYLE_COLOUR( '', #427 );
#377 = VERTEX_POINT( '', #428 );
#378 = CIRCLE( '', #429, 4.68800000000000 );
#379 = VERTEX_POINT( '', #430 );
#380 = CIRCLE( '', #431, 22.5000000000000 );
#381 = FILL_AREA_STYLE_COLOUR( '', #432 );
#382 = VERTEX_POINT( '', #433 );
#383 = CIRCLE( '', #434, 4.18800000000000 );
#384 = VERTEX_POINT( '', #435 );
#385 = CIRCLE( '', #436, 4.18800000000000 );
#386 = FILL_AREA_STYLE_COLOUR( '', #437 );
#387 = VERTEX_POINT( '', #438 );
#388 = CIRCLE( '', #439, 22.5000000000000 );
#389 = VERTEX_POINT( '', #440 );
#390 = CIRCLE( '', #441, 22.5000000000000 );
#391 = FILL_AREA_STYLE_COLOUR( '', #442 );
#392 = VERTEX_POINT( '', #443 );
#393 = CIRCLE( '', #444, 4.68800000000000 );
#394 = FILL_AREA_STYLE_COLOUR( '', #445 );
#395 = VERTEX_POINT( '', #446 );
#396 = CIRCLE( '', #447, 25.0000000000000 );
#397 = VERTEX_POINT( '', #448 );
#398 = CIRCLE( '', #449, 24.0000000000000 );
#399 = FILL_AREA_STYLE_COLOUR( '', #450 );
#400 = VERTEX_POINT( '', #451 );
#401 = CIRCLE( '', #452, 25.0000000000000 );
#402 = FILL_AREA_STYLE_COLOUR( '', #453 );
#403 = VERTEX_POINT( '', #454 );
#404 = CIRCLE( '', #455, 22.5000000000000 );
#405 = VERTEX_POINT( '', #456 );
#406 = CIRCLE( '', #457, 22.5000000000000 );
#407 = FILL_AREA_STYLE_COLOUR( '', #458 );
#408 = VERTEX_POINT( '', #459 );
#409 = CIRCLE( '', #460, 25.0000000000000 );
#410 = FILL_AREA_STYLE_COLOUR( '', #461 );
#411 = VERTEX_POINT( '', #462 );
#412 = CIRCLE( '', #463, 22.5000000000000 );
#413 = FILL_AREA_STYLE_COLOUR( '', #464 );
#414 = FILL_AREA_STYLE_COLOUR( '', #465 );
#415 = FILL_AREA_STYLE_COLOUR( '', #466 );
#416 = FILL_AREA_STYLE_COLOUR( '', #467 );
#417 = VERTEX_POINT( '', #468 );
#418 = CIRCLE( '', #469, 25.0000000000000 );
#419 = FILL_AREA_STYLE_COLOUR( '', #470 );
#420 = FILL_AREA_STYLE_COLOUR( '', #471 );
#421 = FILL_AREA_STYLE_COLOUR( '', #472 );
#422 = COLOUR_RGB( '', 0.200000002980232, 0.200000002980232, 0.200000002980232 );
#423 = CARTESIAN_POINT( '', ( 22.5000000000000, 0.000000000000000, 14.0000000000000 ) );
#424 = AXIS2_PLACEMENT_3D( '', #473, #474, #475 );
#425 = CARTESIAN_POINT( '', ( 25.0000000000000, 0.000000000000000, 16.0000000000000 ) );
#426 = AXIS2_PLACEMENT_3D( '', #476, #477, #478 );
#427 = COLOUR_RGB( '', 0.200000002980232, 0.200000002980232, 0.200000002980232 );
#428 = CARTESIAN_POINT( '', ( 4.68800000000000, 0.000000000000000, 0.000000000000000 ) );
#429 = AXIS2_PLACEMENT_3D( '', #479, #480, #481 );
#430 = CARTESIAN_POINT( '', ( 22.5000000000000, 0.000000000000000, 0.000000000000000 ) );
#431 = AXIS2_PLACEMENT_3D( '', #482, #483, #484 );
#432 = COLOUR_RGB( '', 0.752941191196442, 0.752941191196442, 0.752941191196442 );
#433 = CARTESIAN_POINT( '', ( 4.18800000000000, 0.000000000000000, 0.500000000000000 ) );
#434 = AXIS2_PLACEMENT_3D( '', #485, #486, #487 );
#435 = CARTESIAN_POINT( '', ( -4.18800000000000, 0.000000000000000, 26.5000000000000 ) );
#436 = AXIS2_PLACEMENT_3D( '', #488, #489, #490 );
#437 = COLOUR_RGB( '', 0.200000002980232, 0.200000002980232, 0.200000002980232 );
#438 = CARTESIAN_POINT( '', ( 22.5000000000000, 0.000000000000000, 7.00000000000000 ) );
#439 = AXIS2_PLACEMENT_3D( '', #491, #492, #493 );
#440 = CARTESIAN_POINT( '', ( -22.5000000000000, 0.000000000000000, 2.00000000000000 ) );
#441 = AXIS2_PLACEMENT_3D( '', #494, #495, #496 );
#442 = COLOUR_RGB( '', 0.200000002980232, 0.200000002980232, 0.200000002980232 );
#443 = CARTESIAN_POINT( '', ( -4.68800000000000, 0.000000000000000, 27.0000000000000 ) );
#444 = AXIS2_PLACEMENT_3D( '', #497, #498, #499 );
#445 = COLOUR_RGB( '', 0.200000002980232, 0.200000002980232, 0.200000002980232 );
#446 = CARTESIAN_POINT( '', ( -25.0000000000000, 0.000000000000000, 26.0000000000000 ) );
#447 = AXIS2_PLACEMENT_3D( '', #500, #501, #502 );
#448 = CARTESIAN_POINT( '', ( -24.0000000000000, 0.000000000000000, 27.0000000000000 ) );
#449 = AXIS2_PLACEMENT_3D( '', #503, #504, #505 );
#450 = COLOUR_RGB( '', 0.200000002980232, 0.200000002980232, 0.200000002980232 );
#451 = CARTESIAN_POINT( '', ( 25.0000000000000, 0.000000000000000, 9.00000000000000 ) );
#452 = AXIS2_PLACEMENT_3D( '', #506, #507, #508 );
#453 = COLOUR_RGB( '', 0.200000002980232, 0.200000002980232, 0.200000002980232 );
#454 = CARTESIAN_POINT( '', ( 22.5000000000000, 0.000000000000000, 16.0000000000000 ) );
#455 = AXIS2_PLACEMENT_3D( '', #509, #510, #511 );
#456 = CARTESIAN_POINT( '', ( 22.5000000000000, 0.000000000000000, 21.0000000000000 ) );
#457 = AXIS2_PLACEMENT_3D( '', #512, #513, #514 );
#458 = COLOUR_RGB( '', 0.200000002980232, 0.200000002980232, 0.200000002980232 );
#459 = CARTESIAN_POINT( '', ( 25.0000000000000, 0.000000000000000, 2.00000000000000 ) );
#460 = AXIS2_PLACEMENT_3D( '', #515, #516, #517 );
#461 = COLOUR_RGB( '', 0.200000002980232, 0.200000002980232, 0.200000002980232 );
#462 = CARTESIAN_POINT( '', ( 22.5000000000000, 0.000000000000000, 9.00000000000000 ) );
#463 = AXIS2_PLACEMENT_3D( '', #518, #519, #520 );
#464 = COLOUR_RGB( '', 0.200000002980232, 0.200000002980232, 0.200000002980232 );
#465 = COLOUR_RGB( '', 0.200000002980232, 0.200000002980232, 0.200000002980232 );
#466 = COLOUR_RGB( '', 0.200000002980232, 0.200000002980232, 0.200000002980232 );
#467 = COLOUR_RGB( '', 0.200000002980232, 0.200000002980232, 0.200000002980232 );
#468 = CARTESIAN_POINT( '', ( 25.0000000000000, 0.000000000000000, 21.0000000000000 ) );
#469 = AXIS2_PLACEMENT_3D( '', #521, #522, #523 );
#470 = COLOUR_RGB( '', 0.200000002980232, 0.200000002980232, 0.200000002980232 );
#471 = COLOUR_RGB( '', 0.200000002980232, 0.200000002980232, 0.200000002980232 );
#472 = COLOUR_RGB( '', 0.200000002980232, 0.200000002980232, 0.200000002980232 );
#473 = CARTESIAN_POINT( '', ( 0.000000000000000, 0.000000000000000, 14.0000000000000 ) );
#474 = DIRECTION( '', ( 0.000000000000000, 0.000000000000000, 1.00000000000000 ) );
#475 = DIRECTION( '', ( 1.00000000000000, 0.000000000000000, 0.000000000000000 ) );
#476 = CARTESIAN_POINT( '', ( 0.000000000000000, 0.000000000000000, 16.0000000000000 ) );
#477 = DIRECTION( '', ( 0.000000000000000, 0.000000000000000, 1.00000000000000 ) );
#478 = DIRECTION( '', ( 1.00000000000000, 0.000000000000000, 0.000000000000000 ) );
#479 = CARTESIAN_POINT( '', ( 0.000000000000000, 0.000000000000000, 0.000000000000000 ) );
#480 = DIRECTION( '', ( 0.000000000000000, 0.000000000000000, 1.00000000000000 ) );
#481 = DIRECTION( '', ( 1.00000000000000, 0.000000000000000, 0.000000000000000 ) );
#482 = CARTESIAN_POINT( '', ( 0.000000000000000, 0.000000000000000, 0.000000000000000 ) );
#483 = DIRECTION( '', ( 0.000000000000000, 0.000000000000000, 1.00000000000000 ) );
#484 = DIRECTION( '', ( 1.00000000000000, 0.000000000000000, 0.000000000000000 ) );
#485 = CARTESIAN_POINT( '', ( 0.000000000000000, 0.000000000000000, 0.500000000000000 ) );
#486 = DIRECTION( '', ( 0.000000000000000, 0.000000000000000, 1.00000000000000 ) );
#487 = DIRECTION( '', ( 1.00000000000000, 0.000000000000000, 0.000000000000000 ) );
#488 = CARTESIAN_POINT( '', ( 0.000000000000000, 0.000000000000000, 26.5000000000000 ) );
#489 = DIRECTION( '', ( 0.000000000000000, 0.000000000000000, -1.00000000000000 ) );
#490 = DIRECTION( '', ( -1.00000000000000, 0.000000000000000, 0.000000000000000 ) );
#491 = CARTESIAN_POINT( '', ( 0.000000000000000, 0.000000000000000, 7.00000000000000 ) );
#492 = DIRECTION( '', ( 0.000000000000000, 0.000000000000000, 1.00000000000000 ) );
#493 = DIRECTION( '', ( 1.00000000000000, 0.000000000000000, 0.000000000000000 ) );
#494 = CARTESIAN_POINT( '', ( 0.000000000000000, 0.000000000000000, 2.00000000000000 ) );
#495 = DIRECTION( '', ( 0.000000000000000, 0.000000000000000, -1.00000000000000 ) );
#496 = DIRECTION( '', ( -1.00000000000000, 0.000000000000000, 0.000000000000000 ) );
#497 = CARTESIAN_POINT( '', ( 0.000000000000000, 0.000000000000000, 27.0000000000000 ) );
#498 = DIRECTION( '', ( 0.000000000000000, 0.000000000000000, -1.00000000000000 ) );
#499 = DIRECTION( '', ( -1.00000000000000, 0.000000000000000, 0.000000000000000 ) );
#500 = CARTESIAN_POINT( '', ( 0.000000000000000, 0.000000000000000, 26.0000000000000 ) );
#501 = DIRECTION( '', ( 0.000000000000000, 0.000000000000000, -1.00000000000000 ) );
#502 = DIRECTION( '', ( -1.00000000000000, 0.000000000000000, 0.000000000000000 ) );
#503 = CARTESIAN_POINT( '', ( 0.000000000000000, 0.000000000000000, 27.0000000000000 ) );
#504 = DIRECTION( '', ( 0.000000000000000, 0.000000000000000, -1.00000000000000 ) );
#505 = DIRECTION( '', ( -1.00000000000000, 0.000000000000000, 0.000000000000000 ) );
#506 = CARTESIAN_POINT( '', ( 0.000000000000000, 0.000000000000000, 9.00000000000000 ) );
#507 = DIRECTION( '', ( 0.000000000000000, 0.000000000000000, 1.00000000000000 ) );
#508 = DIRECTION( '', ( 1.00000000000000, 0.000000000000000, 0.000000000000000 ) );
#509 = CARTESIAN_POINT( '', ( 0.000000000000000, 0.000000000000000, 16.0000000000000 ) );
#510 = DIRECTION( '', ( 0.000000000000000, 0.000000000000000, 1.00000000000000 ) );
#511 = DIRECTION( '', ( 1.00000000000000, 0.000000000000000, 0.000000000000000 ) );
#512 = CARTESIAN_POINT( '', ( 0.000000000000000, 0.000000000000000, 21.0000000000000 ) );
#513 = DIRECTION( '', ( 0.000000000000000, 0.000000000000000, 1.00000000000000 ) );
#514 = DIRECTION( '', ( 1.00000000000000, 0.000000000000000, 0.000000000000000 ) );
#515 = CARTESIAN_POINT( '', ( 0.000000000000000, 0.000000000000000, 2.00000000000000 ) );
#516 = DIRECTION( '', ( 0.000000000000000, 0.000000000000000, 1.00000000000000 ) );
#517 = DIRECTION( '', ( 1.00000000000000, 0.000000000000000, 0.000000000000000 ) );
#518 = CARTESIAN_POINT( '', ( 0.000000000000000, 0.000000000000000, 9.00000000000000 ) );
#519 = DIRECTION( '', ( 0.000000000000000, 0.000000000000000, 1.00000000000000 ) );
#520 = DIRECTION( '', ( 1.00000000000000, 0.000000000000000, 0.000000000000000 ) );
#521 = CARTESIAN_POINT( '', ( 0.000000000000000, 0.000000000000000, 21.0000000000000 ) );
#522 = DIRECTION( '', ( 0.000000000000000, 0.000000000000000, 1.00000000000000 ) );
#523 = DIRECTION( '', ( 1.00000000000000, 0.000000000000000, 0.000000000000000 ) );
ENDSEC;
END-ISO-10303-21;
