ISO-10303-21;
HEADER;
FILE_DESCRIPTION( ( 'Unknown' ), '1' );
FILE_NAME( '//SBS2003/HD_Usb/Disegni/08_LIB/Users_3D/PROD_GAMM_3D/PRTR/7321695.stp', 'Unknown', ( 'Unknown' ), ( 'Unknown' ), 'PSStep 14.0', 'Unknown', '  ' );
FILE_SCHEMA( ( 'AUTOMOTIVE_DESIGN { 1 0 10303 214 1 1 1 1 }' ) );
ENDSEC;
DATA;
#1 = MECHANICAL_DESIGN_GEOMETRIC_PRESENTATION_REPRESENTATION( ' ', ( #10, #11, #12, #13, #14, #15, #16 ), #6 );
#2 = PRODUCT_DEFINITION_CONTEXT( '', #17, 'design' );
#3 = APPLICATION_PROTOCOL_DEFINITION( 'international standard', 'automotive_design', 2001, #17 );
#4 = PRODUCT_CATEGORY_RELATIONSHIP( 'NONE', 'NONE', #18, #19 );
#5 = SHAPE_DEFINITION_REPRESENTATION( #20, #21 );
#6 =  ( GEOMETRIC_REPRESENTATION_CONTEXT( 3 )GLOBAL_UNCERTAINTY_ASSIGNED_CONTEXT( ( #24 ) )GLOBAL_UNIT_ASSIGNED_CONTEXT( ( #26, #27, #28 ) )REPRESENTATION_CONTEXT( 'NONE', 'WORKSPACE' ) );
#10 = STYLED_ITEM( '', ( #30 ), #31 );
#11 = STYLED_ITEM( '', ( #32 ), #33 );
#12 = STYLED_ITEM( '', ( #34 ), #35 );
#13 = STYLED_ITEM( '', ( #36 ), #37 );
#14 = STYLED_ITEM( '', ( #38 ), #39 );
#15 = STYLED_ITEM( '', ( #40 ), #41 );
#16 = STYLED_ITEM( '', ( #42 ), #43 );
#17 = APPLICATION_CONTEXT( 'core data for automotive mechanical design processes' );
#18 = PRODUCT_CATEGORY( 'part', 'NONE' );
#19 = PRODUCT_RELATED_PRODUCT_CATEGORY( 'detail', ' ', ( #44 ) );
#20 = PRODUCT_DEFINITION_SHAPE( 'NONE', 'NONE', #45 );
#21 = ADVANCED_BREP_SHAPE_REPRESENTATION( '1', ( #46, #47 ), #6 );
#24 = UNCERTAINTY_MEASURE_WITH_UNIT( LENGTH_MEASURE( 0.00100000000000000 ), #26, '', '' );
#26 =  ( CONVERSION_BASED_UNIT( 'MILLIMETRE', #50 )LENGTH_UNIT(  )NAMED_UNIT( #53 ) );
#27 =  ( NAMED_UNIT( #55 )PLANE_ANGLE_UNIT(  )SI_UNIT( $, .RADIAN. ) );
#28 =  ( NAMED_UNIT( #55 )SI_UNIT( $, .STERADIAN. )SOLID_ANGLE_UNIT(  ) );
#30 = PRESENTATION_STYLE_ASSIGNMENT( ( #61 ) );
#31 = ADVANCED_FACE( '', ( #62 ), #63, .T. );
#32 = PRESENTATION_STYLE_ASSIGNMENT( ( #64 ) );
#33 = ADVANCED_FACE( '', ( #65, #66 ), #67, .T. );
#34 = PRESENTATION_STYLE_ASSIGNMENT( ( #68 ) );
#35 = ADVANCED_FACE( '', ( #69 ), #70, .T. );
#36 = PRESENTATION_STYLE_ASSIGNMENT( ( #71 ) );
#37 = ADVANCED_FACE( '', ( #72, #73 ), #74, .T. );
#38 = PRESENTATION_STYLE_ASSIGNMENT( ( #75 ) );
#39 = ADVANCED_FACE( '', ( #76, #77 ), #78, .T. );
#40 = PRESENTATION_STYLE_ASSIGNMENT( ( #79 ) );
#41 = ADVANCED_FACE( '', ( #80, #81 ), #82, .T. );
#42 = PRESENTATION_STYLE_ASSIGNMENT( ( #83 ) );
#43 = ADVANCED_FACE( '', ( #84, #85 ), #86, .T. );
#44 = PRODUCT( '1', '1', 'PART-1-DESC', ( #87 ) );
#45 = PRODUCT_DEFINITION( 'NONE', 'NONE', #88, #2 );
#46 = MANIFOLD_SOLID_BREP( '1', #89 );
#47 = AXIS2_PLACEMENT_3D( '', #90, #91, #92 );
#50 = LENGTH_MEASURE_WITH_UNIT( LENGTH_MEASURE( 1.00000000000000 ), #93 );
#53 = DIMENSIONAL_EXPONENTS( 1.00000000000000, 0.000000000000000, 0.000000000000000, 0.000000000000000, 0.000000000000000, 0.000000000000000, 0.000000000000000 );
#55 = DIMENSIONAL_EXPONENTS( 0.000000000000000, 0.000000000000000, 0.000000000000000, 0.000000000000000, 0.000000000000000, 0.000000000000000, 0.000000000000000 );
#61 = SURFACE_STYLE_USAGE( .BOTH., #94 );
#62 = FACE_OUTER_BOUND( '', #95, .T. );
#63 = PLANE( '', #96 );
#64 = SURFACE_STYLE_USAGE( .BOTH., #97 );
#65 = FACE_OUTER_BOUND( '', #98, .T. );
#66 = FACE_BOUND( '', #99, .T. );
#67 = CONICAL_SURFACE( '', #100, 12.5000000000000, 0.321750554396642 );
#68 = SURFACE_STYLE_USAGE( .BOTH., #101 );
#69 = FACE_OUTER_BOUND( '', #102, .T. );
#70 = PLANE( '', #103 );
#71 = SURFACE_STYLE_USAGE( .BOTH., #104 );
#72 = FACE_OUTER_BOUND( '', #105, .T. );
#73 = FACE_BOUND( '', #106, .T. );
#74 = CONICAL_SURFACE( '', #107, 3.00000000000000, 0.785398163397448 );
#75 = SURFACE_STYLE_USAGE( .BOTH., #108 );
#76 = FACE_OUTER_BOUND( '', #109, .T. );
#77 = FACE_OUTER_BOUND( '', #110, .T. );
#78 = CYLINDRICAL_SURFACE( '', #111, 15.0000000000000 );
#79 = SURFACE_STYLE_USAGE( .BOTH., #112 );
#80 = FACE_OUTER_BOUND( '', #113, .T. );
#81 = FACE_BOUND( '', #114, .T. );
#82 = PLANE( '', #115 );
#83 = SURFACE_STYLE_USAGE( .BOTH., #116 );
#84 = FACE_OUTER_BOUND( '', #117, .T. );
#85 = FACE_OUTER_BOUND( '', #118, .T. );
#86 = CYLINDRICAL_SURFACE( '', #119, 4.00000000000000 );
#87 = PRODUCT_CONTEXT( '', #17, 'mechanical' );
#88 = PRODUCT_DEFINITION_FORMATION_WITH_SPECIFIED_SOURCE( ' ', 'NONE', #44, .NOT_KNOWN. );
#89 = CLOSED_SHELL( '', ( #35, #37, #39, #31, #33, #43, #41 ) );
#90 = CARTESIAN_POINT( '', ( 0.000000000000000, 0.000000000000000, 0.000000000000000 ) );
#91 = DIRECTION( '', ( 0.000000000000000, 0.000000000000000, 1.00000000000000 ) );
#92 = DIRECTION( '', ( 1.00000000000000, 0.000000000000000, 0.000000000000000 ) );
#93 =  ( LENGTH_UNIT(  )NAMED_UNIT( #53 )SI_UNIT( .MILLI., .METRE. ) );
#94 = SURFACE_SIDE_STYLE( '', ( #121 ) );
#95 = EDGE_LOOP( '', ( #122 ) );
#96 = AXIS2_PLACEMENT_3D( '', #123, #124, #125 );
#97 = SURFACE_SIDE_STYLE( '', ( #126 ) );
#98 = EDGE_LOOP( '', ( #127 ) );
#99 = EDGE_LOOP( '', ( #128 ) );
#100 = AXIS2_PLACEMENT_3D( '', #129, #130, #131 );
#101 = SURFACE_SIDE_STYLE( '', ( #132 ) );
#102 = EDGE_LOOP( '', ( #133 ) );
#103 = AXIS2_PLACEMENT_3D( '', #134, #135, #136 );
#104 = SURFACE_SIDE_STYLE( '', ( #137 ) );
#105 = EDGE_LOOP( '', ( #138 ) );
#106 = EDGE_LOOP( '', ( #139 ) );
#107 = AXIS2_PLACEMENT_3D( '', #140, #141, #142 );
#108 = SURFACE_SIDE_STYLE( '', ( #143 ) );
#109 = EDGE_LOOP( '', ( #144 ) );
#110 = EDGE_LOOP( '', ( #145 ) );
#111 = AXIS2_PLACEMENT_3D( '', #146, #147, #148 );
#112 = SURFACE_SIDE_STYLE( '', ( #149 ) );
#113 = EDGE_LOOP( '', ( #150 ) );
#114 = EDGE_LOOP( '', ( #151 ) );
#115 = AXIS2_PLACEMENT_3D( '', #152, #153, #154 );
#116 = SURFACE_SIDE_STYLE( '', ( #155 ) );
#117 = EDGE_LOOP( '', ( #156 ) );
#118 = EDGE_LOOP( '', ( #157 ) );
#119 = AXIS2_PLACEMENT_3D( '', #158, #159, #160 );
#121 = SURFACE_STYLE_FILL_AREA( #161 );
#122 = ORIENTED_EDGE( '', *, *, #162, .F. );
#123 = CARTESIAN_POINT( '', ( 15.0000000000000, 0.000000000000000, -1.08420217248550E-016 ) );
#124 = DIRECTION( '', ( 0.000000000000000, 0.000000000000000, -1.00000000000000 ) );
#125 = DIRECTION( '', ( -1.00000000000000, 0.000000000000000, 0.000000000000000 ) );
#126 = SURFACE_STYLE_FILL_AREA( #163 );
#127 = ORIENTED_EDGE( '', *, *, #164, .T. );
#128 = ORIENTED_EDGE( '', *, *, #165, .F. );
#129 = CARTESIAN_POINT( '', ( 0.000000000000000, 0.000000000000000, 10.0000000000000 ) );
#130 = DIRECTION( '', ( -0.000000000000000, 0.000000000000000, -1.00000000000000 ) );
#131 = DIRECTION( '', ( -1.00000000000000, 0.000000000000000, 0.000000000000000 ) );
#132 = SURFACE_STYLE_FILL_AREA( #166 );
#133 = ORIENTED_EDGE( '', *, *, #167, .T. );
#134 = CARTESIAN_POINT( '', ( 0.000000000000000, 0.000000000000000, 42.0000000000000 ) );
#135 = DIRECTION( '', ( 0.000000000000000, 0.000000000000000, 1.00000000000000 ) );
#136 = DIRECTION( '', ( 1.00000000000000, 0.000000000000000, 0.000000000000000 ) );
#137 = SURFACE_STYLE_FILL_AREA( #168 );
#138 = ORIENTED_EDGE( '', *, *, #169, .F. );
#139 = ORIENTED_EDGE( '', *, *, #167, .F. );
#140 = CARTESIAN_POINT( '', ( 0.000000000000000, 0.000000000000000, 42.0000000000000 ) );
#141 = DIRECTION( '', ( -0.000000000000000, 0.000000000000000, -1.00000000000000 ) );
#142 = DIRECTION( '', ( -1.00000000000000, 0.000000000000000, 0.000000000000000 ) );
#143 = SURFACE_STYLE_FILL_AREA( #170 );
#144 = ORIENTED_EDGE( '', *, *, #162, .T. );
#145 = ORIENTED_EDGE( '', *, *, #164, .F. );
#146 = CARTESIAN_POINT( '', ( 0.000000000000000, 0.000000000000000, -2.60208521396521E-015 ) );
#147 = DIRECTION( '', ( -0.000000000000000, -0.000000000000000, -1.00000000000000 ) );
#148 = DIRECTION( '', ( 1.00000000000000, 0.000000000000000, 0.000000000000000 ) );
#149 = SURFACE_STYLE_FILL_AREA( #171 );
#150 = ORIENTED_EDGE( '', *, *, #165, .T. );
#151 = ORIENTED_EDGE( '', *, *, #172, .F. );
#152 = CARTESIAN_POINT( '', ( 4.00000000000000, 0.000000000000000, 10.0000000000000 ) );
#153 = DIRECTION( '', ( 0.000000000000000, 0.000000000000000, 1.00000000000000 ) );
#154 = DIRECTION( '', ( 1.00000000000000, 0.000000000000000, 0.000000000000000 ) );
#155 = SURFACE_STYLE_FILL_AREA( #173 );
#156 = ORIENTED_EDGE( '', *, *, #169, .T. );
#157 = ORIENTED_EDGE( '', *, *, #172, .T. );
#158 = CARTESIAN_POINT( '', ( 0.000000000000000, 0.000000000000000, -2.60208521396521E-015 ) );
#159 = DIRECTION( '', ( -0.000000000000000, -0.000000000000000, -1.00000000000000 ) );
#160 = DIRECTION( '', ( 1.00000000000000, 0.000000000000000, 0.000000000000000 ) );
#161 = FILL_AREA_STYLE( '', ( #174 ) );
#162 = EDGE_CURVE( '', #175, #175, #176, .T. );
#163 = FILL_AREA_STYLE( '', ( #177 ) );
#164 = EDGE_CURVE( '', #178, #178, #179, .T. );
#165 = EDGE_CURVE( '', #180, #180, #181, .T. );
#166 = FILL_AREA_STYLE( '', ( #182 ) );
#167 = EDGE_CURVE( '', #183, #183, #184, .T. );
#168 = FILL_AREA_STYLE( '', ( #185 ) );
#169 = EDGE_CURVE( '', #186, #186, #187, .F. );
#170 = FILL_AREA_STYLE( '', ( #188 ) );
#171 = FILL_AREA_STYLE( '', ( #189 ) );
#172 = EDGE_CURVE( '', #190, #190, #191, .T. );
#173 = FILL_AREA_STYLE( '', ( #192 ) );
#174 = FILL_AREA_STYLE_COLOUR( '', #193 );
#175 = VERTEX_POINT( '', #194 );
#176 = CIRCLE( '', #195, 15.0000000000000 );
#177 = FILL_AREA_STYLE_COLOUR( '', #196 );
#178 = VERTEX_POINT( '', #197 );
#179 = CIRCLE( '', #198, 15.0000000000000 );
#180 = VERTEX_POINT( '', #199 );
#181 = CIRCLE( '', #200, 12.5000000000000 );
#182 = FILL_AREA_STYLE_COLOUR( '', #201 );
#183 = VERTEX_POINT( '', #202 );
#184 = CIRCLE( '', #203, 3.00000000000000 );
#185 = FILL_AREA_STYLE_COLOUR( '', #204 );
#186 = VERTEX_POINT( '', #205 );
#187 = CIRCLE( '', #206, 4.00000000000000 );
#188 = FILL_AREA_STYLE_COLOUR( '', #207 );
#189 = FILL_AREA_STYLE_COLOUR( '', #208 );
#190 = VERTEX_POINT( '', #209 );
#191 = CIRCLE( '', #210, 4.00000000000000 );
#192 = FILL_AREA_STYLE_COLOUR( '', #211 );
#193 = COLOUR_RGB( '', 0.200000002980232, 0.200000002980232, 0.200000002980232 );
#194 = CARTESIAN_POINT( '', ( 15.0000000000000, 0.000000000000000, 0.000000000000000 ) );
#195 = AXIS2_PLACEMENT_3D( '', #212, #213, #214 );
#196 = COLOUR_RGB( '', 0.200000002980232, 0.200000002980232, 0.200000002980232 );
#197 = CARTESIAN_POINT( '', ( 15.0000000000000, 0.000000000000000, 2.50000000000000 ) );
#198 = AXIS2_PLACEMENT_3D( '', #215, #216, #217 );
#199 = CARTESIAN_POINT( '', ( 12.5000000000000, 0.000000000000000, 10.0000000000000 ) );
#200 = AXIS2_PLACEMENT_3D( '', #218, #219, #220 );
#201 = COLOUR_RGB( '', 0.200000002980232, 0.200000002980232, 0.200000002980232 );
#202 = CARTESIAN_POINT( '', ( 3.00000000000000, 0.000000000000000, 42.0000000000000 ) );
#203 = AXIS2_PLACEMENT_3D( '', #221, #222, #223 );
#204 = COLOUR_RGB( '', 0.200000002980232, 0.200000002980232, 0.200000002980232 );
#205 = CARTESIAN_POINT( '', ( 4.00000000000000, 0.000000000000000, 41.0000000000000 ) );
#206 = AXIS2_PLACEMENT_3D( '', #224, #225, #226 );
#207 = COLOUR_RGB( '', 0.200000002980232, 0.200000002980232, 0.200000002980232 );
#208 = COLOUR_RGB( '', 0.200000002980232, 0.200000002980232, 0.200000002980232 );
#209 = CARTESIAN_POINT( '', ( 4.00000000000000, 0.000000000000000, 10.0000000000000 ) );
#210 = AXIS2_PLACEMENT_3D( '', #227, #228, #229 );
#211 = COLOUR_RGB( '', 0.752941191196442, 0.752941191196442, 0.752941191196442 );
#212 = CARTESIAN_POINT( '', ( 0.000000000000000, 0.000000000000000, 0.000000000000000 ) );
#213 = DIRECTION( '', ( 0.000000000000000, 0.000000000000000, 1.00000000000000 ) );
#214 = DIRECTION( '', ( 1.00000000000000, 0.000000000000000, 0.000000000000000 ) );
#215 = CARTESIAN_POINT( '', ( 0.000000000000000, 0.000000000000000, 2.50000000000000 ) );
#216 = DIRECTION( '', ( 0.000000000000000, 0.000000000000000, 1.00000000000000 ) );
#217 = DIRECTION( '', ( 1.00000000000000, 0.000000000000000, 0.000000000000000 ) );
#218 = CARTESIAN_POINT( '', ( 0.000000000000000, 0.000000000000000, 10.0000000000000 ) );
#219 = DIRECTION( '', ( 0.000000000000000, 0.000000000000000, 1.00000000000000 ) );
#220 = DIRECTION( '', ( 1.00000000000000, 0.000000000000000, 0.000000000000000 ) );
#221 = CARTESIAN_POINT( '', ( 0.000000000000000, 0.000000000000000, 42.0000000000000 ) );
#222 = DIRECTION( '', ( 0.000000000000000, 0.000000000000000, 1.00000000000000 ) );
#223 = DIRECTION( '', ( 1.00000000000000, 0.000000000000000, 0.000000000000000 ) );
#224 = CARTESIAN_POINT( '', ( 0.000000000000000, 0.000000000000000, 41.0000000000000 ) );
#225 = DIRECTION( '', ( 0.000000000000000, 0.000000000000000, 1.00000000000000 ) );
#226 = DIRECTION( '', ( 1.00000000000000, 0.000000000000000, 0.000000000000000 ) );
#227 = CARTESIAN_POINT( '', ( 0.000000000000000, 0.000000000000000, 10.0000000000000 ) );
#228 = DIRECTION( '', ( 0.000000000000000, 0.000000000000000, 1.00000000000000 ) );
#229 = DIRECTION( '', ( 1.00000000000000, 0.000000000000000, 0.000000000000000 ) );
ENDSEC;
END-ISO-10303-21;
