ISO-10303-21;
HEADER;
FILE_DESCRIPTION( ( 'Unknown' ), '1' );
FILE_NAME( '//SBS2003/HD_Usb/Disegni/08_LIB/Users_3D/PROD_GAMM_3D/PRMES/7321870.stp', 'Unknown', ( 'Unknown' ), ( 'Unknown' ), 'PSStep 14.0', 'Unknown', '  ' );
FILE_SCHEMA( ( 'AUTOMOTIVE_DESIGN { 1 0 10303 214 1 1 1 1 }' ) );
ENDSEC;
DATA;
#1 = MECHANICAL_DESIGN_GEOMETRIC_PRESENTATION_REPRESENTATION( ' ', ( #10, #11, #12, #13, #14, #15, #16, #17, #18, #19, #20, #21, #22, #23, #24 ), #6 );
#2 = PRODUCT_DEFINITION_CONTEXT( '', #25, 'design' );
#3 = APPLICATION_PROTOCOL_DEFINITION( 'international standard', 'automotive_design', 2001, #25 );
#4 = PRODUCT_CATEGORY_RELATIONSHIP( 'NONE', 'NONE', #26, #27 );
#5 = SHAPE_DEFINITION_REPRESENTATION( #28, #29 );
#6 =  ( GEOMETRIC_REPRESENTATION_CONTEXT( 3 )GLOBAL_UNCERTAINTY_ASSIGNED_CONTEXT( ( #32 ) )GLOBAL_UNIT_ASSIGNED_CONTEXT( ( #34, #35, #36 ) )REPRESENTATION_CONTEXT( 'NONE', 'WORKSPACE' ) );
#10 = STYLED_ITEM( '', ( #38 ), #39 );
#11 = STYLED_ITEM( '', ( #40 ), #41 );
#12 = STYLED_ITEM( '', ( #42 ), #43 );
#13 = STYLED_ITEM( '', ( #44 ), #45 );
#14 = STYLED_ITEM( '', ( #46 ), #47 );
#15 = STYLED_ITEM( '', ( #48 ), #49 );
#16 = STYLED_ITEM( '', ( #50 ), #51 );
#17 = STYLED_ITEM( '', ( #52 ), #53 );
#18 = STYLED_ITEM( '', ( #54 ), #55 );
#19 = STYLED_ITEM( '', ( #56 ), #57 );
#20 = STYLED_ITEM( '', ( #58 ), #59 );
#21 = STYLED_ITEM( '', ( #60 ), #61 );
#22 = STYLED_ITEM( '', ( #62 ), #63 );
#23 = STYLED_ITEM( '', ( #64 ), #65 );
#24 = STYLED_ITEM( '', ( #66 ), #67 );
#25 = APPLICATION_CONTEXT( 'core data for automotive mechanical design processes' );
#26 = PRODUCT_CATEGORY( 'part', 'NONE' );
#27 = PRODUCT_RELATED_PRODUCT_CATEGORY( 'detail', ' ', ( #68 ) );
#28 = PRODUCT_DEFINITION_SHAPE( 'NONE', 'NONE', #69 );
#29 = ADVANCED_BREP_SHAPE_REPRESENTATION( '1', ( #70, #71 ), #6 );
#32 = UNCERTAINTY_MEASURE_WITH_UNIT( LENGTH_MEASURE( 0.00100000000000000 ), #34, '', '' );
#34 =  ( CONVERSION_BASED_UNIT( 'MILLIMETRE', #74 )LENGTH_UNIT(  )NAMED_UNIT( #77 ) );
#35 =  ( NAMED_UNIT( #79 )PLANE_ANGLE_UNIT(  )SI_UNIT( $, .RADIAN. ) );
#36 =  ( NAMED_UNIT( #79 )SI_UNIT( $, .STERADIAN. )SOLID_ANGLE_UNIT(  ) );
#38 = PRESENTATION_STYLE_ASSIGNMENT( ( #85 ) );
#39 = ADVANCED_FACE( '', ( #86, #87 ), #88, .T. );
#40 = PRESENTATION_STYLE_ASSIGNMENT( ( #89 ) );
#41 = ADVANCED_FACE( '', ( #90 ), #91, .F. );
#42 = PRESENTATION_STYLE_ASSIGNMENT( ( #92 ) );
#43 = ADVANCED_FACE( '', ( #93 ), #94, .F. );
#44 = PRESENTATION_STYLE_ASSIGNMENT( ( #95 ) );
#45 = ADVANCED_FACE( '', ( #96 ), #97, .F. );
#46 = PRESENTATION_STYLE_ASSIGNMENT( ( #98 ) );
#47 = ADVANCED_FACE( '', ( #99 ), #100, .F. );
#48 = PRESENTATION_STYLE_ASSIGNMENT( ( #101 ) );
#49 = ADVANCED_FACE( '', ( #102, #103 ), #104, .T. );
#50 = PRESENTATION_STYLE_ASSIGNMENT( ( #105 ) );
#51 = ADVANCED_FACE( '', ( #106 ), #107, .F. );
#52 = PRESENTATION_STYLE_ASSIGNMENT( ( #108 ) );
#53 = ADVANCED_FACE( '', ( #109 ), #110, .F. );
#54 = PRESENTATION_STYLE_ASSIGNMENT( ( #111 ) );
#55 = ADVANCED_FACE( '', ( #112 ), #113, .F. );
#56 = PRESENTATION_STYLE_ASSIGNMENT( ( #114 ) );
#57 = ADVANCED_FACE( '', ( #115, #116 ), #117, .T. );
#58 = PRESENTATION_STYLE_ASSIGNMENT( ( #118 ) );
#59 = ADVANCED_FACE( '', ( #119, #120 ), #121, .T. );
#60 = PRESENTATION_STYLE_ASSIGNMENT( ( #122 ) );
#61 = ADVANCED_FACE( '', ( #123 ), #124, .T. );
#62 = PRESENTATION_STYLE_ASSIGNMENT( ( #125 ) );
#63 = ADVANCED_FACE( '', ( #126, #127 ), #128, .T. );
#64 = PRESENTATION_STYLE_ASSIGNMENT( ( #129 ) );
#65 = ADVANCED_FACE( '', ( #130, #131 ), #132, .T. );
#66 = PRESENTATION_STYLE_ASSIGNMENT( ( #133 ) );
#67 = ADVANCED_FACE( '', ( #134, #135 ), #136, .F. );
#68 = PRODUCT( '1', '1', 'PART-1-DESC', ( #137 ) );
#69 = PRODUCT_DEFINITION( 'NONE', 'NONE', #138, #2 );
#70 = MANIFOLD_SOLID_BREP( '1', #139 );
#71 = AXIS2_PLACEMENT_3D( '', #140, #141, #142 );
#74 = LENGTH_MEASURE_WITH_UNIT( LENGTH_MEASURE( 1.00000000000000 ), #143 );
#77 = DIMENSIONAL_EXPONENTS( 1.00000000000000, 0.000000000000000, 0.000000000000000, 0.000000000000000, 0.000000000000000, 0.000000000000000, 0.000000000000000 );
#79 = DIMENSIONAL_EXPONENTS( 0.000000000000000, 0.000000000000000, 0.000000000000000, 0.000000000000000, 0.000000000000000, 0.000000000000000, 0.000000000000000 );
#85 = SURFACE_STYLE_USAGE( .BOTH., #144 );
#86 = FACE_OUTER_BOUND( '', #145, .T. );
#87 = FACE_BOUND( '', #146, .T. );
#88 = CONICAL_SURFACE( '', #147, 3.00000000000000, 0.785398163397448 );
#89 = SURFACE_STYLE_USAGE( .BOTH., #148 );
#90 = FACE_OUTER_BOUND( '', #149, .T. );
#91 = PLANE( '', #150 );
#92 = SURFACE_STYLE_USAGE( .BOTH., #151 );
#93 = FACE_OUTER_BOUND( '', #152, .T. );
#94 = PLANE( '', #153 );
#95 = SURFACE_STYLE_USAGE( .BOTH., #154 );
#96 = FACE_OUTER_BOUND( '', #155, .T. );
#97 = PLANE( '', #156 );
#98 = SURFACE_STYLE_USAGE( .BOTH., #157 );
#99 = FACE_OUTER_BOUND( '', #158, .T. );
#100 = PLANE( '', #159 );
#101 = SURFACE_STYLE_USAGE( .BOTH., #160 );
#102 = FACE_OUTER_BOUND( '', #161, .T. );
#103 = FACE_OUTER_BOUND( '', #162, .T. );
#104 = TOROIDAL_SURFACE( '', #163, 8.50000000000000, 1.00000000000000 );
#105 = SURFACE_STYLE_USAGE( .BOTH., #164 );
#106 = FACE_OUTER_BOUND( '', #165, .T. );
#107 = PLANE( '', #166 );
#108 = SURFACE_STYLE_USAGE( .BOTH., #167 );
#109 = FACE_OUTER_BOUND( '', #168, .T. );
#110 = PLANE( '', #169 );
#111 = SURFACE_STYLE_USAGE( .BOTH., #170 );
#112 = FACE_OUTER_BOUND( '', #171, .T. );
#113 = PLANE( '', #172 );
#114 = SURFACE_STYLE_USAGE( .BOTH., #173 );
#115 = FACE_OUTER_BOUND( '', #174, .T. );
#116 = FACE_BOUND( '', #175, .T. );
#117 = PLANE( '', #176 );
#118 = SURFACE_STYLE_USAGE( .BOTH., #177 );
#119 = FACE_OUTER_BOUND( '', #178, .T. );
#120 = FACE_OUTER_BOUND( '', #179, .T. );
#121 = CYLINDRICAL_SURFACE( '', #180, 9.50000000000000 );
#122 = SURFACE_STYLE_USAGE( .BOTH., #181 );
#123 = FACE_OUTER_BOUND( '', #182, .T. );
#124 = PLANE( '', #183 );
#125 = SURFACE_STYLE_USAGE( .BOTH., #184 );
#126 = FACE_OUTER_BOUND( '', #185, .T. );
#127 = FACE_OUTER_BOUND( '', #186, .T. );
#128 = TOROIDAL_SURFACE( '', #187, 8.50000000000000, 1.00000000000000 );
#129 = SURFACE_STYLE_USAGE( .BOTH., #188 );
#130 = FACE_OUTER_BOUND( '', #189, .T. );
#131 = FACE_OUTER_BOUND( '', #190, .T. );
#132 = CYLINDRICAL_SURFACE( '', #191, 4.00000000000000 );
#133 = SURFACE_STYLE_USAGE( .BOTH., #192 );
#134 = FACE_OUTER_BOUND( '', #193, .T. );
#135 = FACE_BOUND( '', #194, .T. );
#136 = PLANE( '', #195 );
#137 = PRODUCT_CONTEXT( '', #25, 'mechanical' );
#138 = PRODUCT_DEFINITION_FORMATION_WITH_SPECIFIED_SOURCE( ' ', 'NONE', #68, .NOT_KNOWN. );
#139 = CLOSED_SHELL( '', ( #57, #63, #43, #45, #59, #49, #39, #67, #51, #65, #53, #41, #55, #47, #61 ) );
#140 = CARTESIAN_POINT( '', ( 0.000000000000000, 0.000000000000000, 0.000000000000000 ) );
#141 = DIRECTION( '', ( 0.000000000000000, 0.000000000000000, 1.00000000000000 ) );
#142 = DIRECTION( '', ( 1.00000000000000, 0.000000000000000, 0.000000000000000 ) );
#143 =  ( LENGTH_UNIT(  )NAMED_UNIT( #77 )SI_UNIT( .MILLI., .METRE. ) );
#144 = SURFACE_SIDE_STYLE( '', ( #197 ) );
#145 = EDGE_LOOP( '', ( #198 ) );
#146 = EDGE_LOOP( '', ( #199 ) );
#147 = AXIS2_PLACEMENT_3D( '', #200, #201, #202 );
#148 = SURFACE_SIDE_STYLE( '', ( #203 ) );
#149 = EDGE_LOOP( '', ( #204, #205, #206, #207 ) );
#150 = AXIS2_PLACEMENT_3D( '', #208, #209, #210 );
#151 = SURFACE_SIDE_STYLE( '', ( #211 ) );
#152 = EDGE_LOOP( '', ( #212, #213, #214, #215 ) );
#153 = AXIS2_PLACEMENT_3D( '', #216, #217, #218 );
#154 = SURFACE_SIDE_STYLE( '', ( #219 ) );
#155 = EDGE_LOOP( '', ( #220, #221, #222, #223 ) );
#156 = AXIS2_PLACEMENT_3D( '', #224, #225, #226 );
#157 = SURFACE_SIDE_STYLE( '', ( #227 ) );
#158 = EDGE_LOOP( '', ( #228, #229, #230, #231 ) );
#159 = AXIS2_PLACEMENT_3D( '', #232, #233, #234 );
#160 = SURFACE_SIDE_STYLE( '', ( #235 ) );
#161 = EDGE_LOOP( '', ( #236 ) );
#162 = EDGE_LOOP( '', ( #237 ) );
#163 = AXIS2_PLACEMENT_3D( '', #238, #239, #240 );
#164 = SURFACE_SIDE_STYLE( '', ( #241 ) );
#165 = EDGE_LOOP( '', ( #242 ) );
#166 = AXIS2_PLACEMENT_3D( '', #243, #244, #245 );
#167 = SURFACE_SIDE_STYLE( '', ( #246 ) );
#168 = EDGE_LOOP( '', ( #247, #248, #249, #250 ) );
#169 = AXIS2_PLACEMENT_3D( '', #251, #252, #253 );
#170 = SURFACE_SIDE_STYLE( '', ( #254 ) );
#171 = EDGE_LOOP( '', ( #255, #256, #257, #258 ) );
#172 = AXIS2_PLACEMENT_3D( '', #259, #260, #261 );
#173 = SURFACE_SIDE_STYLE( '', ( #262 ) );
#174 = EDGE_LOOP( '', ( #263, #264, #265, #266, #267, #268 ) );
#175 = EDGE_LOOP( '', ( #269 ) );
#176 = AXIS2_PLACEMENT_3D( '', #270, #271, #272 );
#177 = SURFACE_SIDE_STYLE( '', ( #273 ) );
#178 = EDGE_LOOP( '', ( #274 ) );
#179 = EDGE_LOOP( '', ( #275 ) );
#180 = AXIS2_PLACEMENT_3D( '', #276, #277, #278 );
#181 = SURFACE_SIDE_STYLE( '', ( #279 ) );
#182 = EDGE_LOOP( '', ( #280 ) );
#183 = AXIS2_PLACEMENT_3D( '', #281, #282, #283 );
#184 = SURFACE_SIDE_STYLE( '', ( #284 ) );
#185 = EDGE_LOOP( '', ( #285 ) );
#186 = EDGE_LOOP( '', ( #286 ) );
#187 = AXIS2_PLACEMENT_3D( '', #287, #288, #289 );
#188 = SURFACE_SIDE_STYLE( '', ( #290 ) );
#189 = EDGE_LOOP( '', ( #291 ) );
#190 = EDGE_LOOP( '', ( #292 ) );
#191 = AXIS2_PLACEMENT_3D( '', #293, #294, #295 );
#192 = SURFACE_SIDE_STYLE( '', ( #296 ) );
#193 = EDGE_LOOP( '', ( #297 ) );
#194 = EDGE_LOOP( '', ( #298, #299, #300, #301, #302, #303 ) );
#195 = AXIS2_PLACEMENT_3D( '', #304, #305, #306 );
#197 = SURFACE_STYLE_FILL_AREA( #307 );
#198 = ORIENTED_EDGE( '', *, *, #308, .F. );
#199 = ORIENTED_EDGE( '', *, *, #309, .F. );
#200 = CARTESIAN_POINT( '', ( 2.34736656052657E-017, 4.87212438141191E-017, 40.0000000000000 ) );
#201 = DIRECTION( '', ( -0.000000000000000, 0.000000000000000, -1.00000000000000 ) );
#202 = DIRECTION( '', ( -1.00000000000000, 0.000000000000000, 0.000000000000000 ) );
#203 = SURFACE_STYLE_FILL_AREA( #310 );
#204 = ORIENTED_EDGE( '', *, *, #311, .T. );
#205 = ORIENTED_EDGE( '', *, *, #312, .F. );
#206 = ORIENTED_EDGE( '', *, *, #313, .F. );
#207 = ORIENTED_EDGE( '', *, *, #314, .T. );
#208 = CARTESIAN_POINT( '', ( 4.04145188432738, -7.00000000000000, 13.0000000000000 ) );
#209 = DIRECTION( '', ( -0.866025403784438, 0.500000000000000, 0.000000000000000 ) );
#210 = DIRECTION( '', ( -0.500000000000000, -0.866025403784438, 0.000000000000000 ) );
#211 = SURFACE_STYLE_FILL_AREA( #315 );
#212 = ORIENTED_EDGE( '', *, *, #316, .T. );
#213 = ORIENTED_EDGE( '', *, *, #317, .F. );
#214 = ORIENTED_EDGE( '', *, *, #318, .F. );
#215 = ORIENTED_EDGE( '', *, *, #319, .T. );
#216 = CARTESIAN_POINT( '', ( -4.04145188432738, 7.00000000000000, 13.0000000000000 ) );
#217 = DIRECTION( '', ( 0.866025403784439, -0.500000000000000, 0.000000000000000 ) );
#218 = DIRECTION( '', ( 0.500000000000000, 0.866025403784439, 0.000000000000000 ) );
#219 = SURFACE_STYLE_FILL_AREA( #320 );
#220 = ORIENTED_EDGE( '', *, *, #321, .T. );
#221 = ORIENTED_EDGE( '', *, *, #319, .F. );
#222 = ORIENTED_EDGE( '', *, *, #322, .F. );
#223 = ORIENTED_EDGE( '', *, *, #323, .T. );
#224 = CARTESIAN_POINT( '', ( 4.04145188432738, 7.00000000000000, 13.0000000000000 ) );
#225 = DIRECTION( '', ( 0.000000000000000, -1.00000000000000, 0.000000000000000 ) );
#226 = DIRECTION( '', ( 0.000000000000000, 0.000000000000000, -1.00000000000000 ) );
#227 = SURFACE_STYLE_FILL_AREA( #324 );
#228 = ORIENTED_EDGE( '', *, *, #325, .T. );
#229 = ORIENTED_EDGE( '', *, *, #326, .F. );
#230 = ORIENTED_EDGE( '', *, *, #327, .F. );
#231 = ORIENTED_EDGE( '', *, *, #317, .T. );
#232 = CARTESIAN_POINT( '', ( -8.08290376865477, 1.12063312477229E-014, 13.0000000000000 ) );
#233 = DIRECTION( '', ( 0.866025403784439, 0.500000000000000, 0.000000000000000 ) );
#234 = DIRECTION( '', ( -0.500000000000000, 0.866025403784439, 0.000000000000000 ) );
#235 = SURFACE_STYLE_FILL_AREA( #328 );
#236 = ORIENTED_EDGE( '', *, *, #329, .F. );
#237 = ORIENTED_EDGE( '', *, *, #330, .F. );
#238 = CARTESIAN_POINT( '', ( 0.000000000000000, 0.000000000000000, 7.00000000000000 ) );
#239 = DIRECTION( '', ( 0.000000000000000, 0.000000000000000, -1.00000000000000 ) );
#240 = DIRECTION( '', ( -1.00000000000000, 0.000000000000000, 0.000000000000000 ) );
#241 = SURFACE_STYLE_FILL_AREA( #331 );
#242 = ORIENTED_EDGE( '', *, *, #332, .T. );
#243 = CARTESIAN_POINT( '', ( 3.75890154645400E-015, 0.000000000000000, 0.000000000000000 ) );
#244 = DIRECTION( '', ( 0.000000000000000, 0.000000000000000, 1.00000000000000 ) );
#245 = DIRECTION( '', ( 1.00000000000000, 0.000000000000000, 0.000000000000000 ) );
#246 = SURFACE_STYLE_FILL_AREA( #333 );
#247 = ORIENTED_EDGE( '', *, *, #334, .T. );
#248 = ORIENTED_EDGE( '', *, *, #323, .F. );
#249 = ORIENTED_EDGE( '', *, *, #335, .F. );
#250 = ORIENTED_EDGE( '', *, *, #312, .T. );
#251 = CARTESIAN_POINT( '', ( 8.08290376865477, 1.02164610249130E-014, 13.0000000000000 ) );
#252 = DIRECTION( '', ( -0.866025403784438, -0.500000000000000, 0.000000000000000 ) );
#253 = DIRECTION( '', ( 0.500000000000000, -0.866025403784438, 0.000000000000000 ) );
#254 = SURFACE_STYLE_FILL_AREA( #336 );
#255 = ORIENTED_EDGE( '', *, *, #337, .T. );
#256 = ORIENTED_EDGE( '', *, *, #314, .F. );
#257 = ORIENTED_EDGE( '', *, *, #338, .F. );
#258 = ORIENTED_EDGE( '', *, *, #326, .T. );
#259 = CARTESIAN_POINT( '', ( -4.04145188432738, -7.00000000000000, 13.0000000000000 ) );
#260 = DIRECTION( '', ( 0.000000000000000, 1.00000000000000, 0.000000000000000 ) );
#261 = DIRECTION( '', ( 0.000000000000000, 0.000000000000000, 1.00000000000000 ) );
#262 = SURFACE_STYLE_FILL_AREA( #339 );
#263 = ORIENTED_EDGE( '', *, *, #322, .T. );
#264 = ORIENTED_EDGE( '', *, *, #318, .T. );
#265 = ORIENTED_EDGE( '', *, *, #327, .T. );
#266 = ORIENTED_EDGE( '', *, *, #338, .T. );
#267 = ORIENTED_EDGE( '', *, *, #313, .T. );
#268 = ORIENTED_EDGE( '', *, *, #335, .T. );
#269 = ORIENTED_EDGE( '', *, *, #340, .F. );
#270 = CARTESIAN_POINT( '', ( 0.000000000000000, 0.000000000000000, 13.0000000000000 ) );
#271 = DIRECTION( '', ( 0.000000000000000, 0.000000000000000, 1.00000000000000 ) );
#272 = DIRECTION( '', ( 1.00000000000000, 0.000000000000000, 0.000000000000000 ) );
#273 = SURFACE_STYLE_FILL_AREA( #341 );
#274 = ORIENTED_EDGE( '', *, *, #342, .T. );
#275 = ORIENTED_EDGE( '', *, *, #329, .T. );
#276 = CARTESIAN_POINT( '', ( 0.000000000000000, 0.000000000000000, 57.1500000000000 ) );
#277 = DIRECTION( '', ( -0.000000000000000, -0.000000000000000, -1.00000000000000 ) );
#278 = DIRECTION( '', ( 1.00000000000000, 0.000000000000000, 0.000000000000000 ) );
#279 = SURFACE_STYLE_FILL_AREA( #343 );
#280 = ORIENTED_EDGE( '', *, *, #309, .T. );
#281 = CARTESIAN_POINT( '', ( 2.34736656052657E-017, 4.87212438141191E-017, 40.0000000000000 ) );
#282 = DIRECTION( '', ( 0.000000000000000, 0.000000000000000, 1.00000000000000 ) );
#283 = DIRECTION( '', ( 1.00000000000000, 0.000000000000000, 0.000000000000000 ) );
#284 = SURFACE_STYLE_FILL_AREA( #344 );
#285 = ORIENTED_EDGE( '', *, *, #332, .F. );
#286 = ORIENTED_EDGE( '', *, *, #342, .F. );
#287 = CARTESIAN_POINT( '', ( 0.000000000000000, 0.000000000000000, 1.00000000000000 ) );
#288 = DIRECTION( '', ( 0.000000000000000, 0.000000000000000, 1.00000000000000 ) );
#289 = DIRECTION( '', ( 1.00000000000000, 0.000000000000000, 0.000000000000000 ) );
#290 = SURFACE_STYLE_FILL_AREA( #345 );
#291 = ORIENTED_EDGE( '', *, *, #308, .T. );
#292 = ORIENTED_EDGE( '', *, *, #340, .T. );
#293 = CARTESIAN_POINT( '', ( 2.34736656052657E-017, 4.87212438141191E-017, 40.0000000000000 ) );
#294 = DIRECTION( '', ( -0.000000000000000, -0.000000000000000, 1.00000000000000 ) );
#295 = DIRECTION( '', ( -1.00000000000000, 0.000000000000000, 0.000000000000000 ) );
#296 = SURFACE_STYLE_FILL_AREA( #346 );
#297 = ORIENTED_EDGE( '', *, *, #330, .T. );
#298 = ORIENTED_EDGE( '', *, *, #321, .F. );
#299 = ORIENTED_EDGE( '', *, *, #334, .F. );
#300 = ORIENTED_EDGE( '', *, *, #311, .F. );
#301 = ORIENTED_EDGE( '', *, *, #337, .F. );
#302 = ORIENTED_EDGE( '', *, *, #325, .F. );
#303 = ORIENTED_EDGE( '', *, *, #316, .F. );
#304 = CARTESIAN_POINT( '', ( 9.50000000000000, 0.000000000000000, 8.00000000000000 ) );
#305 = DIRECTION( '', ( 0.000000000000000, 0.000000000000000, -1.00000000000000 ) );
#306 = DIRECTION( '', ( -1.00000000000000, 0.000000000000000, 0.000000000000000 ) );
#307 = FILL_AREA_STYLE( '', ( #347 ) );
#308 = EDGE_CURVE( '', #348, #348, #349, .F. );
#309 = EDGE_CURVE( '', #350, #350, #351, .T. );
#310 = FILL_AREA_STYLE( '', ( #352 ) );
#311 = EDGE_CURVE( '', #353, #354, #355, .T. );
#312 = EDGE_CURVE( '', #356, #354, #357, .T. );
#313 = EDGE_CURVE( '', #358, #356, #359, .T. );
#314 = EDGE_CURVE( '', #358, #353, #360, .T. );
#315 = FILL_AREA_STYLE( '', ( #361 ) );
#316 = EDGE_CURVE( '', #362, #363, #364, .T. );
#317 = EDGE_CURVE( '', #365, #363, #366, .T. );
#318 = EDGE_CURVE( '', #367, #365, #368, .T. );
#319 = EDGE_CURVE( '', #367, #362, #369, .T. );
#320 = FILL_AREA_STYLE( '', ( #370 ) );
#321 = EDGE_CURVE( '', #371, #362, #372, .T. );
#322 = EDGE_CURVE( '', #373, #367, #374, .T. );
#323 = EDGE_CURVE( '', #373, #371, #375, .T. );
#324 = FILL_AREA_STYLE( '', ( #376 ) );
#325 = EDGE_CURVE( '', #363, #377, #378, .T. );
#326 = EDGE_CURVE( '', #379, #377, #380, .T. );
#327 = EDGE_CURVE( '', #365, #379, #381, .T. );
#328 = FILL_AREA_STYLE( '', ( #382 ) );
#329 = EDGE_CURVE( '', #383, #383, #384, .T. );
#330 = EDGE_CURVE( '', #385, #385, #386, .F. );
#331 = FILL_AREA_STYLE( '', ( #387 ) );
#332 = EDGE_CURVE( '', #388, #388, #389, .F. );
#333 = FILL_AREA_STYLE( '', ( #390 ) );
#334 = EDGE_CURVE( '', #354, #371, #391, .T. );
#335 = EDGE_CURVE( '', #356, #373, #392, .T. );
#336 = FILL_AREA_STYLE( '', ( #393 ) );
#337 = EDGE_CURVE( '', #377, #353, #394, .T. );
#338 = EDGE_CURVE( '', #379, #358, #395, .T. );
#339 = FILL_AREA_STYLE( '', ( #396 ) );
#340 = EDGE_CURVE( '', #397, #397, #398, .T. );
#341 = FILL_AREA_STYLE( '', ( #399 ) );
#342 = EDGE_CURVE( '', #400, #400, #401, .T. );
#343 = FILL_AREA_STYLE( '', ( #402 ) );
#344 = FILL_AREA_STYLE( '', ( #403 ) );
#345 = FILL_AREA_STYLE( '', ( #404 ) );
#346 = FILL_AREA_STYLE( '', ( #405 ) );
#347 = FILL_AREA_STYLE_COLOUR( '', #406 );
#348 = VERTEX_POINT( '', #407 );
#349 = CIRCLE( '', #408, 4.00000000000000 );
#350 = VERTEX_POINT( '', #409 );
#351 = CIRCLE( '', #410, 3.00000000000000 );
#352 = FILL_AREA_STYLE_COLOUR( '', #411 );
#353 = VERTEX_POINT( '', #412 );
#354 = VERTEX_POINT( '', #413 );
#355 = LINE( '', #414, #415 );
#356 = VERTEX_POINT( '', #416 );
#357 = LINE( '', #417, #418 );
#358 = VERTEX_POINT( '', #419 );
#359 = LINE( '', #420, #421 );
#360 = LINE( '', #422, #423 );
#361 = FILL_AREA_STYLE_COLOUR( '', #424 );
#362 = VERTEX_POINT( '', #425 );
#363 = VERTEX_POINT( '', #426 );
#364 = LINE( '', #427, #428 );
#365 = VERTEX_POINT( '', #429 );
#366 = LINE( '', #430, #431 );
#367 = VERTEX_POINT( '', #432 );
#368 = LINE( '', #433, #434 );
#369 = LINE( '', #435, #436 );
#370 = FILL_AREA_STYLE_COLOUR( '', #437 );
#371 = VERTEX_POINT( '', #438 );
#372 = LINE( '', #439, #440 );
#373 = VERTEX_POINT( '', #441 );
#374 = LINE( '', #442, #443 );
#375 = LINE( '', #444, #445 );
#376 = FILL_AREA_STYLE_COLOUR( '', #446 );
#377 = VERTEX_POINT( '', #447 );
#378 = LINE( '', #448, #449 );
#379 = VERTEX_POINT( '', #450 );
#380 = LINE( '', #451, #452 );
#381 = LINE( '', #453, #454 );
#382 = FILL_AREA_STYLE_COLOUR( '', #455 );
#383 = VERTEX_POINT( '', #456 );
#384 = CIRCLE( '', #457, 9.50000000000000 );
#385 = VERTEX_POINT( '', #458 );
#386 = CIRCLE( '', #459, 8.50000000000000 );
#387 = FILL_AREA_STYLE_COLOUR( '', #460 );
#388 = VERTEX_POINT( '', #461 );
#389 = CIRCLE( '', #462, 8.50000000000000 );
#390 = FILL_AREA_STYLE_COLOUR( '', #463 );
#391 = LINE( '', #464, #465 );
#392 = LINE( '', #466, #467 );
#393 = FILL_AREA_STYLE_COLOUR( '', #468 );
#394 = LINE( '', #469, #470 );
#395 = LINE( '', #471, #472 );
#396 = FILL_AREA_STYLE_COLOUR( '', #473 );
#397 = VERTEX_POINT( '', #474 );
#398 = CIRCLE( '', #475, 4.00000000000000 );
#399 = FILL_AREA_STYLE_COLOUR( '', #476 );
#400 = VERTEX_POINT( '', #477 );
#401 = CIRCLE( '', #478, 9.50000000000000 );
#402 = FILL_AREA_STYLE_COLOUR( '', #479 );
#403 = FILL_AREA_STYLE_COLOUR( '', #480 );
#404 = FILL_AREA_STYLE_COLOUR( '', #481 );
#405 = FILL_AREA_STYLE_COLOUR( '', #482 );
#406 = COLOUR_RGB( '', 0.200000002980232, 0.200000002980232, 0.200000002980232 );
#407 = CARTESIAN_POINT( '', ( 4.00000000000000, 4.87212438141191E-017, 39.0000000000000 ) );
#408 = AXIS2_PLACEMENT_3D( '', #483, #484, #485 );
#409 = CARTESIAN_POINT( '', ( 3.00000000000000, 4.87212438141191E-017, 40.0000000000000 ) );
#410 = AXIS2_PLACEMENT_3D( '', #486, #487, #488 );
#411 = COLOUR_RGB( '', 0.200000002980232, 0.200000002980232, 0.200000002980232 );
#412 = CARTESIAN_POINT( '', ( 4.04145188432738, -7.00000000000000, 8.00000000000000 ) );
#413 = CARTESIAN_POINT( '', ( 8.08290376865477, 1.02999206386123E-014, 8.00000000000000 ) );
#414 = CARTESIAN_POINT( '', ( 4.04145188432738, -7.00000000000000, 8.00000000000000 ) );
#415 = VECTOR( '', #489, 999.999999999999 );
#416 = CARTESIAN_POINT( '', ( 8.08290376865477, 1.04083408558608E-014, 13.0000000000000 ) );
#417 = CARTESIAN_POINT( '', ( 8.08290376865477, 1.04083408558608E-014, 13.0000000000000 ) );
#418 = VECTOR( '', #490, 1000.00000000000 );
#419 = CARTESIAN_POINT( '', ( 4.04145188432738, -7.00000000000000, 13.0000000000000 ) );
#420 = CARTESIAN_POINT( '', ( 4.04145188432738, -7.00000000000000, 13.0000000000000 ) );
#421 = VECTOR( '', #491, 999.999999999999 );
#422 = CARTESIAN_POINT( '', ( 4.04145188432738, -7.00000000000000, 13.0000000000000 ) );
#423 = VECTOR( '', #492, 1000.00000000000 );
#424 = COLOUR_RGB( '', 0.200000002980232, 0.200000002980232, 0.200000002980232 );
#425 = CARTESIAN_POINT( '', ( -4.04145188432738, 7.00000000000000, 8.00000000000000 ) );
#426 = CARTESIAN_POINT( '', ( -8.08290376865477, 1.04083408558608E-014, 8.00000000000000 ) );
#427 = CARTESIAN_POINT( '', ( -4.04145188432738, 7.00000000000000, 8.00000000000000 ) );
#428 = VECTOR( '', #493, 999.999999999999 );
#429 = CARTESIAN_POINT( '', ( -8.08290376865477, 1.12757025938492E-014, 13.0000000000000 ) );
#430 = CARTESIAN_POINT( '', ( -8.08290376865477, 1.12757025938492E-014, 13.0000000000000 ) );
#431 = VECTOR( '', #494, 1000.00000000000 );
#432 = CARTESIAN_POINT( '', ( -4.04145188432738, 7.00000000000000, 13.0000000000000 ) );
#433 = CARTESIAN_POINT( '', ( -4.04145188432738, 7.00000000000000, 13.0000000000000 ) );
#434 = VECTOR( '', #495, 999.999999999999 );
#435 = CARTESIAN_POINT( '', ( -4.04145188432738, 7.00000000000000, 13.0000000000000 ) );
#436 = VECTOR( '', #496, 1000.00000000000 );
#437 = COLOUR_RGB( '', 0.200000002980232, 0.200000002980232, 0.200000002980232 );
#438 = CARTESIAN_POINT( '', ( 4.04145188432738, 7.00000000000000, 8.00000000000000 ) );
#439 = CARTESIAN_POINT( '', ( 4.04145188432738, 7.00000000000000, 8.00000000000000 ) );
#440 = VECTOR( '', #497, 1000.00000000000 );
#441 = CARTESIAN_POINT( '', ( 4.04145188432738, 7.00000000000000, 13.0000000000000 ) );
#442 = CARTESIAN_POINT( '', ( 4.04145188432738, 7.00000000000000, 13.0000000000000 ) );
#443 = VECTOR( '', #498, 1000.00000000000 );
#444 = CARTESIAN_POINT( '', ( 4.04145188432738, 7.00000000000000, 13.0000000000000 ) );
#445 = VECTOR( '', #499, 1000.00000000000 );
#446 = COLOUR_RGB( '', 0.200000002980232, 0.200000002980232, 0.200000002980232 );
#447 = CARTESIAN_POINT( '', ( -4.04145188432738, -7.00000000000000, 8.00000000000000 ) );
#448 = CARTESIAN_POINT( '', ( -8.08290376865477, 1.12063312477229E-014, 8.00000000000000 ) );
#449 = VECTOR( '', #500, 999.999999999999 );
#450 = CARTESIAN_POINT( '', ( -4.04145188432738, -7.00000000000000, 13.0000000000000 ) );
#451 = CARTESIAN_POINT( '', ( -4.04145188432738, -7.00000000000000, 13.0000000000000 ) );
#452 = VECTOR( '', #501, 1000.00000000000 );
#453 = CARTESIAN_POINT( '', ( -8.08290376865477, 1.12063312477229E-014, 13.0000000000000 ) );
#454 = VECTOR( '', #502, 999.999999999999 );
#455 = COLOUR_RGB( '', 0.200000002980232, 0.200000002980232, 0.200000002980232 );
#456 = CARTESIAN_POINT( '', ( -9.50000000000000, 0.000000000000000, 7.00000000000000 ) );
#457 = AXIS2_PLACEMENT_3D( '', #503, #504, #505 );
#458 = CARTESIAN_POINT( '', ( -8.50000000000000, 0.000000000000000, 8.00000000000000 ) );
#459 = AXIS2_PLACEMENT_3D( '', #506, #507, #508 );
#460 = COLOUR_RGB( '', 0.200000002980232, 0.200000002980232, 0.200000002980232 );
#461 = CARTESIAN_POINT( '', ( 8.50000000000000, 0.000000000000000, 0.000000000000000 ) );
#462 = AXIS2_PLACEMENT_3D( '', #509, #510, #511 );
#463 = COLOUR_RGB( '', 0.200000002980232, 0.200000002980232, 0.200000002980232 );
#464 = CARTESIAN_POINT( '', ( 8.08290376865477, 1.02164610249130E-014, 8.00000000000000 ) );
#465 = VECTOR( '', #512, 999.999999999999 );
#466 = CARTESIAN_POINT( '', ( 8.08290376865477, 1.02164610249130E-014, 13.0000000000000 ) );
#467 = VECTOR( '', #513, 999.999999999999 );
#468 = COLOUR_RGB( '', 0.200000002980232, 0.200000002980232, 0.200000002980232 );
#469 = CARTESIAN_POINT( '', ( -4.04145188432738, -7.00000000000000, 8.00000000000000 ) );
#470 = VECTOR( '', #514, 1000.00000000000 );
#471 = CARTESIAN_POINT( '', ( -4.04145188432738, -7.00000000000000, 13.0000000000000 ) );
#472 = VECTOR( '', #515, 1000.00000000000 );
#473 = COLOUR_RGB( '', 0.200000002980232, 0.200000002980232, 0.200000002980232 );
#474 = CARTESIAN_POINT( '', ( 2.00000000000000, 3.46410161513776, 13.0000000000000 ) );
#475 = AXIS2_PLACEMENT_3D( '', #516, #517, #518 );
#476 = COLOUR_RGB( '', 0.200000002980232, 0.200000002980232, 0.200000002980232 );
#477 = CARTESIAN_POINT( '', ( 9.50000000000000, 0.000000000000000, 1.00000000000000 ) );
#478 = AXIS2_PLACEMENT_3D( '', #519, #520, #521 );
#479 = COLOUR_RGB( '', 0.200000002980232, 0.200000002980232, 0.200000002980232 );
#480 = COLOUR_RGB( '', 0.200000002980232, 0.200000002980232, 0.200000002980232 );
#481 = COLOUR_RGB( '', 0.752941191196442, 0.752941191196442, 0.752941191196442 );
#482 = COLOUR_RGB( '', 0.200000002980232, 0.200000002980232, 0.200000002980232 );
#483 = CARTESIAN_POINT( '', ( 2.34736656052657E-017, 4.87212438141191E-017, 39.0000000000000 ) );
#484 = DIRECTION( '', ( 0.000000000000000, 0.000000000000000, 1.00000000000000 ) );
#485 = DIRECTION( '', ( 1.00000000000000, 0.000000000000000, 0.000000000000000 ) );
#486 = CARTESIAN_POINT( '', ( 2.34736656052657E-017, 4.87212438141191E-017, 40.0000000000000 ) );
#487 = DIRECTION( '', ( 0.000000000000000, 0.000000000000000, 1.00000000000000 ) );
#488 = DIRECTION( '', ( 1.00000000000000, 0.000000000000000, 0.000000000000000 ) );
#489 = DIRECTION( '', ( 0.500000000000000, 0.866025403784438, 0.000000000000000 ) );
#490 = DIRECTION( '', ( 0.000000000000000, 0.000000000000000, -1.00000000000000 ) );
#491 = DIRECTION( '', ( 0.500000000000000, 0.866025403784438, 0.000000000000000 ) );
#492 = DIRECTION( '', ( 0.000000000000000, 0.000000000000000, -1.00000000000000 ) );
#493 = DIRECTION( '', ( -0.500000000000000, -0.866025403784438, 0.000000000000000 ) );
#494 = DIRECTION( '', ( 0.000000000000000, 0.000000000000000, -1.00000000000000 ) );
#495 = DIRECTION( '', ( -0.500000000000000, -0.866025403784438, 0.000000000000000 ) );
#496 = DIRECTION( '', ( 0.000000000000000, 0.000000000000000, -1.00000000000000 ) );
#497 = DIRECTION( '', ( -1.00000000000000, 0.000000000000000, 0.000000000000000 ) );
#498 = DIRECTION( '', ( -1.00000000000000, 0.000000000000000, 0.000000000000000 ) );
#499 = DIRECTION( '', ( 0.000000000000000, 0.000000000000000, -1.00000000000000 ) );
#500 = DIRECTION( '', ( 0.500000000000000, -0.866025403784438, 0.000000000000000 ) );
#501 = DIRECTION( '', ( 0.000000000000000, 0.000000000000000, -1.00000000000000 ) );
#502 = DIRECTION( '', ( 0.500000000000000, -0.866025403784438, 0.000000000000000 ) );
#503 = CARTESIAN_POINT( '', ( 0.000000000000000, 0.000000000000000, 7.00000000000000 ) );
#504 = DIRECTION( '', ( 0.000000000000000, 0.000000000000000, -1.00000000000000 ) );
#505 = DIRECTION( '', ( -1.00000000000000, 0.000000000000000, 0.000000000000000 ) );
#506 = CARTESIAN_POINT( '', ( 0.000000000000000, 0.000000000000000, 8.00000000000000 ) );
#507 = DIRECTION( '', ( 0.000000000000000, 0.000000000000000, -1.00000000000000 ) );
#508 = DIRECTION( '', ( -1.00000000000000, 0.000000000000000, 0.000000000000000 ) );
#509 = CARTESIAN_POINT( '', ( 0.000000000000000, 0.000000000000000, 0.000000000000000 ) );
#510 = DIRECTION( '', ( 0.000000000000000, 0.000000000000000, 1.00000000000000 ) );
#511 = DIRECTION( '', ( 1.00000000000000, 0.000000000000000, 0.000000000000000 ) );
#512 = DIRECTION( '', ( -0.500000000000000, 0.866025403784438, 0.000000000000000 ) );
#513 = DIRECTION( '', ( -0.500000000000000, 0.866025403784438, 0.000000000000000 ) );
#514 = DIRECTION( '', ( 1.00000000000000, 0.000000000000000, 0.000000000000000 ) );
#515 = DIRECTION( '', ( 1.00000000000000, 0.000000000000000, 0.000000000000000 ) );
#516 = CARTESIAN_POINT( '', ( 2.34736656052657E-017, 4.87212438141191E-017, 13.0000000000000 ) );
#517 = DIRECTION( '', ( 0.000000000000000, -0.000000000000000, 1.00000000000000 ) );
#518 = DIRECTION( '', ( 0.500000000000000, 0.866025403784439, 0.000000000000000 ) );
#519 = CARTESIAN_POINT( '', ( 0.000000000000000, 0.000000000000000, 1.00000000000000 ) );
#520 = DIRECTION( '', ( 0.000000000000000, 0.000000000000000, 1.00000000000000 ) );
#521 = DIRECTION( '', ( 1.00000000000000, 0.000000000000000, 0.000000000000000 ) );
ENDSEC;
END-ISO-10303-21;
