ISO-10303-21;
HEADER;
FILE_DESCRIPTION( ( 'Unknown' ), '1' );
FILE_NAME( '//SBS2003/HD_Usb/Disegni/08_LIB/Users_3D/PROD_GAMM_3D/PRMES/7322008.stp', 'Unknown', ( 'Unknown' ), ( 'Unknown' ), 'PSStep 14.0', 'Unknown', '  ' );
FILE_SCHEMA( ( 'AUTOMOTIVE_DESIGN { 1 0 10303 214 1 1 1 1 }' ) );
ENDSEC;
DATA;
#1 = MECHANICAL_DESIGN_GEOMETRIC_PRESENTATION_REPRESENTATION( ' ', ( #10, #11, #12, #13, #14, #15, #16, #17, #18, #19, #20, #21, #22, #23, #24 ), #6 );
#2 = PRODUCT_DEFINITION_CONTEXT( '', #25, 'design' );
#3 = APPLICATION_PROTOCOL_DEFINITION( 'international standard', 'automotive_design', 2001, #25 );
#4 = PRODUCT_CATEGORY_RELATIONSHIP( 'NONE', 'NONE', #26, #27 );
#5 = SHAPE_DEFINITION_REPRESENTATION( #28, #29 );
#6 =  ( GEOMETRIC_REPRESENTATION_CONTEXT( 3 )GLOBAL_UNCERTAINTY_ASSIGNED_CONTEXT( ( #32 ) )GLOBAL_UNIT_ASSIGNED_CONTEXT( ( #34, #35, #36 ) )REPRESENTATION_CONTEXT( 'NONE', 'WORKSPACE' ) );
#10 = STYLED_ITEM( '', ( #38 ), #39 );
#11 = STYLED_ITEM( '', ( #40 ), #41 );
#12 = STYLED_ITEM( '', ( #42 ), #43 );
#13 = STYLED_ITEM( '', ( #44 ), #45 );
#14 = STYLED_ITEM( '', ( #46 ), #47 );
#15 = STYLED_ITEM( '', ( #48 ), #49 );
#16 = STYLED_ITEM( '', ( #50 ), #51 );
#17 = STYLED_ITEM( '', ( #52 ), #53 );
#18 = STYLED_ITEM( '', ( #54 ), #55 );
#19 = STYLED_ITEM( '', ( #56 ), #57 );
#20 = STYLED_ITEM( '', ( #58 ), #59 );
#21 = STYLED_ITEM( '', ( #60 ), #61 );
#22 = STYLED_ITEM( '', ( #62 ), #63 );
#23 = STYLED_ITEM( '', ( #64 ), #65 );
#24 = STYLED_ITEM( '', ( #66 ), #67 );
#25 = APPLICATION_CONTEXT( 'core data for automotive mechanical design processes' );
#26 = PRODUCT_CATEGORY( 'part', 'NONE' );
#27 = PRODUCT_RELATED_PRODUCT_CATEGORY( 'detail', ' ', ( #68 ) );
#28 = PRODUCT_DEFINITION_SHAPE( 'NONE', 'NONE', #69 );
#29 = ADVANCED_BREP_SHAPE_REPRESENTATION( '1', ( #70, #71 ), #6 );
#32 = UNCERTAINTY_MEASURE_WITH_UNIT( LENGTH_MEASURE( 0.00100000000000000 ), #34, '', '' );
#34 =  ( CONVERSION_BASED_UNIT( 'MILLIMETRE', #74 )LENGTH_UNIT(  )NAMED_UNIT( #77 ) );
#35 =  ( NAMED_UNIT( #79 )PLANE_ANGLE_UNIT(  )SI_UNIT( $, .RADIAN. ) );
#36 =  ( NAMED_UNIT( #79 )SI_UNIT( $, .STERADIAN. )SOLID_ANGLE_UNIT(  ) );
#38 = PRESENTATION_STYLE_ASSIGNMENT( ( #85 ) );
#39 = ADVANCED_FACE( '', ( #86, #87 ), #88, .T. );
#40 = PRESENTATION_STYLE_ASSIGNMENT( ( #89 ) );
#41 = ADVANCED_FACE( '', ( #90 ), #91, .T. );
#42 = PRESENTATION_STYLE_ASSIGNMENT( ( #92 ) );
#43 = ADVANCED_FACE( '', ( #93, #94 ), #95, .F. );
#44 = PRESENTATION_STYLE_ASSIGNMENT( ( #96 ) );
#45 = ADVANCED_FACE( '', ( #97 ), #98, .F. );
#46 = PRESENTATION_STYLE_ASSIGNMENT( ( #99 ) );
#47 = ADVANCED_FACE( '', ( #100 ), #101, .F. );
#48 = PRESENTATION_STYLE_ASSIGNMENT( ( #102 ) );
#49 = ADVANCED_FACE( '', ( #103, #104 ), #105, .T. );
#50 = PRESENTATION_STYLE_ASSIGNMENT( ( #106 ) );
#51 = ADVANCED_FACE( '', ( #107, #108 ), #109, .T. );
#52 = PRESENTATION_STYLE_ASSIGNMENT( ( #110 ) );
#53 = ADVANCED_FACE( '', ( #111, #112 ), #113, .T. );
#54 = PRESENTATION_STYLE_ASSIGNMENT( ( #114 ) );
#55 = ADVANCED_FACE( '', ( #115, #116 ), #117, .T. );
#56 = PRESENTATION_STYLE_ASSIGNMENT( ( #118 ) );
#57 = ADVANCED_FACE( '', ( #119 ), #120, .F. );
#58 = PRESENTATION_STYLE_ASSIGNMENT( ( #121 ) );
#59 = ADVANCED_FACE( '', ( #122 ), #123, .F. );
#60 = PRESENTATION_STYLE_ASSIGNMENT( ( #124 ) );
#61 = ADVANCED_FACE( '', ( #125 ), #126, .F. );
#62 = PRESENTATION_STYLE_ASSIGNMENT( ( #127 ) );
#63 = ADVANCED_FACE( '', ( #128, #129 ), #130, .T. );
#64 = PRESENTATION_STYLE_ASSIGNMENT( ( #131 ) );
#65 = ADVANCED_FACE( '', ( #132 ), #133, .F. );
#66 = PRESENTATION_STYLE_ASSIGNMENT( ( #134 ) );
#67 = ADVANCED_FACE( '', ( #135 ), #136, .F. );
#68 = PRODUCT( '1', '1', 'PART-1-DESC', ( #137 ) );
#69 = PRODUCT_DEFINITION( 'NONE', 'NONE', #138, #2 );
#70 = MANIFOLD_SOLID_BREP( '1', #139 );
#71 = AXIS2_PLACEMENT_3D( '', #140, #141, #142 );
#74 = LENGTH_MEASURE_WITH_UNIT( LENGTH_MEASURE( 1.00000000000000 ), #143 );
#77 = DIMENSIONAL_EXPONENTS( 1.00000000000000, 0.000000000000000, 0.000000000000000, 0.000000000000000, 0.000000000000000, 0.000000000000000, 0.000000000000000 );
#79 = DIMENSIONAL_EXPONENTS( 0.000000000000000, 0.000000000000000, 0.000000000000000, 0.000000000000000, 0.000000000000000, 0.000000000000000, 0.000000000000000 );
#85 = SURFACE_STYLE_USAGE( .BOTH., #144 );
#86 = FACE_OUTER_BOUND( '', #145, .T. );
#87 = FACE_OUTER_BOUND( '', #146, .T. );
#88 = CYLINDRICAL_SURFACE( '', #147, 20.0000000000000 );
#89 = SURFACE_STYLE_USAGE( .BOTH., #148 );
#90 = FACE_OUTER_BOUND( '', #149, .T. );
#91 = PLANE( '', #150 );
#92 = SURFACE_STYLE_USAGE( .BOTH., #151 );
#93 = FACE_OUTER_BOUND( '', #152, .T. );
#94 = FACE_BOUND( '', #153, .T. );
#95 = PLANE( '', #154 );
#96 = SURFACE_STYLE_USAGE( .BOTH., #155 );
#97 = FACE_OUTER_BOUND( '', #156, .T. );
#98 = PLANE( '', #157 );
#99 = SURFACE_STYLE_USAGE( .BOTH., #158 );
#100 = FACE_OUTER_BOUND( '', #159, .T. );
#101 = PLANE( '', #160 );
#102 = SURFACE_STYLE_USAGE( .BOTH., #161 );
#103 = FACE_OUTER_BOUND( '', #162, .T. );
#104 = FACE_OUTER_BOUND( '', #163, .T. );
#105 = CYLINDRICAL_SURFACE( '', #164, 4.00000000000000 );
#106 = SURFACE_STYLE_USAGE( .BOTH., #165 );
#107 = FACE_OUTER_BOUND( '', #166, .T. );
#108 = FACE_BOUND( '', #167, .T. );
#109 = PLANE( '', #168 );
#110 = SURFACE_STYLE_USAGE( .BOTH., #169 );
#111 = FACE_OUTER_BOUND( '', #170, .T. );
#112 = FACE_OUTER_BOUND( '', #171, .T. );
#113 = TOROIDAL_SURFACE( '', #172, 18.0000000000000, 2.00000000000000 );
#114 = SURFACE_STYLE_USAGE( .BOTH., #173 );
#115 = FACE_OUTER_BOUND( '', #174, .T. );
#116 = FACE_BOUND( '', #175, .T. );
#117 = CONICAL_SURFACE( '', #176, 3.00000000000000, 0.785398163397448 );
#118 = SURFACE_STYLE_USAGE( .BOTH., #177 );
#119 = FACE_OUTER_BOUND( '', #178, .T. );
#120 = PLANE( '', #179 );
#121 = SURFACE_STYLE_USAGE( .BOTH., #180 );
#122 = FACE_OUTER_BOUND( '', #181, .T. );
#123 = PLANE( '', #182 );
#124 = SURFACE_STYLE_USAGE( .BOTH., #183 );
#125 = FACE_OUTER_BOUND( '', #184, .T. );
#126 = PLANE( '', #185 );
#127 = SURFACE_STYLE_USAGE( .BOTH., #186 );
#128 = FACE_OUTER_BOUND( '', #187, .T. );
#129 = FACE_OUTER_BOUND( '', #188, .T. );
#130 = TOROIDAL_SURFACE( '', #189, 18.0000000000000, 2.00000000000000 );
#131 = SURFACE_STYLE_USAGE( .BOTH., #190 );
#132 = FACE_OUTER_BOUND( '', #191, .T. );
#133 = PLANE( '', #192 );
#134 = SURFACE_STYLE_USAGE( .BOTH., #193 );
#135 = FACE_OUTER_BOUND( '', #194, .T. );
#136 = PLANE( '', #195 );
#137 = PRODUCT_CONTEXT( '', #25, 'mechanical' );
#138 = PRODUCT_DEFINITION_FORMATION_WITH_SPECIFIED_SOURCE( ' ', 'NONE', #68, .NOT_KNOWN. );
#139 = CLOSED_SHELL( '', ( #51, #53, #45, #67, #39, #63, #55, #43, #57, #49, #59, #47, #61, #65, #41 ) );
#140 = CARTESIAN_POINT( '', ( 0.000000000000000, 0.000000000000000, 0.000000000000000 ) );
#141 = DIRECTION( '', ( 0.000000000000000, 0.000000000000000, 1.00000000000000 ) );
#142 = DIRECTION( '', ( 1.00000000000000, 0.000000000000000, 0.000000000000000 ) );
#143 =  ( LENGTH_UNIT(  )NAMED_UNIT( #77 )SI_UNIT( .MILLI., .METRE. ) );
#144 = SURFACE_SIDE_STYLE( '', ( #197 ) );
#145 = EDGE_LOOP( '', ( #198 ) );
#146 = EDGE_LOOP( '', ( #199 ) );
#147 = AXIS2_PLACEMENT_3D( '', #200, #201, #202 );
#148 = SURFACE_SIDE_STYLE( '', ( #203 ) );
#149 = EDGE_LOOP( '', ( #204 ) );
#150 = AXIS2_PLACEMENT_3D( '', #205, #206, #207 );
#151 = SURFACE_SIDE_STYLE( '', ( #208 ) );
#152 = EDGE_LOOP( '', ( #209 ) );
#153 = EDGE_LOOP( '', ( #210, #211, #212, #213, #214, #215 ) );
#154 = AXIS2_PLACEMENT_3D( '', #216, #217, #218 );
#155 = SURFACE_SIDE_STYLE( '', ( #219 ) );
#156 = EDGE_LOOP( '', ( #220, #221, #222, #223 ) );
#157 = AXIS2_PLACEMENT_3D( '', #224, #225, #226 );
#158 = SURFACE_SIDE_STYLE( '', ( #227 ) );
#159 = EDGE_LOOP( '', ( #228, #229, #230, #231 ) );
#160 = AXIS2_PLACEMENT_3D( '', #232, #233, #234 );
#161 = SURFACE_SIDE_STYLE( '', ( #235 ) );
#162 = EDGE_LOOP( '', ( #236 ) );
#163 = EDGE_LOOP( '', ( #237 ) );
#164 = AXIS2_PLACEMENT_3D( '', #238, #239, #240 );
#165 = SURFACE_SIDE_STYLE( '', ( #241 ) );
#166 = EDGE_LOOP( '', ( #242, #243, #244, #245, #246, #247 ) );
#167 = EDGE_LOOP( '', ( #248 ) );
#168 = AXIS2_PLACEMENT_3D( '', #249, #250, #251 );
#169 = SURFACE_SIDE_STYLE( '', ( #252 ) );
#170 = EDGE_LOOP( '', ( #253 ) );
#171 = EDGE_LOOP( '', ( #254 ) );
#172 = AXIS2_PLACEMENT_3D( '', #255, #256, #257 );
#173 = SURFACE_SIDE_STYLE( '', ( #258 ) );
#174 = EDGE_LOOP( '', ( #259 ) );
#175 = EDGE_LOOP( '', ( #260 ) );
#176 = AXIS2_PLACEMENT_3D( '', #261, #262, #263 );
#177 = SURFACE_SIDE_STYLE( '', ( #264 ) );
#178 = EDGE_LOOP( '', ( #265 ) );
#179 = AXIS2_PLACEMENT_3D( '', #266, #267, #268 );
#180 = SURFACE_SIDE_STYLE( '', ( #269 ) );
#181 = EDGE_LOOP( '', ( #270, #271, #272, #273 ) );
#182 = AXIS2_PLACEMENT_3D( '', #274, #275, #276 );
#183 = SURFACE_SIDE_STYLE( '', ( #277 ) );
#184 = EDGE_LOOP( '', ( #278, #279, #280, #281 ) );
#185 = AXIS2_PLACEMENT_3D( '', #282, #283, #284 );
#186 = SURFACE_SIDE_STYLE( '', ( #285 ) );
#187 = EDGE_LOOP( '', ( #286 ) );
#188 = EDGE_LOOP( '', ( #287 ) );
#189 = AXIS2_PLACEMENT_3D( '', #288, #289, #290 );
#190 = SURFACE_SIDE_STYLE( '', ( #291 ) );
#191 = EDGE_LOOP( '', ( #292, #293, #294, #295 ) );
#192 = AXIS2_PLACEMENT_3D( '', #296, #297, #298 );
#193 = SURFACE_SIDE_STYLE( '', ( #299 ) );
#194 = EDGE_LOOP( '', ( #300, #301, #302, #303 ) );
#195 = AXIS2_PLACEMENT_3D( '', #304, #305, #306 );
#197 = SURFACE_STYLE_FILL_AREA( #307 );
#198 = ORIENTED_EDGE( '', *, *, #308, .T. );
#199 = ORIENTED_EDGE( '', *, *, #309, .T. );
#200 = CARTESIAN_POINT( '', ( 0.000000000000000, 0.000000000000000, 57.1500000000000 ) );
#201 = DIRECTION( '', ( -0.000000000000000, -0.000000000000000, -1.00000000000000 ) );
#202 = DIRECTION( '', ( 1.00000000000000, 0.000000000000000, 0.000000000000000 ) );
#203 = SURFACE_STYLE_FILL_AREA( #310 );
#204 = ORIENTED_EDGE( '', *, *, #311, .T. );
#205 = CARTESIAN_POINT( '', ( 2.34736656052699E-017, 4.87212438141176E-017, 31.0000000000000 ) );
#206 = DIRECTION( '', ( 0.000000000000000, 0.000000000000000, 1.00000000000000 ) );
#207 = DIRECTION( '', ( 1.00000000000000, 0.000000000000000, 0.000000000000000 ) );
#208 = SURFACE_STYLE_FILL_AREA( #312 );
#209 = ORIENTED_EDGE( '', *, *, #313, .T. );
#210 = ORIENTED_EDGE( '', *, *, #314, .F. );
#211 = ORIENTED_EDGE( '', *, *, #315, .F. );
#212 = ORIENTED_EDGE( '', *, *, #316, .F. );
#213 = ORIENTED_EDGE( '', *, *, #317, .F. );
#214 = ORIENTED_EDGE( '', *, *, #318, .F. );
#215 = ORIENTED_EDGE( '', *, *, #319, .F. );
#216 = CARTESIAN_POINT( '', ( 20.0000000000000, 0.000000000000000, 9.00000000000000 ) );
#217 = DIRECTION( '', ( 0.000000000000000, 0.000000000000000, -1.00000000000000 ) );
#218 = DIRECTION( '', ( -1.00000000000000, 0.000000000000000, 0.000000000000000 ) );
#219 = SURFACE_STYLE_FILL_AREA( #320 );
#220 = ORIENTED_EDGE( '', *, *, #319, .T. );
#221 = ORIENTED_EDGE( '', *, *, #321, .F. );
#222 = ORIENTED_EDGE( '', *, *, #322, .F. );
#223 = ORIENTED_EDGE( '', *, *, #323, .T. );
#224 = CARTESIAN_POINT( '', ( -4.90747728811182, 8.50000000000000, 14.0000000000000 ) );
#225 = DIRECTION( '', ( 0.866025403784438, -0.500000000000000, 0.000000000000000 ) );
#226 = DIRECTION( '', ( 0.500000000000000, 0.866025403784438, 0.000000000000000 ) );
#227 = SURFACE_STYLE_FILL_AREA( #324 );
#228 = ORIENTED_EDGE( '', *, *, #316, .T. );
#229 = ORIENTED_EDGE( '', *, *, #325, .F. );
#230 = ORIENTED_EDGE( '', *, *, #326, .F. );
#231 = ORIENTED_EDGE( '', *, *, #327, .T. );
#232 = CARTESIAN_POINT( '', ( 4.90747728811183, -8.50000000000000, 14.0000000000000 ) );
#233 = DIRECTION( '', ( -0.866025403784439, 0.500000000000000, 0.000000000000000 ) );
#234 = DIRECTION( '', ( -0.500000000000000, -0.866025403784439, 0.000000000000000 ) );
#235 = SURFACE_STYLE_FILL_AREA( #328 );
#236 = ORIENTED_EDGE( '', *, *, #329, .T. );
#237 = ORIENTED_EDGE( '', *, *, #330, .T. );
#238 = CARTESIAN_POINT( '', ( 2.34736656052699E-017, 4.87212438141176E-017, 31.0000000000000 ) );
#239 = DIRECTION( '', ( -0.000000000000000, -0.000000000000000, 1.00000000000000 ) );
#240 = DIRECTION( '', ( -1.00000000000000, 0.000000000000000, 0.000000000000000 ) );
#241 = SURFACE_STYLE_FILL_AREA( #331 );
#242 = ORIENTED_EDGE( '', *, *, #332, .T. );
#243 = ORIENTED_EDGE( '', *, *, #322, .T. );
#244 = ORIENTED_EDGE( '', *, *, #333, .T. );
#245 = ORIENTED_EDGE( '', *, *, #334, .T. );
#246 = ORIENTED_EDGE( '', *, *, #326, .T. );
#247 = ORIENTED_EDGE( '', *, *, #335, .T. );
#248 = ORIENTED_EDGE( '', *, *, #330, .F. );
#249 = CARTESIAN_POINT( '', ( 0.000000000000000, 0.000000000000000, 14.0000000000000 ) );
#250 = DIRECTION( '', ( 0.000000000000000, 0.000000000000000, 1.00000000000000 ) );
#251 = DIRECTION( '', ( 1.00000000000000, 0.000000000000000, 0.000000000000000 ) );
#252 = SURFACE_STYLE_FILL_AREA( #336 );
#253 = ORIENTED_EDGE( '', *, *, #337, .F. );
#254 = ORIENTED_EDGE( '', *, *, #308, .F. );
#255 = CARTESIAN_POINT( '', ( 0.000000000000000, 0.000000000000000, 2.00000000000000 ) );
#256 = DIRECTION( '', ( 0.000000000000000, 0.000000000000000, 1.00000000000000 ) );
#257 = DIRECTION( '', ( 1.00000000000000, 0.000000000000000, 0.000000000000000 ) );
#258 = SURFACE_STYLE_FILL_AREA( #338 );
#259 = ORIENTED_EDGE( '', *, *, #329, .F. );
#260 = ORIENTED_EDGE( '', *, *, #311, .F. );
#261 = CARTESIAN_POINT( '', ( 2.34736656052699E-017, 4.87212438141176E-017, 31.0000000000000 ) );
#262 = DIRECTION( '', ( -0.000000000000000, 0.000000000000000, -1.00000000000000 ) );
#263 = DIRECTION( '', ( -1.00000000000000, 0.000000000000000, 0.000000000000000 ) );
#264 = SURFACE_STYLE_FILL_AREA( #339 );
#265 = ORIENTED_EDGE( '', *, *, #337, .T. );
#266 = CARTESIAN_POINT( '', ( 1.15681633248879E-015, 0.000000000000000, 0.000000000000000 ) );
#267 = DIRECTION( '', ( 0.000000000000000, 0.000000000000000, 1.00000000000000 ) );
#268 = DIRECTION( '', ( 1.00000000000000, 0.000000000000000, 0.000000000000000 ) );
#269 = SURFACE_STYLE_FILL_AREA( #340 );
#270 = ORIENTED_EDGE( '', *, *, #315, .T. );
#271 = ORIENTED_EDGE( '', *, *, #341, .F. );
#272 = ORIENTED_EDGE( '', *, *, #335, .F. );
#273 = ORIENTED_EDGE( '', *, *, #325, .T. );
#274 = CARTESIAN_POINT( '', ( 9.81495457622366, 1.98776211235471E-014, 14.0000000000000 ) );
#275 = DIRECTION( '', ( -0.866025403784438, -0.500000000000000, 0.000000000000000 ) );
#276 = DIRECTION( '', ( 0.500000000000000, -0.866025403784438, 0.000000000000000 ) );
#277 = SURFACE_STYLE_FILL_AREA( #342 );
#278 = ORIENTED_EDGE( '', *, *, #317, .T. );
#279 = ORIENTED_EDGE( '', *, *, #327, .F. );
#280 = ORIENTED_EDGE( '', *, *, #334, .F. );
#281 = ORIENTED_EDGE( '', *, *, #343, .T. );
#282 = CARTESIAN_POINT( '', ( -4.90747728811183, -8.50000000000000, 14.0000000000000 ) );
#283 = DIRECTION( '', ( 1.23720025778354E-015, 1.00000000000000, 0.000000000000000 ) );
#284 = DIRECTION( '', ( -1.00000000000000, 1.23720025778354E-015, 0.000000000000000 ) );
#285 = SURFACE_STYLE_FILL_AREA( #344 );
#286 = ORIENTED_EDGE( '', *, *, #309, .F. );
#287 = ORIENTED_EDGE( '', *, *, #313, .F. );
#288 = CARTESIAN_POINT( '', ( 0.000000000000000, 0.000000000000000, 7.00000000000000 ) );
#289 = DIRECTION( '', ( 0.000000000000000, 0.000000000000000, -1.00000000000000 ) );
#290 = DIRECTION( '', ( -1.00000000000000, 0.000000000000000, 0.000000000000000 ) );
#291 = SURFACE_STYLE_FILL_AREA( #345 );
#292 = ORIENTED_EDGE( '', *, *, #318, .T. );
#293 = ORIENTED_EDGE( '', *, *, #343, .F. );
#294 = ORIENTED_EDGE( '', *, *, #333, .F. );
#295 = ORIENTED_EDGE( '', *, *, #321, .T. );
#296 = CARTESIAN_POINT( '', ( -9.81495457622365, 2.10796063941020E-014, 14.0000000000000 ) );
#297 = DIRECTION( '', ( 0.866025403784439, 0.500000000000000, 0.000000000000000 ) );
#298 = DIRECTION( '', ( -0.500000000000000, 0.866025403784439, 0.000000000000000 ) );
#299 = SURFACE_STYLE_FILL_AREA( #346 );
#300 = ORIENTED_EDGE( '', *, *, #314, .T. );
#301 = ORIENTED_EDGE( '', *, *, #323, .F. );
#302 = ORIENTED_EDGE( '', *, *, #332, .F. );
#303 = ORIENTED_EDGE( '', *, *, #341, .T. );
#304 = CARTESIAN_POINT( '', ( 4.90747728811183, 8.50000000000000, 14.0000000000000 ) );
#305 = DIRECTION( '', ( 0.000000000000000, -1.00000000000000, 0.000000000000000 ) );
#306 = DIRECTION( '', ( 0.000000000000000, 0.000000000000000, -1.00000000000000 ) );
#307 = FILL_AREA_STYLE( '', ( #347 ) );
#308 = EDGE_CURVE( '', #348, #348, #349, .T. );
#309 = EDGE_CURVE( '', #350, #350, #351, .T. );
#310 = FILL_AREA_STYLE( '', ( #352 ) );
#311 = EDGE_CURVE( '', #353, #353, #354, .T. );
#312 = FILL_AREA_STYLE( '', ( #355 ) );
#313 = EDGE_CURVE( '', #356, #356, #357, .F. );
#314 = EDGE_CURVE( '', #358, #359, #360, .T. );
#315 = EDGE_CURVE( '', #361, #358, #362, .T. );
#316 = EDGE_CURVE( '', #363, #361, #364, .T. );
#317 = EDGE_CURVE( '', #365, #363, #366, .T. );
#318 = EDGE_CURVE( '', #367, #365, #368, .T. );
#319 = EDGE_CURVE( '', #359, #367, #369, .T. );
#320 = FILL_AREA_STYLE( '', ( #370 ) );
#321 = EDGE_CURVE( '', #371, #367, #372, .T. );
#322 = EDGE_CURVE( '', #373, #371, #374, .T. );
#323 = EDGE_CURVE( '', #373, #359, #375, .T. );
#324 = FILL_AREA_STYLE( '', ( #376 ) );
#325 = EDGE_CURVE( '', #377, #361, #378, .T. );
#326 = EDGE_CURVE( '', #379, #377, #380, .T. );
#327 = EDGE_CURVE( '', #379, #363, #381, .T. );
#328 = FILL_AREA_STYLE( '', ( #382 ) );
#329 = EDGE_CURVE( '', #383, #383, #384, .F. );
#330 = EDGE_CURVE( '', #385, #385, #386, .T. );
#331 = FILL_AREA_STYLE( '', ( #387 ) );
#332 = EDGE_CURVE( '', #388, #373, #389, .T. );
#333 = EDGE_CURVE( '', #371, #390, #391, .T. );
#334 = EDGE_CURVE( '', #390, #379, #392, .T. );
#335 = EDGE_CURVE( '', #377, #388, #393, .T. );
#336 = FILL_AREA_STYLE( '', ( #394 ) );
#337 = EDGE_CURVE( '', #395, #395, #396, .F. );
#338 = FILL_AREA_STYLE( '', ( #397 ) );
#339 = FILL_AREA_STYLE( '', ( #398 ) );
#340 = FILL_AREA_STYLE( '', ( #399 ) );
#341 = EDGE_CURVE( '', #388, #358, #400, .T. );
#342 = FILL_AREA_STYLE( '', ( #401 ) );
#343 = EDGE_CURVE( '', #390, #365, #402, .T. );
#344 = FILL_AREA_STYLE( '', ( #403 ) );
#345 = FILL_AREA_STYLE( '', ( #404 ) );
#346 = FILL_AREA_STYLE( '', ( #405 ) );
#347 = FILL_AREA_STYLE_COLOUR( '', #406 );
#348 = VERTEX_POINT( '', #407 );
#349 = CIRCLE( '', #408, 20.0000000000000 );
#350 = VERTEX_POINT( '', #409 );
#351 = CIRCLE( '', #410, 20.0000000000000 );
#352 = FILL_AREA_STYLE_COLOUR( '', #411 );
#353 = VERTEX_POINT( '', #412 );
#354 = CIRCLE( '', #413, 3.00000000000000 );
#355 = FILL_AREA_STYLE_COLOUR( '', #414 );
#356 = VERTEX_POINT( '', #415 );
#357 = CIRCLE( '', #416, 18.0000000000000 );
#358 = VERTEX_POINT( '', #417 );
#359 = VERTEX_POINT( '', #418 );
#360 = LINE( '', #419, #420 );
#361 = VERTEX_POINT( '', #421 );
#362 = LINE( '', #422, #423 );
#363 = VERTEX_POINT( '', #424 );
#364 = LINE( '', #425, #426 );
#365 = VERTEX_POINT( '', #427 );
#366 = LINE( '', #428, #429 );
#367 = VERTEX_POINT( '', #430 );
#368 = LINE( '', #431, #432 );
#369 = LINE( '', #433, #434 );
#370 = FILL_AREA_STYLE_COLOUR( '', #435 );
#371 = VERTEX_POINT( '', #436 );
#372 = LINE( '', #437, #438 );
#373 = VERTEX_POINT( '', #439 );
#374 = LINE( '', #440, #441 );
#375 = LINE( '', #442, #443 );
#376 = FILL_AREA_STYLE_COLOUR( '', #444 );
#377 = VERTEX_POINT( '', #445 );
#378 = LINE( '', #446, #447 );
#379 = VERTEX_POINT( '', #448 );
#380 = LINE( '', #449, #450 );
#381 = LINE( '', #451, #452 );
#382 = FILL_AREA_STYLE_COLOUR( '', #453 );
#383 = VERTEX_POINT( '', #454 );
#384 = CIRCLE( '', #455, 4.00000000000000 );
#385 = VERTEX_POINT( '', #456 );
#386 = CIRCLE( '', #457, 4.00000000000000 );
#387 = FILL_AREA_STYLE_COLOUR( '', #458 );
#388 = VERTEX_POINT( '', #459 );
#389 = LINE( '', #460, #461 );
#390 = VERTEX_POINT( '', #462 );
#391 = LINE( '', #463, #464 );
#392 = LINE( '', #465, #466 );
#393 = LINE( '', #467, #468 );
#394 = FILL_AREA_STYLE_COLOUR( '', #469 );
#395 = VERTEX_POINT( '', #470 );
#396 = CIRCLE( '', #471, 18.0000000000000 );
#397 = FILL_AREA_STYLE_COLOUR( '', #472 );
#398 = FILL_AREA_STYLE_COLOUR( '', #473 );
#399 = FILL_AREA_STYLE_COLOUR( '', #474 );
#400 = LINE( '', #475, #476 );
#401 = FILL_AREA_STYLE_COLOUR( '', #477 );
#402 = LINE( '', #478, #479 );
#403 = FILL_AREA_STYLE_COLOUR( '', #480 );
#404 = FILL_AREA_STYLE_COLOUR( '', #481 );
#405 = FILL_AREA_STYLE_COLOUR( '', #482 );
#406 = COLOUR_RGB( '', 0.200000002980232, 0.200000002980232, 0.200000002980232 );
#407 = CARTESIAN_POINT( '', ( 20.0000000000000, 0.000000000000000, 2.00000000000000 ) );
#408 = AXIS2_PLACEMENT_3D( '', #483, #484, #485 );
#409 = CARTESIAN_POINT( '', ( -20.0000000000000, 0.000000000000000, 7.00000000000000 ) );
#410 = AXIS2_PLACEMENT_3D( '', #486, #487, #488 );
#411 = COLOUR_RGB( '', 0.200000002980232, 0.200000002980232, 0.200000002980232 );
#412 = CARTESIAN_POINT( '', ( 3.00000000000000, 4.87212438141176E-017, 31.0000000000000 ) );
#413 = AXIS2_PLACEMENT_3D( '', #489, #490, #491 );
#414 = COLOUR_RGB( '', 0.200000002980232, 0.200000002980232, 0.200000002980232 );
#415 = CARTESIAN_POINT( '', ( -18.0000000000000, 0.000000000000000, 9.00000000000000 ) );
#416 = AXIS2_PLACEMENT_3D( '', #492, #493, #494 );
#417 = CARTESIAN_POINT( '', ( 4.90747728811183, 8.50000000000000, 9.00000000000000 ) );
#418 = CARTESIAN_POINT( '', ( -4.90747728811182, 8.50000000000000, 9.00000000000000 ) );
#419 = CARTESIAN_POINT( '', ( 4.90747728811183, 8.50000000000000, 9.00000000000000 ) );
#420 = VECTOR( '', #495, 1000.00000000000 );
#421 = CARTESIAN_POINT( '', ( 9.81495457622366, 1.99493199737333E-014, 9.00000000000000 ) );
#422 = CARTESIAN_POINT( '', ( 9.81495457622366, 1.98776211235471E-014, 9.00000000000000 ) );
#423 = VECTOR( '', #496, 999.999999999999 );
#424 = CARTESIAN_POINT( '', ( 4.90747728811183, -8.50000000000000, 9.00000000000000 ) );
#425 = CARTESIAN_POINT( '', ( 4.90747728811183, -8.50000000000000, 9.00000000000000 ) );
#426 = VECTOR( '', #497, 1000.00000000000 );
#427 = CARTESIAN_POINT( '', ( -4.90747728811182, -8.50000000000000, 9.00000000000000 ) );
#428 = CARTESIAN_POINT( '', ( -4.90747728811183, -8.50000000000000, 9.00000000000000 ) );
#429 = VECTOR( '', #498, 1000.00000000000 );
#430 = CARTESIAN_POINT( '', ( -9.81495457622365, 2.08166817117217E-014, 9.00000000000000 ) );
#431 = CARTESIAN_POINT( '', ( -9.81495457622365, 2.10796063941020E-014, 9.00000000000000 ) );
#432 = VECTOR( '', #499, 1000.00000000000 );
#433 = CARTESIAN_POINT( '', ( -4.90747728811182, 8.50000000000000, 9.00000000000000 ) );
#434 = VECTOR( '', #500, 999.999999999999 );
#435 = COLOUR_RGB( '', 0.200000002980232, 0.200000002980232, 0.200000002980232 );
#436 = CARTESIAN_POINT( '', ( -9.81495457622365, 2.08166817117217E-014, 14.0000000000000 ) );
#437 = CARTESIAN_POINT( '', ( -9.81495457622365, 2.08166817117217E-014, 14.0000000000000 ) );
#438 = VECTOR( '', #501, 1000.00000000000 );
#439 = CARTESIAN_POINT( '', ( -4.90747728811182, 8.50000000000000, 14.0000000000000 ) );
#440 = CARTESIAN_POINT( '', ( -4.90747728811182, 8.50000000000000, 14.0000000000000 ) );
#441 = VECTOR( '', #502, 999.999999999999 );
#442 = CARTESIAN_POINT( '', ( -4.90747728811182, 8.50000000000000, 14.0000000000000 ) );
#443 = VECTOR( '', #503, 1000.00000000000 );
#444 = COLOUR_RGB( '', 0.200000002980232, 0.200000002980232, 0.200000002980232 );
#445 = CARTESIAN_POINT( '', ( 9.81495457622366, 1.90819582357449E-014, 14.0000000000000 ) );
#446 = CARTESIAN_POINT( '', ( 9.81495457622366, 1.90819582357449E-014, 14.0000000000000 ) );
#447 = VECTOR( '', #504, 1000.00000000000 );
#448 = CARTESIAN_POINT( '', ( 4.90747728811183, -8.50000000000000, 14.0000000000000 ) );
#449 = CARTESIAN_POINT( '', ( 4.90747728811183, -8.50000000000000, 14.0000000000000 ) );
#450 = VECTOR( '', #505, 1000.00000000000 );
#451 = CARTESIAN_POINT( '', ( 4.90747728811183, -8.50000000000000, 14.0000000000000 ) );
#452 = VECTOR( '', #506, 1000.00000000000 );
#453 = COLOUR_RGB( '', 0.752941191196442, 0.752941191196442, 0.752941191196442 );
#454 = CARTESIAN_POINT( '', ( 4.00000000000000, 4.87212438141176E-017, 30.0000000000000 ) );
#455 = AXIS2_PLACEMENT_3D( '', #507, #508, #509 );
#456 = CARTESIAN_POINT( '', ( 2.00000000000000, 3.46410161513776, 14.0000000000000 ) );
#457 = AXIS2_PLACEMENT_3D( '', #510, #511, #512 );
#458 = COLOUR_RGB( '', 0.200000002980232, 0.200000002980232, 0.200000002980232 );
#459 = CARTESIAN_POINT( '', ( 4.90747728811183, 8.50000000000000, 14.0000000000000 ) );
#460 = CARTESIAN_POINT( '', ( 4.90747728811183, 8.50000000000000, 14.0000000000000 ) );
#461 = VECTOR( '', #513, 1000.00000000000 );
#462 = CARTESIAN_POINT( '', ( -4.90747728811183, -8.50000000000000, 14.0000000000000 ) );
#463 = CARTESIAN_POINT( '', ( -9.81495457622365, 2.10796063941020E-014, 14.0000000000000 ) );
#464 = VECTOR( '', #514, 1000.00000000000 );
#465 = CARTESIAN_POINT( '', ( -4.90747728811183, -8.50000000000000, 14.0000000000000 ) );
#466 = VECTOR( '', #515, 1000.00000000000 );
#467 = CARTESIAN_POINT( '', ( 9.81495457622366, 1.98776211235471E-014, 14.0000000000000 ) );
#468 = VECTOR( '', #516, 999.999999999999 );
#469 = COLOUR_RGB( '', 0.200000002980232, 0.200000002980232, 0.200000002980232 );
#470 = CARTESIAN_POINT( '', ( 18.0000000000000, 0.000000000000000, 0.000000000000000 ) );
#471 = AXIS2_PLACEMENT_3D( '', #517, #518, #519 );
#472 = COLOUR_RGB( '', 0.200000002980232, 0.200000002980232, 0.200000002980232 );
#473 = COLOUR_RGB( '', 0.200000002980232, 0.200000002980232, 0.200000002980232 );
#474 = COLOUR_RGB( '', 0.200000002980232, 0.200000002980232, 0.200000002980232 );
#475 = CARTESIAN_POINT( '', ( 4.90747728811183, 8.50000000000000, 14.0000000000000 ) );
#476 = VECTOR( '', #520, 1000.00000000000 );
#477 = COLOUR_RGB( '', 0.200000002980232, 0.200000002980232, 0.200000002980232 );
#478 = CARTESIAN_POINT( '', ( -4.90747728811183, -8.50000000000000, 14.0000000000000 ) );
#479 = VECTOR( '', #521, 1000.00000000000 );
#480 = COLOUR_RGB( '', 0.200000002980232, 0.200000002980232, 0.200000002980232 );
#481 = COLOUR_RGB( '', 0.200000002980232, 0.200000002980232, 0.200000002980232 );
#482 = COLOUR_RGB( '', 0.200000002980232, 0.200000002980232, 0.200000002980232 );
#483 = CARTESIAN_POINT( '', ( 0.000000000000000, 0.000000000000000, 2.00000000000000 ) );
#484 = DIRECTION( '', ( 0.000000000000000, 0.000000000000000, 1.00000000000000 ) );
#485 = DIRECTION( '', ( 1.00000000000000, 0.000000000000000, 0.000000000000000 ) );
#486 = CARTESIAN_POINT( '', ( 0.000000000000000, 0.000000000000000, 7.00000000000000 ) );
#487 = DIRECTION( '', ( 0.000000000000000, 0.000000000000000, -1.00000000000000 ) );
#488 = DIRECTION( '', ( -1.00000000000000, 0.000000000000000, 0.000000000000000 ) );
#489 = CARTESIAN_POINT( '', ( 2.34736656052699E-017, 4.87212438141176E-017, 31.0000000000000 ) );
#490 = DIRECTION( '', ( 0.000000000000000, 0.000000000000000, 1.00000000000000 ) );
#491 = DIRECTION( '', ( 1.00000000000000, 0.000000000000000, 0.000000000000000 ) );
#492 = CARTESIAN_POINT( '', ( 0.000000000000000, 0.000000000000000, 9.00000000000000 ) );
#493 = DIRECTION( '', ( 0.000000000000000, 0.000000000000000, -1.00000000000000 ) );
#494 = DIRECTION( '', ( -1.00000000000000, 0.000000000000000, 0.000000000000000 ) );
#495 = DIRECTION( '', ( -1.00000000000000, 0.000000000000000, 0.000000000000000 ) );
#496 = DIRECTION( '', ( -0.500000000000000, 0.866025403784438, 0.000000000000000 ) );
#497 = DIRECTION( '', ( 0.500000000000000, 0.866025403784439, 0.000000000000000 ) );
#498 = DIRECTION( '', ( 1.00000000000000, -1.23720025778354E-015, 0.000000000000000 ) );
#499 = DIRECTION( '', ( 0.500000000000000, -0.866025403784439, 0.000000000000000 ) );
#500 = DIRECTION( '', ( -0.500000000000000, -0.866025403784438, 0.000000000000000 ) );
#501 = DIRECTION( '', ( 0.000000000000000, 0.000000000000000, -1.00000000000000 ) );
#502 = DIRECTION( '', ( -0.500000000000000, -0.866025403784438, 0.000000000000000 ) );
#503 = DIRECTION( '', ( 0.000000000000000, 0.000000000000000, -1.00000000000000 ) );
#504 = DIRECTION( '', ( 0.000000000000000, 0.000000000000000, -1.00000000000000 ) );
#505 = DIRECTION( '', ( 0.500000000000000, 0.866025403784439, 0.000000000000000 ) );
#506 = DIRECTION( '', ( 0.000000000000000, 0.000000000000000, -1.00000000000000 ) );
#507 = CARTESIAN_POINT( '', ( 2.34736656052699E-017, 4.87212438141176E-017, 30.0000000000000 ) );
#508 = DIRECTION( '', ( 0.000000000000000, 0.000000000000000, 1.00000000000000 ) );
#509 = DIRECTION( '', ( 1.00000000000000, 0.000000000000000, 0.000000000000000 ) );
#510 = CARTESIAN_POINT( '', ( 2.34736656052699E-017, 4.87212438141176E-017, 14.0000000000000 ) );
#511 = DIRECTION( '', ( 0.000000000000000, -0.000000000000000, 1.00000000000000 ) );
#512 = DIRECTION( '', ( 0.500000000000000, 0.866025403784439, 0.000000000000000 ) );
#513 = DIRECTION( '', ( -1.00000000000000, 0.000000000000000, 0.000000000000000 ) );
#514 = DIRECTION( '', ( 0.500000000000000, -0.866025403784439, 0.000000000000000 ) );
#515 = DIRECTION( '', ( 1.00000000000000, -1.23720025778354E-015, 0.000000000000000 ) );
#516 = DIRECTION( '', ( -0.500000000000000, 0.866025403784438, 0.000000000000000 ) );
#517 = CARTESIAN_POINT( '', ( 0.000000000000000, 0.000000000000000, 0.000000000000000 ) );
#518 = DIRECTION( '', ( 0.000000000000000, 0.000000000000000, 1.00000000000000 ) );
#519 = DIRECTION( '', ( 1.00000000000000, 0.000000000000000, 0.000000000000000 ) );
#520 = DIRECTION( '', ( 0.000000000000000, 0.000000000000000, -1.00000000000000 ) );
#521 = DIRECTION( '', ( 0.000000000000000, 0.000000000000000, -1.00000000000000 ) );
ENDSEC;
END-ISO-10303-21;
