ISO-10303-21;
HEADER;
FILE_DESCRIPTION( ( 'Unknown' ), '1' );
FILE_NAME( '//SBS2003/HD_Usb/Disegni/08_LIB/Users_3D/PROD_GAMM_3D/PRMES/7322011.stp', 'Unknown', ( 'Unknown' ), ( 'Unknown' ), 'PSStep 14.0', 'Unknown', '  ' );
FILE_SCHEMA( ( 'AUTOMOTIVE_DESIGN { 1 0 10303 214 1 1 1 1 }' ) );
ENDSEC;
DATA;
#1 = MECHANICAL_DESIGN_GEOMETRIC_PRESENTATION_REPRESENTATION( ' ', ( #10, #11, #12, #13, #14, #15, #16, #17, #18, #19, #20, #21, #22, #23, #24 ), #6 );
#2 = PRODUCT_DEFINITION_CONTEXT( '', #25, 'design' );
#3 = APPLICATION_PROTOCOL_DEFINITION( 'international standard', 'automotive_design', 2001, #25 );
#4 = PRODUCT_CATEGORY_RELATIONSHIP( 'NONE', 'NONE', #26, #27 );
#5 = SHAPE_DEFINITION_REPRESENTATION( #28, #29 );
#6 =  ( GEOMETRIC_REPRESENTATION_CONTEXT( 3 )GLOBAL_UNCERTAINTY_ASSIGNED_CONTEXT( ( #32 ) )GLOBAL_UNIT_ASSIGNED_CONTEXT( ( #34, #35, #36 ) )REPRESENTATION_CONTEXT( 'NONE', 'WORKSPACE' ) );
#10 = STYLED_ITEM( '', ( #38 ), #39 );
#11 = STYLED_ITEM( '', ( #40 ), #41 );
#12 = STYLED_ITEM( '', ( #42 ), #43 );
#13 = STYLED_ITEM( '', ( #44 ), #45 );
#14 = STYLED_ITEM( '', ( #46 ), #47 );
#15 = STYLED_ITEM( '', ( #48 ), #49 );
#16 = STYLED_ITEM( '', ( #50 ), #51 );
#17 = STYLED_ITEM( '', ( #52 ), #53 );
#18 = STYLED_ITEM( '', ( #54 ), #55 );
#19 = STYLED_ITEM( '', ( #56 ), #57 );
#20 = STYLED_ITEM( '', ( #58 ), #59 );
#21 = STYLED_ITEM( '', ( #60 ), #61 );
#22 = STYLED_ITEM( '', ( #62 ), #63 );
#23 = STYLED_ITEM( '', ( #64 ), #65 );
#24 = STYLED_ITEM( '', ( #66 ), #67 );
#25 = APPLICATION_CONTEXT( 'core data for automotive mechanical design processes' );
#26 = PRODUCT_CATEGORY( 'part', 'NONE' );
#27 = PRODUCT_RELATED_PRODUCT_CATEGORY( 'detail', ' ', ( #68 ) );
#28 = PRODUCT_DEFINITION_SHAPE( 'NONE', 'NONE', #69 );
#29 = ADVANCED_BREP_SHAPE_REPRESENTATION( '1', ( #70, #71 ), #6 );
#32 = UNCERTAINTY_MEASURE_WITH_UNIT( LENGTH_MEASURE( 0.00100000000000000 ), #34, '', '' );
#34 =  ( CONVERSION_BASED_UNIT( 'MILLIMETRE', #74 )LENGTH_UNIT(  )NAMED_UNIT( #77 ) );
#35 =  ( NAMED_UNIT( #79 )PLANE_ANGLE_UNIT(  )SI_UNIT( $, .RADIAN. ) );
#36 =  ( NAMED_UNIT( #79 )SI_UNIT( $, .STERADIAN. )SOLID_ANGLE_UNIT(  ) );
#38 = PRESENTATION_STYLE_ASSIGNMENT( ( #85 ) );
#39 = ADVANCED_FACE( '', ( #86 ), #87, .F. );
#40 = PRESENTATION_STYLE_ASSIGNMENT( ( #88 ) );
#41 = ADVANCED_FACE( '', ( #89 ), #90, .F. );
#42 = PRESENTATION_STYLE_ASSIGNMENT( ( #91 ) );
#43 = ADVANCED_FACE( '', ( #92 ), #93, .F. );
#44 = PRESENTATION_STYLE_ASSIGNMENT( ( #94 ) );
#45 = ADVANCED_FACE( '', ( #95 ), #96, .F. );
#46 = PRESENTATION_STYLE_ASSIGNMENT( ( #97 ) );
#47 = ADVANCED_FACE( '', ( #98 ), #99, .F. );
#48 = PRESENTATION_STYLE_ASSIGNMENT( ( #100 ) );
#49 = ADVANCED_FACE( '', ( #101 ), #102, .F. );
#50 = PRESENTATION_STYLE_ASSIGNMENT( ( #103 ) );
#51 = ADVANCED_FACE( '', ( #104 ), #105, .T. );
#52 = PRESENTATION_STYLE_ASSIGNMENT( ( #106 ) );
#53 = ADVANCED_FACE( '', ( #107 ), #108, .F. );
#54 = PRESENTATION_STYLE_ASSIGNMENT( ( #109 ) );
#55 = ADVANCED_FACE( '', ( #110, #111 ), #112, .T. );
#56 = PRESENTATION_STYLE_ASSIGNMENT( ( #113 ) );
#57 = ADVANCED_FACE( '', ( #114, #115 ), #116, .T. );
#58 = PRESENTATION_STYLE_ASSIGNMENT( ( #117 ) );
#59 = ADVANCED_FACE( '', ( #118, #119 ), #120, .T. );
#60 = PRESENTATION_STYLE_ASSIGNMENT( ( #121 ) );
#61 = ADVANCED_FACE( '', ( #122, #123 ), #124, .T. );
#62 = PRESENTATION_STYLE_ASSIGNMENT( ( #125 ) );
#63 = ADVANCED_FACE( '', ( #126, #127 ), #128, .T. );
#64 = PRESENTATION_STYLE_ASSIGNMENT( ( #129 ) );
#65 = ADVANCED_FACE( '', ( #130, #131 ), #132, .F. );
#66 = PRESENTATION_STYLE_ASSIGNMENT( ( #133 ) );
#67 = ADVANCED_FACE( '', ( #134, #135 ), #136, .T. );
#68 = PRODUCT( '1', '1', 'PART-1-DESC', ( #137 ) );
#69 = PRODUCT_DEFINITION( 'NONE', 'NONE', #138, #2 );
#70 = MANIFOLD_SOLID_BREP( '1', #139 );
#71 = AXIS2_PLACEMENT_3D( '', #140, #141, #142 );
#74 = LENGTH_MEASURE_WITH_UNIT( LENGTH_MEASURE( 1.00000000000000 ), #143 );
#77 = DIMENSIONAL_EXPONENTS( 1.00000000000000, 0.000000000000000, 0.000000000000000, 0.000000000000000, 0.000000000000000, 0.000000000000000, 0.000000000000000 );
#79 = DIMENSIONAL_EXPONENTS( 0.000000000000000, 0.000000000000000, 0.000000000000000, 0.000000000000000, 0.000000000000000, 0.000000000000000, 0.000000000000000 );
#85 = SURFACE_STYLE_USAGE( .BOTH., #144 );
#86 = FACE_OUTER_BOUND( '', #145, .T. );
#87 = PLANE( '', #146 );
#88 = SURFACE_STYLE_USAGE( .BOTH., #147 );
#89 = FACE_OUTER_BOUND( '', #148, .T. );
#90 = PLANE( '', #149 );
#91 = SURFACE_STYLE_USAGE( .BOTH., #150 );
#92 = FACE_OUTER_BOUND( '', #151, .T. );
#93 = PLANE( '', #152 );
#94 = SURFACE_STYLE_USAGE( .BOTH., #153 );
#95 = FACE_OUTER_BOUND( '', #154, .T. );
#96 = PLANE( '', #155 );
#97 = SURFACE_STYLE_USAGE( .BOTH., #156 );
#98 = FACE_OUTER_BOUND( '', #157, .T. );
#99 = PLANE( '', #158 );
#100 = SURFACE_STYLE_USAGE( .BOTH., #159 );
#101 = FACE_OUTER_BOUND( '', #160, .T. );
#102 = PLANE( '', #161 );
#103 = SURFACE_STYLE_USAGE( .BOTH., #162 );
#104 = FACE_OUTER_BOUND( '', #163, .T. );
#105 = PLANE( '', #164 );
#106 = SURFACE_STYLE_USAGE( .BOTH., #165 );
#107 = FACE_OUTER_BOUND( '', #166, .T. );
#108 = PLANE( '', #167 );
#109 = SURFACE_STYLE_USAGE( .BOTH., #168 );
#110 = FACE_OUTER_BOUND( '', #169, .T. );
#111 = FACE_OUTER_BOUND( '', #170, .T. );
#112 = TOROIDAL_SURFACE( '', #171, 18.0000000000000, 2.00000000000000 );
#113 = SURFACE_STYLE_USAGE( .BOTH., #172 );
#114 = FACE_OUTER_BOUND( '', #173, .T. );
#115 = FACE_BOUND( '', #174, .T. );
#116 = PLANE( '', #175 );
#117 = SURFACE_STYLE_USAGE( .BOTH., #176 );
#118 = FACE_OUTER_BOUND( '', #177, .T. );
#119 = FACE_OUTER_BOUND( '', #178, .T. );
#120 = CYLINDRICAL_SURFACE( '', #179, 20.0000000000000 );
#121 = SURFACE_STYLE_USAGE( .BOTH., #180 );
#122 = FACE_OUTER_BOUND( '', #181, .T. );
#123 = FACE_OUTER_BOUND( '', #182, .T. );
#124 = CYLINDRICAL_SURFACE( '', #183, 4.00000000000000 );
#125 = SURFACE_STYLE_USAGE( .BOTH., #184 );
#126 = FACE_OUTER_BOUND( '', #185, .T. );
#127 = FACE_BOUND( '', #186, .T. );
#128 = CONICAL_SURFACE( '', #187, 3.00000000000000, 0.785398163397448 );
#129 = SURFACE_STYLE_USAGE( .BOTH., #188 );
#130 = FACE_OUTER_BOUND( '', #189, .T. );
#131 = FACE_BOUND( '', #190, .T. );
#132 = PLANE( '', #191 );
#133 = SURFACE_STYLE_USAGE( .BOTH., #192 );
#134 = FACE_OUTER_BOUND( '', #193, .T. );
#135 = FACE_OUTER_BOUND( '', #194, .T. );
#136 = TOROIDAL_SURFACE( '', #195, 18.0000000000000, 2.00000000000000 );
#137 = PRODUCT_CONTEXT( '', #25, 'mechanical' );
#138 = PRODUCT_DEFINITION_FORMATION_WITH_SPECIFIED_SOURCE( ' ', 'NONE', #68, .NOT_KNOWN. );
#139 = CLOSED_SHELL( '', ( #57, #55, #41, #53, #59, #67, #63, #65, #47, #61, #49, #45, #39, #43, #51 ) );
#140 = CARTESIAN_POINT( '', ( 0.000000000000000, 0.000000000000000, 0.000000000000000 ) );
#141 = DIRECTION( '', ( 0.000000000000000, 0.000000000000000, 1.00000000000000 ) );
#142 = DIRECTION( '', ( 1.00000000000000, 0.000000000000000, 0.000000000000000 ) );
#143 =  ( LENGTH_UNIT(  )NAMED_UNIT( #77 )SI_UNIT( .MILLI., .METRE. ) );
#144 = SURFACE_SIDE_STYLE( '', ( #197 ) );
#145 = EDGE_LOOP( '', ( #198, #199, #200, #201 ) );
#146 = AXIS2_PLACEMENT_3D( '', #202, #203, #204 );
#147 = SURFACE_SIDE_STYLE( '', ( #205 ) );
#148 = EDGE_LOOP( '', ( #206, #207, #208, #209 ) );
#149 = AXIS2_PLACEMENT_3D( '', #210, #211, #212 );
#150 = SURFACE_SIDE_STYLE( '', ( #213 ) );
#151 = EDGE_LOOP( '', ( #214, #215, #216, #217 ) );
#152 = AXIS2_PLACEMENT_3D( '', #218, #219, #220 );
#153 = SURFACE_SIDE_STYLE( '', ( #221 ) );
#154 = EDGE_LOOP( '', ( #222, #223, #224, #225 ) );
#155 = AXIS2_PLACEMENT_3D( '', #226, #227, #228 );
#156 = SURFACE_SIDE_STYLE( '', ( #229 ) );
#157 = EDGE_LOOP( '', ( #230 ) );
#158 = AXIS2_PLACEMENT_3D( '', #231, #232, #233 );
#159 = SURFACE_SIDE_STYLE( '', ( #234 ) );
#160 = EDGE_LOOP( '', ( #235, #236, #237, #238 ) );
#161 = AXIS2_PLACEMENT_3D( '', #239, #240, #241 );
#162 = SURFACE_SIDE_STYLE( '', ( #242 ) );
#163 = EDGE_LOOP( '', ( #243 ) );
#164 = AXIS2_PLACEMENT_3D( '', #244, #245, #246 );
#165 = SURFACE_SIDE_STYLE( '', ( #247 ) );
#166 = EDGE_LOOP( '', ( #248, #249, #250, #251 ) );
#167 = AXIS2_PLACEMENT_3D( '', #252, #253, #254 );
#168 = SURFACE_SIDE_STYLE( '', ( #255 ) );
#169 = EDGE_LOOP( '', ( #256 ) );
#170 = EDGE_LOOP( '', ( #257 ) );
#171 = AXIS2_PLACEMENT_3D( '', #258, #259, #260 );
#172 = SURFACE_SIDE_STYLE( '', ( #261 ) );
#173 = EDGE_LOOP( '', ( #262, #263, #264, #265, #266, #267 ) );
#174 = EDGE_LOOP( '', ( #268 ) );
#175 = AXIS2_PLACEMENT_3D( '', #269, #270, #271 );
#176 = SURFACE_SIDE_STYLE( '', ( #272 ) );
#177 = EDGE_LOOP( '', ( #273 ) );
#178 = EDGE_LOOP( '', ( #274 ) );
#179 = AXIS2_PLACEMENT_3D( '', #275, #276, #277 );
#180 = SURFACE_SIDE_STYLE( '', ( #278 ) );
#181 = EDGE_LOOP( '', ( #279 ) );
#182 = EDGE_LOOP( '', ( #280 ) );
#183 = AXIS2_PLACEMENT_3D( '', #281, #282, #283 );
#184 = SURFACE_SIDE_STYLE( '', ( #284 ) );
#185 = EDGE_LOOP( '', ( #285 ) );
#186 = EDGE_LOOP( '', ( #286 ) );
#187 = AXIS2_PLACEMENT_3D( '', #287, #288, #289 );
#188 = SURFACE_SIDE_STYLE( '', ( #290 ) );
#189 = EDGE_LOOP( '', ( #291 ) );
#190 = EDGE_LOOP( '', ( #292, #293, #294, #295, #296, #297 ) );
#191 = AXIS2_PLACEMENT_3D( '', #298, #299, #300 );
#192 = SURFACE_SIDE_STYLE( '', ( #301 ) );
#193 = EDGE_LOOP( '', ( #302 ) );
#194 = EDGE_LOOP( '', ( #303 ) );
#195 = AXIS2_PLACEMENT_3D( '', #304, #305, #306 );
#197 = SURFACE_STYLE_FILL_AREA( #307 );
#198 = ORIENTED_EDGE( '', *, *, #308, .T. );
#199 = ORIENTED_EDGE( '', *, *, #309, .F. );
#200 = ORIENTED_EDGE( '', *, *, #310, .F. );
#201 = ORIENTED_EDGE( '', *, *, #311, .T. );
#202 = CARTESIAN_POINT( '', ( -4.90747728811183, -8.50000000000000, 14.0000000000000 ) );
#203 = DIRECTION( '', ( 1.23720025778354E-015, 1.00000000000000, 0.000000000000000 ) );
#204 = DIRECTION( '', ( -1.00000000000000, 1.23720025778354E-015, 0.000000000000000 ) );
#205 = SURFACE_STYLE_FILL_AREA( #312 );
#206 = ORIENTED_EDGE( '', *, *, #313, .T. );
#207 = ORIENTED_EDGE( '', *, *, #314, .F. );
#208 = ORIENTED_EDGE( '', *, *, #315, .F. );
#209 = ORIENTED_EDGE( '', *, *, #316, .T. );
#210 = CARTESIAN_POINT( '', ( -4.90747728811182, 8.50000000000000, 14.0000000000000 ) );
#211 = DIRECTION( '', ( 0.866025403784438, -0.500000000000000, 0.000000000000000 ) );
#212 = DIRECTION( '', ( 0.500000000000000, 0.866025403784438, 0.000000000000000 ) );
#213 = SURFACE_STYLE_FILL_AREA( #317 );
#214 = ORIENTED_EDGE( '', *, *, #318, .T. );
#215 = ORIENTED_EDGE( '', *, *, #311, .F. );
#216 = ORIENTED_EDGE( '', *, *, #319, .F. );
#217 = ORIENTED_EDGE( '', *, *, #314, .T. );
#218 = CARTESIAN_POINT( '', ( -9.81495457622365, 2.10796063941020E-014, 14.0000000000000 ) );
#219 = DIRECTION( '', ( 0.866025403784439, 0.500000000000000, 0.000000000000000 ) );
#220 = DIRECTION( '', ( -0.500000000000000, 0.866025403784439, 0.000000000000000 ) );
#221 = SURFACE_STYLE_FILL_AREA( #320 );
#222 = ORIENTED_EDGE( '', *, *, #321, .T. );
#223 = ORIENTED_EDGE( '', *, *, #322, .F. );
#224 = ORIENTED_EDGE( '', *, *, #323, .F. );
#225 = ORIENTED_EDGE( '', *, *, #309, .T. );
#226 = CARTESIAN_POINT( '', ( 4.90747728811183, -8.50000000000000, 14.0000000000000 ) );
#227 = DIRECTION( '', ( -0.866025403784439, 0.500000000000000, 0.000000000000000 ) );
#228 = DIRECTION( '', ( -0.500000000000000, -0.866025403784439, 0.000000000000000 ) );
#229 = SURFACE_STYLE_FILL_AREA( #324 );
#230 = ORIENTED_EDGE( '', *, *, #325, .T. );
#231 = CARTESIAN_POINT( '', ( 1.15681633248879E-015, 0.000000000000000, 0.000000000000000 ) );
#232 = DIRECTION( '', ( 0.000000000000000, 0.000000000000000, 1.00000000000000 ) );
#233 = DIRECTION( '', ( 1.00000000000000, 0.000000000000000, 0.000000000000000 ) );
#234 = SURFACE_STYLE_FILL_AREA( #326 );
#235 = ORIENTED_EDGE( '', *, *, #327, .T. );
#236 = ORIENTED_EDGE( '', *, *, #328, .F. );
#237 = ORIENTED_EDGE( '', *, *, #329, .F. );
#238 = ORIENTED_EDGE( '', *, *, #322, .T. );
#239 = CARTESIAN_POINT( '', ( 9.81495457622366, 1.98776211235471E-014, 14.0000000000000 ) );
#240 = DIRECTION( '', ( -0.866025403784438, -0.500000000000000, 0.000000000000000 ) );
#241 = DIRECTION( '', ( 0.500000000000000, -0.866025403784438, 0.000000000000000 ) );
#242 = SURFACE_STYLE_FILL_AREA( #330 );
#243 = ORIENTED_EDGE( '', *, *, #331, .T. );
#244 = CARTESIAN_POINT( '', ( 2.34736656052699E-017, 4.87212438141176E-017, 36.0000000000000 ) );
#245 = DIRECTION( '', ( 0.000000000000000, 0.000000000000000, 1.00000000000000 ) );
#246 = DIRECTION( '', ( 1.00000000000000, 0.000000000000000, 0.000000000000000 ) );
#247 = SURFACE_STYLE_FILL_AREA( #332 );
#248 = ORIENTED_EDGE( '', *, *, #333, .T. );
#249 = ORIENTED_EDGE( '', *, *, #316, .F. );
#250 = ORIENTED_EDGE( '', *, *, #334, .F. );
#251 = ORIENTED_EDGE( '', *, *, #328, .T. );
#252 = CARTESIAN_POINT( '', ( 4.90747728811183, 8.50000000000000, 14.0000000000000 ) );
#253 = DIRECTION( '', ( 0.000000000000000, -1.00000000000000, 0.000000000000000 ) );
#254 = DIRECTION( '', ( 0.000000000000000, 0.000000000000000, -1.00000000000000 ) );
#255 = SURFACE_STYLE_FILL_AREA( #335 );
#256 = ORIENTED_EDGE( '', *, *, #325, .F. );
#257 = ORIENTED_EDGE( '', *, *, #336, .F. );
#258 = CARTESIAN_POINT( '', ( 0.000000000000000, 0.000000000000000, 2.00000000000000 ) );
#259 = DIRECTION( '', ( 0.000000000000000, 0.000000000000000, 1.00000000000000 ) );
#260 = DIRECTION( '', ( 1.00000000000000, 0.000000000000000, 0.000000000000000 ) );
#261 = SURFACE_STYLE_FILL_AREA( #337 );
#262 = ORIENTED_EDGE( '', *, *, #334, .T. );
#263 = ORIENTED_EDGE( '', *, *, #315, .T. );
#264 = ORIENTED_EDGE( '', *, *, #319, .T. );
#265 = ORIENTED_EDGE( '', *, *, #310, .T. );
#266 = ORIENTED_EDGE( '', *, *, #323, .T. );
#267 = ORIENTED_EDGE( '', *, *, #329, .T. );
#268 = ORIENTED_EDGE( '', *, *, #338, .F. );
#269 = CARTESIAN_POINT( '', ( 0.000000000000000, 0.000000000000000, 14.0000000000000 ) );
#270 = DIRECTION( '', ( 0.000000000000000, 0.000000000000000, 1.00000000000000 ) );
#271 = DIRECTION( '', ( 1.00000000000000, 0.000000000000000, 0.000000000000000 ) );
#272 = SURFACE_STYLE_FILL_AREA( #339 );
#273 = ORIENTED_EDGE( '', *, *, #336, .T. );
#274 = ORIENTED_EDGE( '', *, *, #340, .T. );
#275 = CARTESIAN_POINT( '', ( 0.000000000000000, 0.000000000000000, 57.1500000000000 ) );
#276 = DIRECTION( '', ( -0.000000000000000, -0.000000000000000, -1.00000000000000 ) );
#277 = DIRECTION( '', ( 1.00000000000000, 0.000000000000000, 0.000000000000000 ) );
#278 = SURFACE_STYLE_FILL_AREA( #341 );
#279 = ORIENTED_EDGE( '', *, *, #342, .T. );
#280 = ORIENTED_EDGE( '', *, *, #338, .T. );
#281 = CARTESIAN_POINT( '', ( 2.34736656052699E-017, 4.87212438141176E-017, 36.0000000000000 ) );
#282 = DIRECTION( '', ( -0.000000000000000, -0.000000000000000, 1.00000000000000 ) );
#283 = DIRECTION( '', ( -1.00000000000000, 0.000000000000000, 0.000000000000000 ) );
#284 = SURFACE_STYLE_FILL_AREA( #343 );
#285 = ORIENTED_EDGE( '', *, *, #342, .F. );
#286 = ORIENTED_EDGE( '', *, *, #331, .F. );
#287 = CARTESIAN_POINT( '', ( 2.34736656052699E-017, 4.87212438141176E-017, 36.0000000000000 ) );
#288 = DIRECTION( '', ( -0.000000000000000, 0.000000000000000, -1.00000000000000 ) );
#289 = DIRECTION( '', ( -1.00000000000000, 0.000000000000000, 0.000000000000000 ) );
#290 = SURFACE_STYLE_FILL_AREA( #344 );
#291 = ORIENTED_EDGE( '', *, *, #345, .T. );
#292 = ORIENTED_EDGE( '', *, *, #333, .F. );
#293 = ORIENTED_EDGE( '', *, *, #327, .F. );
#294 = ORIENTED_EDGE( '', *, *, #321, .F. );
#295 = ORIENTED_EDGE( '', *, *, #308, .F. );
#296 = ORIENTED_EDGE( '', *, *, #318, .F. );
#297 = ORIENTED_EDGE( '', *, *, #313, .F. );
#298 = CARTESIAN_POINT( '', ( 20.0000000000000, 0.000000000000000, 9.00000000000000 ) );
#299 = DIRECTION( '', ( 0.000000000000000, 0.000000000000000, -1.00000000000000 ) );
#300 = DIRECTION( '', ( -1.00000000000000, 0.000000000000000, 0.000000000000000 ) );
#301 = SURFACE_STYLE_FILL_AREA( #346 );
#302 = ORIENTED_EDGE( '', *, *, #340, .F. );
#303 = ORIENTED_EDGE( '', *, *, #345, .F. );
#304 = CARTESIAN_POINT( '', ( 0.000000000000000, 0.000000000000000, 7.00000000000000 ) );
#305 = DIRECTION( '', ( 0.000000000000000, 0.000000000000000, -1.00000000000000 ) );
#306 = DIRECTION( '', ( -1.00000000000000, 0.000000000000000, 0.000000000000000 ) );
#307 = FILL_AREA_STYLE( '', ( #347 ) );
#308 = EDGE_CURVE( '', #348, #349, #350, .T. );
#309 = EDGE_CURVE( '', #351, #349, #352, .T. );
#310 = EDGE_CURVE( '', #353, #351, #354, .T. );
#311 = EDGE_CURVE( '', #353, #348, #355, .T. );
#312 = FILL_AREA_STYLE( '', ( #356 ) );
#313 = EDGE_CURVE( '', #357, #358, #359, .T. );
#314 = EDGE_CURVE( '', #360, #358, #361, .T. );
#315 = EDGE_CURVE( '', #362, #360, #363, .T. );
#316 = EDGE_CURVE( '', #362, #357, #364, .T. );
#317 = FILL_AREA_STYLE( '', ( #365 ) );
#318 = EDGE_CURVE( '', #358, #348, #366, .T. );
#319 = EDGE_CURVE( '', #360, #353, #367, .T. );
#320 = FILL_AREA_STYLE( '', ( #368 ) );
#321 = EDGE_CURVE( '', #349, #369, #370, .T. );
#322 = EDGE_CURVE( '', #371, #369, #372, .T. );
#323 = EDGE_CURVE( '', #351, #371, #373, .T. );
#324 = FILL_AREA_STYLE( '', ( #374 ) );
#325 = EDGE_CURVE( '', #375, #375, #376, .F. );
#326 = FILL_AREA_STYLE( '', ( #377 ) );
#327 = EDGE_CURVE( '', #369, #378, #379, .T. );
#328 = EDGE_CURVE( '', #380, #378, #381, .T. );
#329 = EDGE_CURVE( '', #371, #380, #382, .T. );
#330 = FILL_AREA_STYLE( '', ( #383 ) );
#331 = EDGE_CURVE( '', #384, #384, #385, .T. );
#332 = FILL_AREA_STYLE( '', ( #386 ) );
#333 = EDGE_CURVE( '', #378, #357, #387, .T. );
#334 = EDGE_CURVE( '', #380, #362, #388, .T. );
#335 = FILL_AREA_STYLE( '', ( #389 ) );
#336 = EDGE_CURVE( '', #390, #390, #391, .T. );
#337 = FILL_AREA_STYLE( '', ( #392 ) );
#338 = EDGE_CURVE( '', #393, #393, #394, .T. );
#339 = FILL_AREA_STYLE( '', ( #395 ) );
#340 = EDGE_CURVE( '', #396, #396, #397, .T. );
#341 = FILL_AREA_STYLE( '', ( #398 ) );
#342 = EDGE_CURVE( '', #399, #399, #400, .F. );
#343 = FILL_AREA_STYLE( '', ( #401 ) );
#344 = FILL_AREA_STYLE( '', ( #402 ) );
#345 = EDGE_CURVE( '', #403, #403, #404, .F. );
#346 = FILL_AREA_STYLE( '', ( #405 ) );
#347 = FILL_AREA_STYLE_COLOUR( '', #406 );
#348 = VERTEX_POINT( '', #407 );
#349 = VERTEX_POINT( '', #408 );
#350 = LINE( '', #409, #410 );
#351 = VERTEX_POINT( '', #411 );
#352 = LINE( '', #412, #413 );
#353 = VERTEX_POINT( '', #414 );
#354 = LINE( '', #415, #416 );
#355 = LINE( '', #417, #418 );
#356 = FILL_AREA_STYLE_COLOUR( '', #419 );
#357 = VERTEX_POINT( '', #420 );
#358 = VERTEX_POINT( '', #421 );
#359 = LINE( '', #422, #423 );
#360 = VERTEX_POINT( '', #424 );
#361 = LINE( '', #425, #426 );
#362 = VERTEX_POINT( '', #427 );
#363 = LINE( '', #428, #429 );
#364 = LINE( '', #430, #431 );
#365 = FILL_AREA_STYLE_COLOUR( '', #432 );
#366 = LINE( '', #433, #434 );
#367 = LINE( '', #435, #436 );
#368 = FILL_AREA_STYLE_COLOUR( '', #437 );
#369 = VERTEX_POINT( '', #438 );
#370 = LINE( '', #439, #440 );
#371 = VERTEX_POINT( '', #441 );
#372 = LINE( '', #442, #443 );
#373 = LINE( '', #444, #445 );
#374 = FILL_AREA_STYLE_COLOUR( '', #446 );
#375 = VERTEX_POINT( '', #447 );
#376 = CIRCLE( '', #448, 18.0000000000000 );
#377 = FILL_AREA_STYLE_COLOUR( '', #449 );
#378 = VERTEX_POINT( '', #450 );
#379 = LINE( '', #451, #452 );
#380 = VERTEX_POINT( '', #453 );
#381 = LINE( '', #454, #455 );
#382 = LINE( '', #456, #457 );
#383 = FILL_AREA_STYLE_COLOUR( '', #458 );
#384 = VERTEX_POINT( '', #459 );
#385 = CIRCLE( '', #460, 3.00000000000000 );
#386 = FILL_AREA_STYLE_COLOUR( '', #461 );
#387 = LINE( '', #462, #463 );
#388 = LINE( '', #464, #465 );
#389 = FILL_AREA_STYLE_COLOUR( '', #466 );
#390 = VERTEX_POINT( '', #467 );
#391 = CIRCLE( '', #468, 20.0000000000000 );
#392 = FILL_AREA_STYLE_COLOUR( '', #469 );
#393 = VERTEX_POINT( '', #470 );
#394 = CIRCLE( '', #471, 4.00000000000000 );
#395 = FILL_AREA_STYLE_COLOUR( '', #472 );
#396 = VERTEX_POINT( '', #473 );
#397 = CIRCLE( '', #474, 20.0000000000000 );
#398 = FILL_AREA_STYLE_COLOUR( '', #475 );
#399 = VERTEX_POINT( '', #476 );
#400 = CIRCLE( '', #477, 4.00000000000000 );
#401 = FILL_AREA_STYLE_COLOUR( '', #478 );
#402 = FILL_AREA_STYLE_COLOUR( '', #479 );
#403 = VERTEX_POINT( '', #480 );
#404 = CIRCLE( '', #481, 18.0000000000000 );
#405 = FILL_AREA_STYLE_COLOUR( '', #482 );
#406 = COLOUR_RGB( '', 0.200000002980232, 0.200000002980232, 0.200000002980232 );
#407 = CARTESIAN_POINT( '', ( -4.90747728811182, -8.50000000000000, 9.00000000000000 ) );
#408 = CARTESIAN_POINT( '', ( 4.90747728811183, -8.50000000000000, 9.00000000000000 ) );
#409 = CARTESIAN_POINT( '', ( -4.90747728811183, -8.50000000000000, 9.00000000000000 ) );
#410 = VECTOR( '', #483, 1000.00000000000 );
#411 = CARTESIAN_POINT( '', ( 4.90747728811183, -8.50000000000000, 14.0000000000000 ) );
#412 = CARTESIAN_POINT( '', ( 4.90747728811183, -8.50000000000000, 14.0000000000000 ) );
#413 = VECTOR( '', #484, 1000.00000000000 );
#414 = CARTESIAN_POINT( '', ( -4.90747728811183, -8.50000000000000, 14.0000000000000 ) );
#415 = CARTESIAN_POINT( '', ( -4.90747728811183, -8.50000000000000, 14.0000000000000 ) );
#416 = VECTOR( '', #485, 1000.00000000000 );
#417 = CARTESIAN_POINT( '', ( -4.90747728811183, -8.50000000000000, 14.0000000000000 ) );
#418 = VECTOR( '', #486, 1000.00000000000 );
#419 = COLOUR_RGB( '', 0.200000002980232, 0.200000002980232, 0.200000002980232 );
#420 = CARTESIAN_POINT( '', ( -4.90747728811182, 8.50000000000000, 9.00000000000000 ) );
#421 = CARTESIAN_POINT( '', ( -9.81495457622365, 2.08166817117217E-014, 9.00000000000000 ) );
#422 = CARTESIAN_POINT( '', ( -4.90747728811182, 8.50000000000000, 9.00000000000000 ) );
#423 = VECTOR( '', #487, 999.999999999999 );
#424 = CARTESIAN_POINT( '', ( -9.81495457622365, 2.08166817117217E-014, 14.0000000000000 ) );
#425 = CARTESIAN_POINT( '', ( -9.81495457622365, 2.08166817117217E-014, 14.0000000000000 ) );
#426 = VECTOR( '', #488, 1000.00000000000 );
#427 = CARTESIAN_POINT( '', ( -4.90747728811182, 8.50000000000000, 14.0000000000000 ) );
#428 = CARTESIAN_POINT( '', ( -4.90747728811182, 8.50000000000000, 14.0000000000000 ) );
#429 = VECTOR( '', #489, 999.999999999999 );
#430 = CARTESIAN_POINT( '', ( -4.90747728811182, 8.50000000000000, 14.0000000000000 ) );
#431 = VECTOR( '', #490, 1000.00000000000 );
#432 = COLOUR_RGB( '', 0.200000002980232, 0.200000002980232, 0.200000002980232 );
#433 = CARTESIAN_POINT( '', ( -9.81495457622365, 2.10796063941020E-014, 9.00000000000000 ) );
#434 = VECTOR( '', #491, 1000.00000000000 );
#435 = CARTESIAN_POINT( '', ( -9.81495457622365, 2.10796063941020E-014, 14.0000000000000 ) );
#436 = VECTOR( '', #492, 1000.00000000000 );
#437 = COLOUR_RGB( '', 0.200000002980232, 0.200000002980232, 0.200000002980232 );
#438 = CARTESIAN_POINT( '', ( 9.81495457622366, 1.99493199737333E-014, 9.00000000000000 ) );
#439 = CARTESIAN_POINT( '', ( 4.90747728811183, -8.50000000000000, 9.00000000000000 ) );
#440 = VECTOR( '', #493, 1000.00000000000 );
#441 = CARTESIAN_POINT( '', ( 9.81495457622366, 1.90819582357449E-014, 14.0000000000000 ) );
#442 = CARTESIAN_POINT( '', ( 9.81495457622366, 1.90819582357449E-014, 14.0000000000000 ) );
#443 = VECTOR( '', #494, 1000.00000000000 );
#444 = CARTESIAN_POINT( '', ( 4.90747728811183, -8.50000000000000, 14.0000000000000 ) );
#445 = VECTOR( '', #495, 1000.00000000000 );
#446 = COLOUR_RGB( '', 0.200000002980232, 0.200000002980232, 0.200000002980232 );
#447 = CARTESIAN_POINT( '', ( 18.0000000000000, 0.000000000000000, 0.000000000000000 ) );
#448 = AXIS2_PLACEMENT_3D( '', #496, #497, #498 );
#449 = COLOUR_RGB( '', 0.200000002980232, 0.200000002980232, 0.200000002980232 );
#450 = CARTESIAN_POINT( '', ( 4.90747728811183, 8.50000000000000, 9.00000000000000 ) );
#451 = CARTESIAN_POINT( '', ( 9.81495457622366, 1.98776211235471E-014, 9.00000000000000 ) );
#452 = VECTOR( '', #499, 999.999999999999 );
#453 = CARTESIAN_POINT( '', ( 4.90747728811183, 8.50000000000000, 14.0000000000000 ) );
#454 = CARTESIAN_POINT( '', ( 4.90747728811183, 8.50000000000000, 14.0000000000000 ) );
#455 = VECTOR( '', #500, 1000.00000000000 );
#456 = CARTESIAN_POINT( '', ( 9.81495457622366, 1.98776211235471E-014, 14.0000000000000 ) );
#457 = VECTOR( '', #501, 999.999999999999 );
#458 = COLOUR_RGB( '', 0.200000002980232, 0.200000002980232, 0.200000002980232 );
#459 = CARTESIAN_POINT( '', ( 3.00000000000000, 4.87212438141176E-017, 36.0000000000000 ) );
#460 = AXIS2_PLACEMENT_3D( '', #502, #503, #504 );
#461 = COLOUR_RGB( '', 0.200000002980232, 0.200000002980232, 0.200000002980232 );
#462 = CARTESIAN_POINT( '', ( 4.90747728811183, 8.50000000000000, 9.00000000000000 ) );
#463 = VECTOR( '', #505, 1000.00000000000 );
#464 = CARTESIAN_POINT( '', ( 4.90747728811183, 8.50000000000000, 14.0000000000000 ) );
#465 = VECTOR( '', #506, 1000.00000000000 );
#466 = COLOUR_RGB( '', 0.200000002980232, 0.200000002980232, 0.200000002980232 );
#467 = CARTESIAN_POINT( '', ( 20.0000000000000, 0.000000000000000, 2.00000000000000 ) );
#468 = AXIS2_PLACEMENT_3D( '', #507, #508, #509 );
#469 = COLOUR_RGB( '', 0.200000002980232, 0.200000002980232, 0.200000002980232 );
#470 = CARTESIAN_POINT( '', ( 2.00000000000000, 3.46410161513776, 14.0000000000000 ) );
#471 = AXIS2_PLACEMENT_3D( '', #510, #511, #512 );
#472 = COLOUR_RGB( '', 0.200000002980232, 0.200000002980232, 0.200000002980232 );
#473 = CARTESIAN_POINT( '', ( -20.0000000000000, 0.000000000000000, 7.00000000000000 ) );
#474 = AXIS2_PLACEMENT_3D( '', #513, #514, #515 );
#475 = COLOUR_RGB( '', 0.752941191196442, 0.752941191196442, 0.752941191196442 );
#476 = CARTESIAN_POINT( '', ( 4.00000000000000, 4.87212438141176E-017, 35.0000000000000 ) );
#477 = AXIS2_PLACEMENT_3D( '', #516, #517, #518 );
#478 = COLOUR_RGB( '', 0.200000002980232, 0.200000002980232, 0.200000002980232 );
#479 = COLOUR_RGB( '', 0.200000002980232, 0.200000002980232, 0.200000002980232 );
#480 = CARTESIAN_POINT( '', ( -18.0000000000000, 0.000000000000000, 9.00000000000000 ) );
#481 = AXIS2_PLACEMENT_3D( '', #519, #520, #521 );
#482 = COLOUR_RGB( '', 0.200000002980232, 0.200000002980232, 0.200000002980232 );
#483 = DIRECTION( '', ( 1.00000000000000, -1.23720025778354E-015, 0.000000000000000 ) );
#484 = DIRECTION( '', ( 0.000000000000000, 0.000000000000000, -1.00000000000000 ) );
#485 = DIRECTION( '', ( 1.00000000000000, -1.23720025778354E-015, 0.000000000000000 ) );
#486 = DIRECTION( '', ( 0.000000000000000, 0.000000000000000, -1.00000000000000 ) );
#487 = DIRECTION( '', ( -0.500000000000000, -0.866025403784438, 0.000000000000000 ) );
#488 = DIRECTION( '', ( 0.000000000000000, 0.000000000000000, -1.00000000000000 ) );
#489 = DIRECTION( '', ( -0.500000000000000, -0.866025403784438, 0.000000000000000 ) );
#490 = DIRECTION( '', ( 0.000000000000000, 0.000000000000000, -1.00000000000000 ) );
#491 = DIRECTION( '', ( 0.500000000000000, -0.866025403784439, 0.000000000000000 ) );
#492 = DIRECTION( '', ( 0.500000000000000, -0.866025403784439, 0.000000000000000 ) );
#493 = DIRECTION( '', ( 0.500000000000000, 0.866025403784439, 0.000000000000000 ) );
#494 = DIRECTION( '', ( 0.000000000000000, 0.000000000000000, -1.00000000000000 ) );
#495 = DIRECTION( '', ( 0.500000000000000, 0.866025403784439, 0.000000000000000 ) );
#496 = CARTESIAN_POINT( '', ( 0.000000000000000, 0.000000000000000, 0.000000000000000 ) );
#497 = DIRECTION( '', ( 0.000000000000000, 0.000000000000000, 1.00000000000000 ) );
#498 = DIRECTION( '', ( 1.00000000000000, 0.000000000000000, 0.000000000000000 ) );
#499 = DIRECTION( '', ( -0.500000000000000, 0.866025403784438, 0.000000000000000 ) );
#500 = DIRECTION( '', ( 0.000000000000000, 0.000000000000000, -1.00000000000000 ) );
#501 = DIRECTION( '', ( -0.500000000000000, 0.866025403784438, 0.000000000000000 ) );
#502 = CARTESIAN_POINT( '', ( 2.34736656052699E-017, 4.87212438141176E-017, 36.0000000000000 ) );
#503 = DIRECTION( '', ( 0.000000000000000, 0.000000000000000, 1.00000000000000 ) );
#504 = DIRECTION( '', ( 1.00000000000000, 0.000000000000000, 0.000000000000000 ) );
#505 = DIRECTION( '', ( -1.00000000000000, 0.000000000000000, 0.000000000000000 ) );
#506 = DIRECTION( '', ( -1.00000000000000, 0.000000000000000, 0.000000000000000 ) );
#507 = CARTESIAN_POINT( '', ( 0.000000000000000, 0.000000000000000, 2.00000000000000 ) );
#508 = DIRECTION( '', ( 0.000000000000000, 0.000000000000000, 1.00000000000000 ) );
#509 = DIRECTION( '', ( 1.00000000000000, 0.000000000000000, 0.000000000000000 ) );
#510 = CARTESIAN_POINT( '', ( 2.34736656052699E-017, 4.87212438141176E-017, 14.0000000000000 ) );
#511 = DIRECTION( '', ( 0.000000000000000, -0.000000000000000, 1.00000000000000 ) );
#512 = DIRECTION( '', ( 0.500000000000000, 0.866025403784439, 0.000000000000000 ) );
#513 = CARTESIAN_POINT( '', ( 0.000000000000000, 0.000000000000000, 7.00000000000000 ) );
#514 = DIRECTION( '', ( 0.000000000000000, 0.000000000000000, -1.00000000000000 ) );
#515 = DIRECTION( '', ( -1.00000000000000, 0.000000000000000, 0.000000000000000 ) );
#516 = CARTESIAN_POINT( '', ( 2.34736656052699E-017, 4.87212438141176E-017, 35.0000000000000 ) );
#517 = DIRECTION( '', ( 0.000000000000000, 0.000000000000000, 1.00000000000000 ) );
#518 = DIRECTION( '', ( 1.00000000000000, 0.000000000000000, 0.000000000000000 ) );
#519 = CARTESIAN_POINT( '', ( 0.000000000000000, 0.000000000000000, 9.00000000000000 ) );
#520 = DIRECTION( '', ( 0.000000000000000, 0.000000000000000, -1.00000000000000 ) );
#521 = DIRECTION( '', ( -1.00000000000000, 0.000000000000000, 0.000000000000000 ) );
ENDSEC;
END-ISO-10303-21;
