ISO-10303-21;
HEADER;
FILE_DESCRIPTION( ( 'Unknown' ), '1' );
FILE_NAME( '//SBS2003/HD_Usb/Disegni/08_LIB/Users_3D/PROD_GAMM_3D/PRMES/7322047.stp', 'Unknown', ( 'Unknown' ), ( 'Unknown' ), 'PSStep 14.0', 'Unknown', '  ' );
FILE_SCHEMA( ( 'AUTOMOTIVE_DESIGN { 1 0 10303 214 1 1 1 1 }' ) );
ENDSEC;
DATA;
#1 = MECHANICAL_DESIGN_GEOMETRIC_PRESENTATION_REPRESENTATION( ' ', ( #10, #11, #12, #13, #14, #15, #16, #17, #18, #19, #20, #21, #22, #23, #24 ), #6 );
#2 = PRODUCT_DEFINITION_CONTEXT( '', #25, 'design' );
#3 = APPLICATION_PROTOCOL_DEFINITION( 'international standard', 'automotive_design', 2001, #25 );
#4 = PRODUCT_CATEGORY_RELATIONSHIP( 'NONE', 'NONE', #26, #27 );
#5 = SHAPE_DEFINITION_REPRESENTATION( #28, #29 );
#6 =  ( GEOMETRIC_REPRESENTATION_CONTEXT( 3 )GLOBAL_UNCERTAINTY_ASSIGNED_CONTEXT( ( #32 ) )GLOBAL_UNIT_ASSIGNED_CONTEXT( ( #34, #35, #36 ) )REPRESENTATION_CONTEXT( 'NONE', 'WORKSPACE' ) );
#10 = STYLED_ITEM( '', ( #38 ), #39 );
#11 = STYLED_ITEM( '', ( #40 ), #41 );
#12 = STYLED_ITEM( '', ( #42 ), #43 );
#13 = STYLED_ITEM( '', ( #44 ), #45 );
#14 = STYLED_ITEM( '', ( #46 ), #47 );
#15 = STYLED_ITEM( '', ( #48 ), #49 );
#16 = STYLED_ITEM( '', ( #50 ), #51 );
#17 = STYLED_ITEM( '', ( #52 ), #53 );
#18 = STYLED_ITEM( '', ( #54 ), #55 );
#19 = STYLED_ITEM( '', ( #56 ), #57 );
#20 = STYLED_ITEM( '', ( #58 ), #59 );
#21 = STYLED_ITEM( '', ( #60 ), #61 );
#22 = STYLED_ITEM( '', ( #62 ), #63 );
#23 = STYLED_ITEM( '', ( #64 ), #65 );
#24 = STYLED_ITEM( '', ( #66 ), #67 );
#25 = APPLICATION_CONTEXT( 'core data for automotive mechanical design processes' );
#26 = PRODUCT_CATEGORY( 'part', 'NONE' );
#27 = PRODUCT_RELATED_PRODUCT_CATEGORY( 'detail', ' ', ( #68 ) );
#28 = PRODUCT_DEFINITION_SHAPE( 'NONE', 'NONE', #69 );
#29 = ADVANCED_BREP_SHAPE_REPRESENTATION( '1', ( #70, #71 ), #6 );
#32 = UNCERTAINTY_MEASURE_WITH_UNIT( LENGTH_MEASURE( 0.00100000000000000 ), #34, '', '' );
#34 =  ( CONVERSION_BASED_UNIT( 'MILLIMETRE', #74 )LENGTH_UNIT(  )NAMED_UNIT( #77 ) );
#35 =  ( NAMED_UNIT( #79 )PLANE_ANGLE_UNIT(  )SI_UNIT( $, .RADIAN. ) );
#36 =  ( NAMED_UNIT( #79 )SI_UNIT( $, .STERADIAN. )SOLID_ANGLE_UNIT(  ) );
#38 = PRESENTATION_STYLE_ASSIGNMENT( ( #85 ) );
#39 = ADVANCED_FACE( '', ( #86 ), #87, .F. );
#40 = PRESENTATION_STYLE_ASSIGNMENT( ( #88 ) );
#41 = ADVANCED_FACE( '', ( #89, #90 ), #91, .T. );
#42 = PRESENTATION_STYLE_ASSIGNMENT( ( #92 ) );
#43 = ADVANCED_FACE( '', ( #93, #94 ), #95, .T. );
#44 = PRESENTATION_STYLE_ASSIGNMENT( ( #96 ) );
#45 = ADVANCED_FACE( '', ( #97, #98 ), #99, .T. );
#46 = PRESENTATION_STYLE_ASSIGNMENT( ( #100 ) );
#47 = ADVANCED_FACE( '', ( #101, #102 ), #103, .T. );
#48 = PRESENTATION_STYLE_ASSIGNMENT( ( #104 ) );
#49 = ADVANCED_FACE( '', ( #105, #106 ), #107, .T. );
#50 = PRESENTATION_STYLE_ASSIGNMENT( ( #108 ) );
#51 = ADVANCED_FACE( '', ( #109 ), #110, .F. );
#52 = PRESENTATION_STYLE_ASSIGNMENT( ( #111 ) );
#53 = ADVANCED_FACE( '', ( #112 ), #113, .F. );
#54 = PRESENTATION_STYLE_ASSIGNMENT( ( #114 ) );
#55 = ADVANCED_FACE( '', ( #115 ), #116, .F. );
#56 = PRESENTATION_STYLE_ASSIGNMENT( ( #117 ) );
#57 = ADVANCED_FACE( '', ( #118, #119 ), #120, .T. );
#58 = PRESENTATION_STYLE_ASSIGNMENT( ( #121 ) );
#59 = ADVANCED_FACE( '', ( #122 ), #123, .F. );
#60 = PRESENTATION_STYLE_ASSIGNMENT( ( #124 ) );
#61 = ADVANCED_FACE( '', ( #125, #126 ), #127, .F. );
#62 = PRESENTATION_STYLE_ASSIGNMENT( ( #128 ) );
#63 = ADVANCED_FACE( '', ( #129 ), #130, .F. );
#64 = PRESENTATION_STYLE_ASSIGNMENT( ( #131 ) );
#65 = ADVANCED_FACE( '', ( #132 ), #133, .T. );
#66 = PRESENTATION_STYLE_ASSIGNMENT( ( #134 ) );
#67 = ADVANCED_FACE( '', ( #135 ), #136, .F. );
#68 = PRODUCT( '1', '1', 'PART-1-DESC', ( #137 ) );
#69 = PRODUCT_DEFINITION( 'NONE', 'NONE', #138, #2 );
#70 = MANIFOLD_SOLID_BREP( '1', #139 );
#71 = AXIS2_PLACEMENT_3D( '', #140, #141, #142 );
#74 = LENGTH_MEASURE_WITH_UNIT( LENGTH_MEASURE( 1.00000000000000 ), #143 );
#77 = DIMENSIONAL_EXPONENTS( 1.00000000000000, 0.000000000000000, 0.000000000000000, 0.000000000000000, 0.000000000000000, 0.000000000000000, 0.000000000000000 );
#79 = DIMENSIONAL_EXPONENTS( 0.000000000000000, 0.000000000000000, 0.000000000000000, 0.000000000000000, 0.000000000000000, 0.000000000000000, 0.000000000000000 );
#85 = SURFACE_STYLE_USAGE( .BOTH., #144 );
#86 = FACE_OUTER_BOUND( '', #145, .T. );
#87 = PLANE( '', #146 );
#88 = SURFACE_STYLE_USAGE( .BOTH., #147 );
#89 = FACE_OUTER_BOUND( '', #148, .T. );
#90 = FACE_BOUND( '', #149, .T. );
#91 = PLANE( '', #150 );
#92 = SURFACE_STYLE_USAGE( .BOTH., #151 );
#93 = FACE_OUTER_BOUND( '', #152, .T. );
#94 = FACE_OUTER_BOUND( '', #153, .T. );
#95 = CYLINDRICAL_SURFACE( '', #154, 20.0000000000000 );
#96 = SURFACE_STYLE_USAGE( .BOTH., #155 );
#97 = FACE_OUTER_BOUND( '', #156, .T. );
#98 = FACE_BOUND( '', #157, .T. );
#99 = CONICAL_SURFACE( '', #158, 4.00000000000000, 0.785398163397448 );
#100 = SURFACE_STYLE_USAGE( .BOTH., #159 );
#101 = FACE_OUTER_BOUND( '', #160, .T. );
#102 = FACE_OUTER_BOUND( '', #161, .T. );
#103 = TOROIDAL_SURFACE( '', #162, 18.0000000000000, 2.00000000000000 );
#104 = SURFACE_STYLE_USAGE( .BOTH., #163 );
#105 = FACE_OUTER_BOUND( '', #164, .T. );
#106 = FACE_OUTER_BOUND( '', #165, .T. );
#107 = TOROIDAL_SURFACE( '', #166, 18.0000000000000, 2.00000000000000 );
#108 = SURFACE_STYLE_USAGE( .BOTH., #167 );
#109 = FACE_OUTER_BOUND( '', #168, .T. );
#110 = PLANE( '', #169 );
#111 = SURFACE_STYLE_USAGE( .BOTH., #170 );
#112 = FACE_OUTER_BOUND( '', #171, .T. );
#113 = PLANE( '', #172 );
#114 = SURFACE_STYLE_USAGE( .BOTH., #173 );
#115 = FACE_OUTER_BOUND( '', #174, .T. );
#116 = PLANE( '', #175 );
#117 = SURFACE_STYLE_USAGE( .BOTH., #176 );
#118 = FACE_OUTER_BOUND( '', #177, .T. );
#119 = FACE_OUTER_BOUND( '', #178, .T. );
#120 = CYLINDRICAL_SURFACE( '', #179, 5.00000000000000 );
#121 = SURFACE_STYLE_USAGE( .BOTH., #180 );
#122 = FACE_OUTER_BOUND( '', #181, .T. );
#123 = PLANE( '', #182 );
#124 = SURFACE_STYLE_USAGE( .BOTH., #183 );
#125 = FACE_OUTER_BOUND( '', #184, .T. );
#126 = FACE_BOUND( '', #185, .T. );
#127 = PLANE( '', #186 );
#128 = SURFACE_STYLE_USAGE( .BOTH., #187 );
#129 = FACE_OUTER_BOUND( '', #188, .T. );
#130 = PLANE( '', #189 );
#131 = SURFACE_STYLE_USAGE( .BOTH., #190 );
#132 = FACE_OUTER_BOUND( '', #191, .T. );
#133 = PLANE( '', #192 );
#134 = SURFACE_STYLE_USAGE( .BOTH., #193 );
#135 = FACE_OUTER_BOUND( '', #194, .T. );
#136 = PLANE( '', #195 );
#137 = PRODUCT_CONTEXT( '', #25, 'mechanical' );
#138 = PRODUCT_DEFINITION_FORMATION_WITH_SPECIFIED_SOURCE( ' ', 'NONE', #68, .NOT_KNOWN. );
#139 = CLOSED_SHELL( '', ( #41, #47, #53, #39, #43, #49, #45, #61, #51, #57, #67, #59, #55, #63, #65 ) );
#140 = CARTESIAN_POINT( '', ( 0.000000000000000, 0.000000000000000, 0.000000000000000 ) );
#141 = DIRECTION( '', ( 0.000000000000000, 0.000000000000000, 1.00000000000000 ) );
#142 = DIRECTION( '', ( 1.00000000000000, 0.000000000000000, 0.000000000000000 ) );
#143 =  ( LENGTH_UNIT(  )NAMED_UNIT( #77 )SI_UNIT( .MILLI., .METRE. ) );
#144 = SURFACE_SIDE_STYLE( '', ( #197 ) );
#145 = EDGE_LOOP( '', ( #198, #199, #200, #201 ) );
#146 = AXIS2_PLACEMENT_3D( '', #202, #203, #204 );
#147 = SURFACE_SIDE_STYLE( '', ( #205 ) );
#148 = EDGE_LOOP( '', ( #206, #207, #208, #209, #210, #211 ) );
#149 = EDGE_LOOP( '', ( #212 ) );
#150 = AXIS2_PLACEMENT_3D( '', #213, #214, #215 );
#151 = SURFACE_SIDE_STYLE( '', ( #216 ) );
#152 = EDGE_LOOP( '', ( #217 ) );
#153 = EDGE_LOOP( '', ( #218 ) );
#154 = AXIS2_PLACEMENT_3D( '', #219, #220, #221 );
#155 = SURFACE_SIDE_STYLE( '', ( #222 ) );
#156 = EDGE_LOOP( '', ( #223 ) );
#157 = EDGE_LOOP( '', ( #224 ) );
#158 = AXIS2_PLACEMENT_3D( '', #225, #226, #227 );
#159 = SURFACE_SIDE_STYLE( '', ( #228 ) );
#160 = EDGE_LOOP( '', ( #229 ) );
#161 = EDGE_LOOP( '', ( #230 ) );
#162 = AXIS2_PLACEMENT_3D( '', #231, #232, #233 );
#163 = SURFACE_SIDE_STYLE( '', ( #234 ) );
#164 = EDGE_LOOP( '', ( #235 ) );
#165 = EDGE_LOOP( '', ( #236 ) );
#166 = AXIS2_PLACEMENT_3D( '', #237, #238, #239 );
#167 = SURFACE_SIDE_STYLE( '', ( #240 ) );
#168 = EDGE_LOOP( '', ( #241 ) );
#169 = AXIS2_PLACEMENT_3D( '', #242, #243, #244 );
#170 = SURFACE_SIDE_STYLE( '', ( #245 ) );
#171 = EDGE_LOOP( '', ( #246, #247, #248, #249 ) );
#172 = AXIS2_PLACEMENT_3D( '', #250, #251, #252 );
#173 = SURFACE_SIDE_STYLE( '', ( #253 ) );
#174 = EDGE_LOOP( '', ( #254, #255, #256, #257 ) );
#175 = AXIS2_PLACEMENT_3D( '', #258, #259, #260 );
#176 = SURFACE_SIDE_STYLE( '', ( #261 ) );
#177 = EDGE_LOOP( '', ( #262 ) );
#178 = EDGE_LOOP( '', ( #263 ) );
#179 = AXIS2_PLACEMENT_3D( '', #264, #265, #266 );
#180 = SURFACE_SIDE_STYLE( '', ( #267 ) );
#181 = EDGE_LOOP( '', ( #268, #269, #270, #271 ) );
#182 = AXIS2_PLACEMENT_3D( '', #272, #273, #274 );
#183 = SURFACE_SIDE_STYLE( '', ( #275 ) );
#184 = EDGE_LOOP( '', ( #276 ) );
#185 = EDGE_LOOP( '', ( #277, #278, #279, #280, #281, #282 ) );
#186 = AXIS2_PLACEMENT_3D( '', #283, #284, #285 );
#187 = SURFACE_SIDE_STYLE( '', ( #286 ) );
#188 = EDGE_LOOP( '', ( #287, #288, #289, #290 ) );
#189 = AXIS2_PLACEMENT_3D( '', #291, #292, #293 );
#190 = SURFACE_SIDE_STYLE( '', ( #294 ) );
#191 = EDGE_LOOP( '', ( #295 ) );
#192 = AXIS2_PLACEMENT_3D( '', #296, #297, #298 );
#193 = SURFACE_SIDE_STYLE( '', ( #299 ) );
#194 = EDGE_LOOP( '', ( #300, #301, #302, #303 ) );
#195 = AXIS2_PLACEMENT_3D( '', #304, #305, #306 );
#197 = SURFACE_STYLE_FILL_AREA( #307 );
#198 = ORIENTED_EDGE( '', *, *, #308, .T. );
#199 = ORIENTED_EDGE( '', *, *, #309, .F. );
#200 = ORIENTED_EDGE( '', *, *, #310, .F. );
#201 = ORIENTED_EDGE( '', *, *, #311, .T. );
#202 = CARTESIAN_POINT( '', ( 4.90747728811183, 8.50000000000000, 14.0000000000000 ) );
#203 = DIRECTION( '', ( 0.000000000000000, -1.00000000000000, 0.000000000000000 ) );
#204 = DIRECTION( '', ( 0.000000000000000, 0.000000000000000, -1.00000000000000 ) );
#205 = SURFACE_STYLE_FILL_AREA( #312 );
#206 = ORIENTED_EDGE( '', *, *, #310, .T. );
#207 = ORIENTED_EDGE( '', *, *, #313, .T. );
#208 = ORIENTED_EDGE( '', *, *, #314, .T. );
#209 = ORIENTED_EDGE( '', *, *, #315, .T. );
#210 = ORIENTED_EDGE( '', *, *, #316, .T. );
#211 = ORIENTED_EDGE( '', *, *, #317, .T. );
#212 = ORIENTED_EDGE( '', *, *, #318, .F. );
#213 = CARTESIAN_POINT( '', ( 0.000000000000000, 0.000000000000000, 14.0000000000000 ) );
#214 = DIRECTION( '', ( 0.000000000000000, 0.000000000000000, 1.00000000000000 ) );
#215 = DIRECTION( '', ( 1.00000000000000, 0.000000000000000, 0.000000000000000 ) );
#216 = SURFACE_STYLE_FILL_AREA( #319 );
#217 = ORIENTED_EDGE( '', *, *, #320, .T. );
#218 = ORIENTED_EDGE( '', *, *, #321, .T. );
#219 = CARTESIAN_POINT( '', ( 0.000000000000000, 0.000000000000000, 57.1500000000000 ) );
#220 = DIRECTION( '', ( -0.000000000000000, -0.000000000000000, -1.00000000000000 ) );
#221 = DIRECTION( '', ( 1.00000000000000, 0.000000000000000, 0.000000000000000 ) );
#222 = SURFACE_STYLE_FILL_AREA( #322 );
#223 = ORIENTED_EDGE( '', *, *, #323, .F. );
#224 = ORIENTED_EDGE( '', *, *, #324, .F. );
#225 = CARTESIAN_POINT( '', ( 2.34736656052699E-017, 4.87212438141176E-017, 36.0000000000000 ) );
#226 = DIRECTION( '', ( -0.000000000000000, 0.000000000000000, -1.00000000000000 ) );
#227 = DIRECTION( '', ( -1.00000000000000, 0.000000000000000, 0.000000000000000 ) );
#228 = SURFACE_STYLE_FILL_AREA( #325 );
#229 = ORIENTED_EDGE( '', *, *, #326, .F. );
#230 = ORIENTED_EDGE( '', *, *, #320, .F. );
#231 = CARTESIAN_POINT( '', ( 0.000000000000000, 0.000000000000000, 2.00000000000000 ) );
#232 = DIRECTION( '', ( 0.000000000000000, 0.000000000000000, 1.00000000000000 ) );
#233 = DIRECTION( '', ( 1.00000000000000, 0.000000000000000, 0.000000000000000 ) );
#234 = SURFACE_STYLE_FILL_AREA( #327 );
#235 = ORIENTED_EDGE( '', *, *, #321, .F. );
#236 = ORIENTED_EDGE( '', *, *, #328, .F. );
#237 = CARTESIAN_POINT( '', ( 0.000000000000000, 0.000000000000000, 7.00000000000000 ) );
#238 = DIRECTION( '', ( 0.000000000000000, 0.000000000000000, -1.00000000000000 ) );
#239 = DIRECTION( '', ( -1.00000000000000, 0.000000000000000, 0.000000000000000 ) );
#240 = SURFACE_STYLE_FILL_AREA( #329 );
#241 = ORIENTED_EDGE( '', *, *, #326, .T. );
#242 = CARTESIAN_POINT( '', ( 1.15681633248879E-015, 0.000000000000000, 0.000000000000000 ) );
#243 = DIRECTION( '', ( 0.000000000000000, 0.000000000000000, 1.00000000000000 ) );
#244 = DIRECTION( '', ( 1.00000000000000, 0.000000000000000, 0.000000000000000 ) );
#245 = SURFACE_STYLE_FILL_AREA( #330 );
#246 = ORIENTED_EDGE( '', *, *, #331, .T. );
#247 = ORIENTED_EDGE( '', *, *, #332, .F. );
#248 = ORIENTED_EDGE( '', *, *, #313, .F. );
#249 = ORIENTED_EDGE( '', *, *, #309, .T. );
#250 = CARTESIAN_POINT( '', ( -4.90747728811182, 8.50000000000000, 14.0000000000000 ) );
#251 = DIRECTION( '', ( 0.866025403784438, -0.500000000000000, 0.000000000000000 ) );
#252 = DIRECTION( '', ( 0.500000000000000, 0.866025403784438, 0.000000000000000 ) );
#253 = SURFACE_STYLE_FILL_AREA( #333 );
#254 = ORIENTED_EDGE( '', *, *, #334, .T. );
#255 = ORIENTED_EDGE( '', *, *, #335, .F. );
#256 = ORIENTED_EDGE( '', *, *, #315, .F. );
#257 = ORIENTED_EDGE( '', *, *, #336, .T. );
#258 = CARTESIAN_POINT( '', ( -4.90747728811183, -8.50000000000000, 14.0000000000000 ) );
#259 = DIRECTION( '', ( 1.23720025778354E-015, 1.00000000000000, 0.000000000000000 ) );
#260 = DIRECTION( '', ( -1.00000000000000, 1.23720025778354E-015, 0.000000000000000 ) );
#261 = SURFACE_STYLE_FILL_AREA( #337 );
#262 = ORIENTED_EDGE( '', *, *, #323, .T. );
#263 = ORIENTED_EDGE( '', *, *, #318, .T. );
#264 = CARTESIAN_POINT( '', ( 2.34736656052699E-017, 4.87212438141176E-017, 36.0000000000000 ) );
#265 = DIRECTION( '', ( -0.000000000000000, -0.000000000000000, 1.00000000000000 ) );
#266 = DIRECTION( '', ( -1.00000000000000, 0.000000000000000, 0.000000000000000 ) );
#267 = SURFACE_STYLE_FILL_AREA( #338 );
#268 = ORIENTED_EDGE( '', *, *, #339, .T. );
#269 = ORIENTED_EDGE( '', *, *, #340, .F. );
#270 = ORIENTED_EDGE( '', *, *, #316, .F. );
#271 = ORIENTED_EDGE( '', *, *, #335, .T. );
#272 = CARTESIAN_POINT( '', ( 4.90747728811183, -8.50000000000000, 14.0000000000000 ) );
#273 = DIRECTION( '', ( -0.866025403784439, 0.500000000000000, 0.000000000000000 ) );
#274 = DIRECTION( '', ( -0.500000000000000, -0.866025403784439, 0.000000000000000 ) );
#275 = SURFACE_STYLE_FILL_AREA( #341 );
#276 = ORIENTED_EDGE( '', *, *, #328, .T. );
#277 = ORIENTED_EDGE( '', *, *, #308, .F. );
#278 = ORIENTED_EDGE( '', *, *, #342, .F. );
#279 = ORIENTED_EDGE( '', *, *, #339, .F. );
#280 = ORIENTED_EDGE( '', *, *, #334, .F. );
#281 = ORIENTED_EDGE( '', *, *, #343, .F. );
#282 = ORIENTED_EDGE( '', *, *, #331, .F. );
#283 = CARTESIAN_POINT( '', ( 20.0000000000000, 0.000000000000000, 9.00000000000000 ) );
#284 = DIRECTION( '', ( 0.000000000000000, 0.000000000000000, -1.00000000000000 ) );
#285 = DIRECTION( '', ( -1.00000000000000, 0.000000000000000, 0.000000000000000 ) );
#286 = SURFACE_STYLE_FILL_AREA( #344 );
#287 = ORIENTED_EDGE( '', *, *, #343, .T. );
#288 = ORIENTED_EDGE( '', *, *, #336, .F. );
#289 = ORIENTED_EDGE( '', *, *, #314, .F. );
#290 = ORIENTED_EDGE( '', *, *, #332, .T. );
#291 = CARTESIAN_POINT( '', ( -9.81495457622365, 2.10796063941020E-014, 14.0000000000000 ) );
#292 = DIRECTION( '', ( 0.866025403784439, 0.500000000000000, 0.000000000000000 ) );
#293 = DIRECTION( '', ( -0.500000000000000, 0.866025403784439, 0.000000000000000 ) );
#294 = SURFACE_STYLE_FILL_AREA( #345 );
#295 = ORIENTED_EDGE( '', *, *, #324, .T. );
#296 = CARTESIAN_POINT( '', ( 2.34736656052699E-017, 4.87212438141176E-017, 36.0000000000000 ) );
#297 = DIRECTION( '', ( 0.000000000000000, 0.000000000000000, 1.00000000000000 ) );
#298 = DIRECTION( '', ( 1.00000000000000, 0.000000000000000, 0.000000000000000 ) );
#299 = SURFACE_STYLE_FILL_AREA( #346 );
#300 = ORIENTED_EDGE( '', *, *, #342, .T. );
#301 = ORIENTED_EDGE( '', *, *, #311, .F. );
#302 = ORIENTED_EDGE( '', *, *, #317, .F. );
#303 = ORIENTED_EDGE( '', *, *, #340, .T. );
#304 = CARTESIAN_POINT( '', ( 9.81495457622366, 1.98776211235471E-014, 14.0000000000000 ) );
#305 = DIRECTION( '', ( -0.866025403784438, -0.500000000000000, 0.000000000000000 ) );
#306 = DIRECTION( '', ( 0.500000000000000, -0.866025403784438, 0.000000000000000 ) );
#307 = FILL_AREA_STYLE( '', ( #347 ) );
#308 = EDGE_CURVE( '', #348, #349, #350, .T. );
#309 = EDGE_CURVE( '', #351, #349, #352, .T. );
#310 = EDGE_CURVE( '', #353, #351, #354, .T. );
#311 = EDGE_CURVE( '', #353, #348, #355, .T. );
#312 = FILL_AREA_STYLE( '', ( #356 ) );
#313 = EDGE_CURVE( '', #351, #357, #358, .T. );
#314 = EDGE_CURVE( '', #357, #359, #360, .T. );
#315 = EDGE_CURVE( '', #359, #361, #362, .T. );
#316 = EDGE_CURVE( '', #361, #363, #364, .T. );
#317 = EDGE_CURVE( '', #363, #353, #365, .T. );
#318 = EDGE_CURVE( '', #366, #366, #367, .T. );
#319 = FILL_AREA_STYLE( '', ( #368 ) );
#320 = EDGE_CURVE( '', #369, #369, #370, .T. );
#321 = EDGE_CURVE( '', #371, #371, #372, .T. );
#322 = FILL_AREA_STYLE( '', ( #373 ) );
#323 = EDGE_CURVE( '', #374, #374, #375, .F. );
#324 = EDGE_CURVE( '', #376, #376, #377, .T. );
#325 = FILL_AREA_STYLE( '', ( #378 ) );
#326 = EDGE_CURVE( '', #379, #379, #380, .F. );
#327 = FILL_AREA_STYLE( '', ( #381 ) );
#328 = EDGE_CURVE( '', #382, #382, #383, .F. );
#329 = FILL_AREA_STYLE( '', ( #384 ) );
#330 = FILL_AREA_STYLE( '', ( #385 ) );
#331 = EDGE_CURVE( '', #349, #386, #387, .T. );
#332 = EDGE_CURVE( '', #357, #386, #388, .T. );
#333 = FILL_AREA_STYLE( '', ( #389 ) );
#334 = EDGE_CURVE( '', #390, #391, #392, .T. );
#335 = EDGE_CURVE( '', #361, #391, #393, .T. );
#336 = EDGE_CURVE( '', #359, #390, #394, .T. );
#337 = FILL_AREA_STYLE( '', ( #395 ) );
#338 = FILL_AREA_STYLE( '', ( #396 ) );
#339 = EDGE_CURVE( '', #391, #397, #398, .T. );
#340 = EDGE_CURVE( '', #363, #397, #399, .T. );
#341 = FILL_AREA_STYLE( '', ( #400 ) );
#342 = EDGE_CURVE( '', #397, #348, #401, .T. );
#343 = EDGE_CURVE( '', #386, #390, #402, .T. );
#344 = FILL_AREA_STYLE( '', ( #403 ) );
#345 = FILL_AREA_STYLE( '', ( #404 ) );
#346 = FILL_AREA_STYLE( '', ( #405 ) );
#347 = FILL_AREA_STYLE_COLOUR( '', #406 );
#348 = VERTEX_POINT( '', #407 );
#349 = VERTEX_POINT( '', #408 );
#350 = LINE( '', #409, #410 );
#351 = VERTEX_POINT( '', #411 );
#352 = LINE( '', #412, #413 );
#353 = VERTEX_POINT( '', #414 );
#354 = LINE( '', #415, #416 );
#355 = LINE( '', #417, #418 );
#356 = FILL_AREA_STYLE_COLOUR( '', #419 );
#357 = VERTEX_POINT( '', #420 );
#358 = LINE( '', #421, #422 );
#359 = VERTEX_POINT( '', #423 );
#360 = LINE( '', #424, #425 );
#361 = VERTEX_POINT( '', #426 );
#362 = LINE( '', #427, #428 );
#363 = VERTEX_POINT( '', #429 );
#364 = LINE( '', #430, #431 );
#365 = LINE( '', #432, #433 );
#366 = VERTEX_POINT( '', #434 );
#367 = CIRCLE( '', #435, 5.00000000000000 );
#368 = FILL_AREA_STYLE_COLOUR( '', #436 );
#369 = VERTEX_POINT( '', #437 );
#370 = CIRCLE( '', #438, 20.0000000000000 );
#371 = VERTEX_POINT( '', #439 );
#372 = CIRCLE( '', #440, 20.0000000000000 );
#373 = FILL_AREA_STYLE_COLOUR( '', #441 );
#374 = VERTEX_POINT( '', #442 );
#375 = CIRCLE( '', #443, 5.00000000000000 );
#376 = VERTEX_POINT( '', #444 );
#377 = CIRCLE( '', #445, 4.00000000000000 );
#378 = FILL_AREA_STYLE_COLOUR( '', #446 );
#379 = VERTEX_POINT( '', #447 );
#380 = CIRCLE( '', #448, 18.0000000000000 );
#381 = FILL_AREA_STYLE_COLOUR( '', #449 );
#382 = VERTEX_POINT( '', #450 );
#383 = CIRCLE( '', #451, 18.0000000000000 );
#384 = FILL_AREA_STYLE_COLOUR( '', #452 );
#385 = FILL_AREA_STYLE_COLOUR( '', #453 );
#386 = VERTEX_POINT( '', #454 );
#387 = LINE( '', #455, #456 );
#388 = LINE( '', #457, #458 );
#389 = FILL_AREA_STYLE_COLOUR( '', #459 );
#390 = VERTEX_POINT( '', #460 );
#391 = VERTEX_POINT( '', #461 );
#392 = LINE( '', #462, #463 );
#393 = LINE( '', #464, #465 );
#394 = LINE( '', #466, #467 );
#395 = FILL_AREA_STYLE_COLOUR( '', #468 );
#396 = FILL_AREA_STYLE_COLOUR( '', #469 );
#397 = VERTEX_POINT( '', #470 );
#398 = LINE( '', #471, #472 );
#399 = LINE( '', #473, #474 );
#400 = FILL_AREA_STYLE_COLOUR( '', #475 );
#401 = LINE( '', #476, #477 );
#402 = LINE( '', #478, #479 );
#403 = FILL_AREA_STYLE_COLOUR( '', #480 );
#404 = FILL_AREA_STYLE_COLOUR( '', #481 );
#405 = FILL_AREA_STYLE_COLOUR( '', #482 );
#406 = COLOUR_RGB( '', 0.200000002980232, 0.200000002980232, 0.200000002980232 );
#407 = CARTESIAN_POINT( '', ( 4.90747728811183, 8.50000000000000, 9.00000000000000 ) );
#408 = CARTESIAN_POINT( '', ( -4.90747728811182, 8.50000000000000, 9.00000000000000 ) );
#409 = CARTESIAN_POINT( '', ( 4.90747728811183, 8.50000000000000, 9.00000000000000 ) );
#410 = VECTOR( '', #483, 1000.00000000000 );
#411 = CARTESIAN_POINT( '', ( -4.90747728811182, 8.50000000000000, 14.0000000000000 ) );
#412 = CARTESIAN_POINT( '', ( -4.90747728811182, 8.50000000000000, 14.0000000000000 ) );
#413 = VECTOR( '', #484, 1000.00000000000 );
#414 = CARTESIAN_POINT( '', ( 4.90747728811183, 8.50000000000000, 14.0000000000000 ) );
#415 = CARTESIAN_POINT( '', ( 4.90747728811183, 8.50000000000000, 14.0000000000000 ) );
#416 = VECTOR( '', #485, 1000.00000000000 );
#417 = CARTESIAN_POINT( '', ( 4.90747728811183, 8.50000000000000, 14.0000000000000 ) );
#418 = VECTOR( '', #486, 1000.00000000000 );
#419 = COLOUR_RGB( '', 0.200000002980232, 0.200000002980232, 0.200000002980232 );
#420 = CARTESIAN_POINT( '', ( -9.81495457622365, 2.08166817117217E-014, 14.0000000000000 ) );
#421 = CARTESIAN_POINT( '', ( -4.90747728811182, 8.50000000000000, 14.0000000000000 ) );
#422 = VECTOR( '', #487, 999.999999999999 );
#423 = CARTESIAN_POINT( '', ( -4.90747728811183, -8.50000000000000, 14.0000000000000 ) );
#424 = CARTESIAN_POINT( '', ( -9.81495457622365, 2.10796063941020E-014, 14.0000000000000 ) );
#425 = VECTOR( '', #488, 1000.00000000000 );
#426 = CARTESIAN_POINT( '', ( 4.90747728811183, -8.50000000000000, 14.0000000000000 ) );
#427 = CARTESIAN_POINT( '', ( -4.90747728811183, -8.50000000000000, 14.0000000000000 ) );
#428 = VECTOR( '', #489, 1000.00000000000 );
#429 = CARTESIAN_POINT( '', ( 9.81495457622366, 1.90819582357449E-014, 14.0000000000000 ) );
#430 = CARTESIAN_POINT( '', ( 4.90747728811183, -8.50000000000000, 14.0000000000000 ) );
#431 = VECTOR( '', #490, 1000.00000000000 );
#432 = CARTESIAN_POINT( '', ( 9.81495457622366, 1.98776211235471E-014, 14.0000000000000 ) );
#433 = VECTOR( '', #491, 999.999999999999 );
#434 = CARTESIAN_POINT( '', ( 2.50000000000000, 4.33012701892220, 14.0000000000000 ) );
#435 = AXIS2_PLACEMENT_3D( '', #492, #493, #494 );
#436 = COLOUR_RGB( '', 0.200000002980232, 0.200000002980232, 0.200000002980232 );
#437 = CARTESIAN_POINT( '', ( 20.0000000000000, 0.000000000000000, 2.00000000000000 ) );
#438 = AXIS2_PLACEMENT_3D( '', #495, #496, #497 );
#439 = CARTESIAN_POINT( '', ( -20.0000000000000, 0.000000000000000, 7.00000000000000 ) );
#440 = AXIS2_PLACEMENT_3D( '', #498, #499, #500 );
#441 = COLOUR_RGB( '', 0.200000002980232, 0.200000002980232, 0.200000002980232 );
#442 = CARTESIAN_POINT( '', ( 5.00000000000000, 4.87212438141176E-017, 35.0000000000000 ) );
#443 = AXIS2_PLACEMENT_3D( '', #501, #502, #503 );
#444 = CARTESIAN_POINT( '', ( 4.00000000000000, 4.87212438141176E-017, 36.0000000000000 ) );
#445 = AXIS2_PLACEMENT_3D( '', #504, #505, #506 );
#446 = COLOUR_RGB( '', 0.200000002980232, 0.200000002980232, 0.200000002980232 );
#447 = CARTESIAN_POINT( '', ( 18.0000000000000, 0.000000000000000, 0.000000000000000 ) );
#448 = AXIS2_PLACEMENT_3D( '', #507, #508, #509 );
#449 = COLOUR_RGB( '', 0.200000002980232, 0.200000002980232, 0.200000002980232 );
#450 = CARTESIAN_POINT( '', ( -18.0000000000000, 0.000000000000000, 9.00000000000000 ) );
#451 = AXIS2_PLACEMENT_3D( '', #510, #511, #512 );
#452 = COLOUR_RGB( '', 0.200000002980232, 0.200000002980232, 0.200000002980232 );
#453 = COLOUR_RGB( '', 0.200000002980232, 0.200000002980232, 0.200000002980232 );
#454 = CARTESIAN_POINT( '', ( -9.81495457622365, 2.08166817117217E-014, 9.00000000000000 ) );
#455 = CARTESIAN_POINT( '', ( -4.90747728811182, 8.50000000000000, 9.00000000000000 ) );
#456 = VECTOR( '', #513, 999.999999999999 );
#457 = CARTESIAN_POINT( '', ( -9.81495457622365, 2.08166817117217E-014, 14.0000000000000 ) );
#458 = VECTOR( '', #514, 1000.00000000000 );
#459 = COLOUR_RGB( '', 0.200000002980232, 0.200000002980232, 0.200000002980232 );
#460 = CARTESIAN_POINT( '', ( -4.90747728811182, -8.50000000000000, 9.00000000000000 ) );
#461 = CARTESIAN_POINT( '', ( 4.90747728811183, -8.50000000000000, 9.00000000000000 ) );
#462 = CARTESIAN_POINT( '', ( -4.90747728811183, -8.50000000000000, 9.00000000000000 ) );
#463 = VECTOR( '', #515, 1000.00000000000 );
#464 = CARTESIAN_POINT( '', ( 4.90747728811183, -8.50000000000000, 14.0000000000000 ) );
#465 = VECTOR( '', #516, 1000.00000000000 );
#466 = CARTESIAN_POINT( '', ( -4.90747728811183, -8.50000000000000, 14.0000000000000 ) );
#467 = VECTOR( '', #517, 1000.00000000000 );
#468 = COLOUR_RGB( '', 0.752941191196442, 0.752941191196442, 0.752941191196442 );
#469 = COLOUR_RGB( '', 0.200000002980232, 0.200000002980232, 0.200000002980232 );
#470 = CARTESIAN_POINT( '', ( 9.81495457622366, 1.99493199737333E-014, 9.00000000000000 ) );
#471 = CARTESIAN_POINT( '', ( 4.90747728811183, -8.50000000000000, 9.00000000000000 ) );
#472 = VECTOR( '', #518, 1000.00000000000 );
#473 = CARTESIAN_POINT( '', ( 9.81495457622366, 1.90819582357449E-014, 14.0000000000000 ) );
#474 = VECTOR( '', #519, 1000.00000000000 );
#475 = COLOUR_RGB( '', 0.200000002980232, 0.200000002980232, 0.200000002980232 );
#476 = CARTESIAN_POINT( '', ( 9.81495457622366, 1.98776211235471E-014, 9.00000000000000 ) );
#477 = VECTOR( '', #520, 999.999999999999 );
#478 = CARTESIAN_POINT( '', ( -9.81495457622365, 2.10796063941020E-014, 9.00000000000000 ) );
#479 = VECTOR( '', #521, 1000.00000000000 );
#480 = COLOUR_RGB( '', 0.200000002980232, 0.200000002980232, 0.200000002980232 );
#481 = COLOUR_RGB( '', 0.200000002980232, 0.200000002980232, 0.200000002980232 );
#482 = COLOUR_RGB( '', 0.200000002980232, 0.200000002980232, 0.200000002980232 );
#483 = DIRECTION( '', ( -1.00000000000000, 0.000000000000000, 0.000000000000000 ) );
#484 = DIRECTION( '', ( 0.000000000000000, 0.000000000000000, -1.00000000000000 ) );
#485 = DIRECTION( '', ( -1.00000000000000, 0.000000000000000, 0.000000000000000 ) );
#486 = DIRECTION( '', ( 0.000000000000000, 0.000000000000000, -1.00000000000000 ) );
#487 = DIRECTION( '', ( -0.500000000000000, -0.866025403784438, 0.000000000000000 ) );
#488 = DIRECTION( '', ( 0.500000000000000, -0.866025403784439, 0.000000000000000 ) );
#489 = DIRECTION( '', ( 1.00000000000000, -1.23720025778354E-015, 0.000000000000000 ) );
#490 = DIRECTION( '', ( 0.500000000000000, 0.866025403784439, 0.000000000000000 ) );
#491 = DIRECTION( '', ( -0.500000000000000, 0.866025403784438, 0.000000000000000 ) );
#492 = CARTESIAN_POINT( '', ( 2.34736656052699E-017, 4.87212438141176E-017, 14.0000000000000 ) );
#493 = DIRECTION( '', ( 0.000000000000000, -0.000000000000000, 1.00000000000000 ) );
#494 = DIRECTION( '', ( 0.500000000000000, 0.866025403784439, 0.000000000000000 ) );
#495 = CARTESIAN_POINT( '', ( 0.000000000000000, 0.000000000000000, 2.00000000000000 ) );
#496 = DIRECTION( '', ( 0.000000000000000, 0.000000000000000, 1.00000000000000 ) );
#497 = DIRECTION( '', ( 1.00000000000000, 0.000000000000000, 0.000000000000000 ) );
#498 = CARTESIAN_POINT( '', ( 0.000000000000000, 0.000000000000000, 7.00000000000000 ) );
#499 = DIRECTION( '', ( 0.000000000000000, 0.000000000000000, -1.00000000000000 ) );
#500 = DIRECTION( '', ( -1.00000000000000, 0.000000000000000, 0.000000000000000 ) );
#501 = CARTESIAN_POINT( '', ( 2.34736656052699E-017, 4.87212438141176E-017, 35.0000000000000 ) );
#502 = DIRECTION( '', ( 0.000000000000000, 0.000000000000000, 1.00000000000000 ) );
#503 = DIRECTION( '', ( 1.00000000000000, 0.000000000000000, 0.000000000000000 ) );
#504 = CARTESIAN_POINT( '', ( 2.34736656052699E-017, 4.87212438141176E-017, 36.0000000000000 ) );
#505 = DIRECTION( '', ( 0.000000000000000, 0.000000000000000, 1.00000000000000 ) );
#506 = DIRECTION( '', ( 1.00000000000000, 0.000000000000000, 0.000000000000000 ) );
#507 = CARTESIAN_POINT( '', ( 0.000000000000000, 0.000000000000000, 0.000000000000000 ) );
#508 = DIRECTION( '', ( 0.000000000000000, 0.000000000000000, 1.00000000000000 ) );
#509 = DIRECTION( '', ( 1.00000000000000, 0.000000000000000, 0.000000000000000 ) );
#510 = CARTESIAN_POINT( '', ( 0.000000000000000, 0.000000000000000, 9.00000000000000 ) );
#511 = DIRECTION( '', ( 0.000000000000000, 0.000000000000000, -1.00000000000000 ) );
#512 = DIRECTION( '', ( -1.00000000000000, 0.000000000000000, 0.000000000000000 ) );
#513 = DIRECTION( '', ( -0.500000000000000, -0.866025403784438, 0.000000000000000 ) );
#514 = DIRECTION( '', ( 0.000000000000000, 0.000000000000000, -1.00000000000000 ) );
#515 = DIRECTION( '', ( 1.00000000000000, -1.23720025778354E-015, 0.000000000000000 ) );
#516 = DIRECTION( '', ( 0.000000000000000, 0.000000000000000, -1.00000000000000 ) );
#517 = DIRECTION( '', ( 0.000000000000000, 0.000000000000000, -1.00000000000000 ) );
#518 = DIRECTION( '', ( 0.500000000000000, 0.866025403784439, 0.000000000000000 ) );
#519 = DIRECTION( '', ( 0.000000000000000, 0.000000000000000, -1.00000000000000 ) );
#520 = DIRECTION( '', ( -0.500000000000000, 0.866025403784438, 0.000000000000000 ) );
#521 = DIRECTION( '', ( 0.500000000000000, -0.866025403784439, 0.000000000000000 ) );
ENDSEC;
END-ISO-10303-21;
