ISO-10303-21;
HEADER;
FILE_DESCRIPTION( ( 'Unknown' ), '1' );
FILE_NAME( '//SBS2003/HD_Usb/Disegni/08_LIB/Users_3D/PROD_GAMM_3D/PRMES/7322055.stp', 'Unknown', ( 'Unknown' ), ( 'Unknown' ), 'PSStep 14.0', 'Unknown', '  ' );
FILE_SCHEMA( ( 'AUTOMOTIVE_DESIGN { 1 0 10303 214 1 1 1 1 }' ) );
ENDSEC;
DATA;
#1 = MECHANICAL_DESIGN_GEOMETRIC_PRESENTATION_REPRESENTATION( ' ', ( #10, #11, #12, #13, #14, #15, #16, #17, #18, #19, #20, #21, #22, #23, #24 ), #6 );
#2 = PRODUCT_DEFINITION_CONTEXT( '', #25, 'design' );
#3 = APPLICATION_PROTOCOL_DEFINITION( 'international standard', 'automotive_design', 2001, #25 );
#4 = PRODUCT_CATEGORY_RELATIONSHIP( 'NONE', 'NONE', #26, #27 );
#5 = SHAPE_DEFINITION_REPRESENTATION( #28, #29 );
#6 =  ( GEOMETRIC_REPRESENTATION_CONTEXT( 3 )GLOBAL_UNCERTAINTY_ASSIGNED_CONTEXT( ( #32 ) )GLOBAL_UNIT_ASSIGNED_CONTEXT( ( #34, #35, #36 ) )REPRESENTATION_CONTEXT( 'NONE', 'WORKSPACE' ) );
#10 = STYLED_ITEM( '', ( #38 ), #39 );
#11 = STYLED_ITEM( '', ( #40 ), #41 );
#12 = STYLED_ITEM( '', ( #42 ), #43 );
#13 = STYLED_ITEM( '', ( #44 ), #45 );
#14 = STYLED_ITEM( '', ( #46 ), #47 );
#15 = STYLED_ITEM( '', ( #48 ), #49 );
#16 = STYLED_ITEM( '', ( #50 ), #51 );
#17 = STYLED_ITEM( '', ( #52 ), #53 );
#18 = STYLED_ITEM( '', ( #54 ), #55 );
#19 = STYLED_ITEM( '', ( #56 ), #57 );
#20 = STYLED_ITEM( '', ( #58 ), #59 );
#21 = STYLED_ITEM( '', ( #60 ), #61 );
#22 = STYLED_ITEM( '', ( #62 ), #63 );
#23 = STYLED_ITEM( '', ( #64 ), #65 );
#24 = STYLED_ITEM( '', ( #66 ), #67 );
#25 = APPLICATION_CONTEXT( 'core data for automotive mechanical design processes' );
#26 = PRODUCT_CATEGORY( 'part', 'NONE' );
#27 = PRODUCT_RELATED_PRODUCT_CATEGORY( 'detail', ' ', ( #68 ) );
#28 = PRODUCT_DEFINITION_SHAPE( 'NONE', 'NONE', #69 );
#29 = ADVANCED_BREP_SHAPE_REPRESENTATION( '1', ( #70, #71 ), #6 );
#32 = UNCERTAINTY_MEASURE_WITH_UNIT( LENGTH_MEASURE( 0.00100000000000000 ), #34, '', '' );
#34 =  ( CONVERSION_BASED_UNIT( 'MILLIMETRE', #74 )LENGTH_UNIT(  )NAMED_UNIT( #77 ) );
#35 =  ( NAMED_UNIT( #79 )PLANE_ANGLE_UNIT(  )SI_UNIT( $, .RADIAN. ) );
#36 =  ( NAMED_UNIT( #79 )SI_UNIT( $, .STERADIAN. )SOLID_ANGLE_UNIT(  ) );
#38 = PRESENTATION_STYLE_ASSIGNMENT( ( #85 ) );
#39 = ADVANCED_FACE( '', ( #86 ), #87, .F. );
#40 = PRESENTATION_STYLE_ASSIGNMENT( ( #88 ) );
#41 = ADVANCED_FACE( '', ( #89, #90 ), #91, .T. );
#42 = PRESENTATION_STYLE_ASSIGNMENT( ( #92 ) );
#43 = ADVANCED_FACE( '', ( #93 ), #94, .F. );
#44 = PRESENTATION_STYLE_ASSIGNMENT( ( #95 ) );
#45 = ADVANCED_FACE( '', ( #96 ), #97, .F. );
#46 = PRESENTATION_STYLE_ASSIGNMENT( ( #98 ) );
#47 = ADVANCED_FACE( '', ( #99, #100 ), #101, .T. );
#48 = PRESENTATION_STYLE_ASSIGNMENT( ( #102 ) );
#49 = ADVANCED_FACE( '', ( #103 ), #104, .F. );
#50 = PRESENTATION_STYLE_ASSIGNMENT( ( #105 ) );
#51 = ADVANCED_FACE( '', ( #106 ), #107, .F. );
#52 = PRESENTATION_STYLE_ASSIGNMENT( ( #108 ) );
#53 = ADVANCED_FACE( '', ( #109, #110 ), #111, .T. );
#54 = PRESENTATION_STYLE_ASSIGNMENT( ( #112 ) );
#55 = ADVANCED_FACE( '', ( #113, #114 ), #115, .T. );
#56 = PRESENTATION_STYLE_ASSIGNMENT( ( #116 ) );
#57 = ADVANCED_FACE( '', ( #117, #118 ), #119, .F. );
#58 = PRESENTATION_STYLE_ASSIGNMENT( ( #120 ) );
#59 = ADVANCED_FACE( '', ( #121 ), #122, .F. );
#60 = PRESENTATION_STYLE_ASSIGNMENT( ( #123 ) );
#61 = ADVANCED_FACE( '', ( #124 ), #125, .T. );
#62 = PRESENTATION_STYLE_ASSIGNMENT( ( #126 ) );
#63 = ADVANCED_FACE( '', ( #127, #128 ), #129, .T. );
#64 = PRESENTATION_STYLE_ASSIGNMENT( ( #130 ) );
#65 = ADVANCED_FACE( '', ( #131 ), #132, .F. );
#66 = PRESENTATION_STYLE_ASSIGNMENT( ( #133 ) );
#67 = ADVANCED_FACE( '', ( #134, #135 ), #136, .T. );
#68 = PRODUCT( '1', '1', 'PART-1-DESC', ( #137 ) );
#69 = PRODUCT_DEFINITION( 'NONE', 'NONE', #138, #2 );
#70 = MANIFOLD_SOLID_BREP( '1', #139 );
#71 = AXIS2_PLACEMENT_3D( '', #140, #141, #142 );
#74 = LENGTH_MEASURE_WITH_UNIT( LENGTH_MEASURE( 1.00000000000000 ), #143 );
#77 = DIMENSIONAL_EXPONENTS( 1.00000000000000, 0.000000000000000, 0.000000000000000, 0.000000000000000, 0.000000000000000, 0.000000000000000, 0.000000000000000 );
#79 = DIMENSIONAL_EXPONENTS( 0.000000000000000, 0.000000000000000, 0.000000000000000, 0.000000000000000, 0.000000000000000, 0.000000000000000, 0.000000000000000 );
#85 = SURFACE_STYLE_USAGE( .BOTH., #144 );
#86 = FACE_OUTER_BOUND( '', #145, .T. );
#87 = PLANE( '', #146 );
#88 = SURFACE_STYLE_USAGE( .BOTH., #147 );
#89 = FACE_OUTER_BOUND( '', #148, .T. );
#90 = FACE_BOUND( '', #149, .T. );
#91 = CONICAL_SURFACE( '', #150, 4.00000000000000, 0.785398163397448 );
#92 = SURFACE_STYLE_USAGE( .BOTH., #151 );
#93 = FACE_OUTER_BOUND( '', #152, .T. );
#94 = PLANE( '', #153 );
#95 = SURFACE_STYLE_USAGE( .BOTH., #154 );
#96 = FACE_OUTER_BOUND( '', #155, .T. );
#97 = PLANE( '', #156 );
#98 = SURFACE_STYLE_USAGE( .BOTH., #157 );
#99 = FACE_OUTER_BOUND( '', #158, .T. );
#100 = FACE_BOUND( '', #159, .T. );
#101 = PLANE( '', #160 );
#102 = SURFACE_STYLE_USAGE( .BOTH., #161 );
#103 = FACE_OUTER_BOUND( '', #162, .T. );
#104 = PLANE( '', #163 );
#105 = SURFACE_STYLE_USAGE( .BOTH., #164 );
#106 = FACE_OUTER_BOUND( '', #165, .T. );
#107 = PLANE( '', #166 );
#108 = SURFACE_STYLE_USAGE( .BOTH., #167 );
#109 = FACE_OUTER_BOUND( '', #168, .T. );
#110 = FACE_OUTER_BOUND( '', #169, .T. );
#111 = TOROIDAL_SURFACE( '', #170, 18.0000000000000, 2.00000000000000 );
#112 = SURFACE_STYLE_USAGE( .BOTH., #171 );
#113 = FACE_OUTER_BOUND( '', #172, .T. );
#114 = FACE_OUTER_BOUND( '', #173, .T. );
#115 = CYLINDRICAL_SURFACE( '', #174, 20.0000000000000 );
#116 = SURFACE_STYLE_USAGE( .BOTH., #175 );
#117 = FACE_OUTER_BOUND( '', #176, .T. );
#118 = FACE_BOUND( '', #177, .T. );
#119 = PLANE( '', #178 );
#120 = SURFACE_STYLE_USAGE( .BOTH., #179 );
#121 = FACE_OUTER_BOUND( '', #180, .T. );
#122 = PLANE( '', #181 );
#123 = SURFACE_STYLE_USAGE( .BOTH., #182 );
#124 = FACE_OUTER_BOUND( '', #183, .T. );
#125 = PLANE( '', #184 );
#126 = SURFACE_STYLE_USAGE( .BOTH., #185 );
#127 = FACE_OUTER_BOUND( '', #186, .T. );
#128 = FACE_OUTER_BOUND( '', #187, .T. );
#129 = TOROIDAL_SURFACE( '', #188, 18.0000000000000, 2.00000000000000 );
#130 = SURFACE_STYLE_USAGE( .BOTH., #189 );
#131 = FACE_OUTER_BOUND( '', #190, .T. );
#132 = PLANE( '', #191 );
#133 = SURFACE_STYLE_USAGE( .BOTH., #192 );
#134 = FACE_OUTER_BOUND( '', #193, .T. );
#135 = FACE_OUTER_BOUND( '', #194, .T. );
#136 = CYLINDRICAL_SURFACE( '', #195, 5.00000000000000 );
#137 = PRODUCT_CONTEXT( '', #25, 'mechanical' );
#138 = PRODUCT_DEFINITION_FORMATION_WITH_SPECIFIED_SOURCE( ' ', 'NONE', #68, .NOT_KNOWN. );
#139 = CLOSED_SHELL( '', ( #47, #53, #43, #39, #55, #63, #41, #57, #51, #67, #49, #65, #59, #45, #61 ) );
#140 = CARTESIAN_POINT( '', ( 0.000000000000000, 0.000000000000000, 0.000000000000000 ) );
#141 = DIRECTION( '', ( 0.000000000000000, 0.000000000000000, 1.00000000000000 ) );
#142 = DIRECTION( '', ( 1.00000000000000, 0.000000000000000, 0.000000000000000 ) );
#143 =  ( LENGTH_UNIT(  )NAMED_UNIT( #77 )SI_UNIT( .MILLI., .METRE. ) );
#144 = SURFACE_SIDE_STYLE( '', ( #197 ) );
#145 = EDGE_LOOP( '', ( #198, #199, #200, #201 ) );
#146 = AXIS2_PLACEMENT_3D( '', #202, #203, #204 );
#147 = SURFACE_SIDE_STYLE( '', ( #205 ) );
#148 = EDGE_LOOP( '', ( #206 ) );
#149 = EDGE_LOOP( '', ( #207 ) );
#150 = AXIS2_PLACEMENT_3D( '', #208, #209, #210 );
#151 = SURFACE_SIDE_STYLE( '', ( #211 ) );
#152 = EDGE_LOOP( '', ( #212, #213, #214, #215 ) );
#153 = AXIS2_PLACEMENT_3D( '', #216, #217, #218 );
#154 = SURFACE_SIDE_STYLE( '', ( #219 ) );
#155 = EDGE_LOOP( '', ( #220, #221, #222, #223 ) );
#156 = AXIS2_PLACEMENT_3D( '', #224, #225, #226 );
#157 = SURFACE_SIDE_STYLE( '', ( #227 ) );
#158 = EDGE_LOOP( '', ( #228, #229, #230, #231, #232, #233 ) );
#159 = EDGE_LOOP( '', ( #234 ) );
#160 = AXIS2_PLACEMENT_3D( '', #235, #236, #237 );
#161 = SURFACE_SIDE_STYLE( '', ( #238 ) );
#162 = EDGE_LOOP( '', ( #239, #240, #241, #242 ) );
#163 = AXIS2_PLACEMENT_3D( '', #243, #244, #245 );
#164 = SURFACE_SIDE_STYLE( '', ( #246 ) );
#165 = EDGE_LOOP( '', ( #247 ) );
#166 = AXIS2_PLACEMENT_3D( '', #248, #249, #250 );
#167 = SURFACE_SIDE_STYLE( '', ( #251 ) );
#168 = EDGE_LOOP( '', ( #252 ) );
#169 = EDGE_LOOP( '', ( #253 ) );
#170 = AXIS2_PLACEMENT_3D( '', #254, #255, #256 );
#171 = SURFACE_SIDE_STYLE( '', ( #257 ) );
#172 = EDGE_LOOP( '', ( #258 ) );
#173 = EDGE_LOOP( '', ( #259 ) );
#174 = AXIS2_PLACEMENT_3D( '', #260, #261, #262 );
#175 = SURFACE_SIDE_STYLE( '', ( #263 ) );
#176 = EDGE_LOOP( '', ( #264 ) );
#177 = EDGE_LOOP( '', ( #265, #266, #267, #268, #269, #270 ) );
#178 = AXIS2_PLACEMENT_3D( '', #271, #272, #273 );
#179 = SURFACE_SIDE_STYLE( '', ( #274 ) );
#180 = EDGE_LOOP( '', ( #275, #276, #277, #278 ) );
#181 = AXIS2_PLACEMENT_3D( '', #279, #280, #281 );
#182 = SURFACE_SIDE_STYLE( '', ( #282 ) );
#183 = EDGE_LOOP( '', ( #283 ) );
#184 = AXIS2_PLACEMENT_3D( '', #284, #285, #286 );
#185 = SURFACE_SIDE_STYLE( '', ( #287 ) );
#186 = EDGE_LOOP( '', ( #288 ) );
#187 = EDGE_LOOP( '', ( #289 ) );
#188 = AXIS2_PLACEMENT_3D( '', #290, #291, #292 );
#189 = SURFACE_SIDE_STYLE( '', ( #293 ) );
#190 = EDGE_LOOP( '', ( #294, #295, #296, #297 ) );
#191 = AXIS2_PLACEMENT_3D( '', #298, #299, #300 );
#192 = SURFACE_SIDE_STYLE( '', ( #301 ) );
#193 = EDGE_LOOP( '', ( #302 ) );
#194 = EDGE_LOOP( '', ( #303 ) );
#195 = AXIS2_PLACEMENT_3D( '', #304, #305, #306 );
#197 = SURFACE_STYLE_FILL_AREA( #307 );
#198 = ORIENTED_EDGE( '', *, *, #308, .T. );
#199 = ORIENTED_EDGE( '', *, *, #309, .F. );
#200 = ORIENTED_EDGE( '', *, *, #310, .F. );
#201 = ORIENTED_EDGE( '', *, *, #311, .T. );
#202 = CARTESIAN_POINT( '', ( 4.90747728811183, 8.50000000000000, 14.0000000000000 ) );
#203 = DIRECTION( '', ( 0.000000000000000, -1.00000000000000, 0.000000000000000 ) );
#204 = DIRECTION( '', ( 0.000000000000000, 0.000000000000000, -1.00000000000000 ) );
#205 = SURFACE_STYLE_FILL_AREA( #312 );
#206 = ORIENTED_EDGE( '', *, *, #313, .F. );
#207 = ORIENTED_EDGE( '', *, *, #314, .F. );
#208 = CARTESIAN_POINT( '', ( 2.34736656052699E-017, 4.87212438141176E-017, 46.0000000000000 ) );
#209 = DIRECTION( '', ( -0.000000000000000, 0.000000000000000, -1.00000000000000 ) );
#210 = DIRECTION( '', ( -1.00000000000000, 0.000000000000000, 0.000000000000000 ) );
#211 = SURFACE_STYLE_FILL_AREA( #315 );
#212 = ORIENTED_EDGE( '', *, *, #316, .T. );
#213 = ORIENTED_EDGE( '', *, *, #317, .F. );
#214 = ORIENTED_EDGE( '', *, *, #318, .F. );
#215 = ORIENTED_EDGE( '', *, *, #309, .T. );
#216 = CARTESIAN_POINT( '', ( -4.90747728811182, 8.50000000000000, 14.0000000000000 ) );
#217 = DIRECTION( '', ( 0.866025403784438, -0.500000000000000, 0.000000000000000 ) );
#218 = DIRECTION( '', ( 0.500000000000000, 0.866025403784438, 0.000000000000000 ) );
#219 = SURFACE_STYLE_FILL_AREA( #319 );
#220 = ORIENTED_EDGE( '', *, *, #320, .T. );
#221 = ORIENTED_EDGE( '', *, *, #321, .F. );
#222 = ORIENTED_EDGE( '', *, *, #322, .F. );
#223 = ORIENTED_EDGE( '', *, *, #317, .T. );
#224 = CARTESIAN_POINT( '', ( -9.81495457622365, 2.10796063941020E-014, 14.0000000000000 ) );
#225 = DIRECTION( '', ( 0.866025403784439, 0.500000000000000, 0.000000000000000 ) );
#226 = DIRECTION( '', ( -0.500000000000000, 0.866025403784439, 0.000000000000000 ) );
#227 = SURFACE_STYLE_FILL_AREA( #323 );
#228 = ORIENTED_EDGE( '', *, *, #310, .T. );
#229 = ORIENTED_EDGE( '', *, *, #318, .T. );
#230 = ORIENTED_EDGE( '', *, *, #322, .T. );
#231 = ORIENTED_EDGE( '', *, *, #324, .T. );
#232 = ORIENTED_EDGE( '', *, *, #325, .T. );
#233 = ORIENTED_EDGE( '', *, *, #326, .T. );
#234 = ORIENTED_EDGE( '', *, *, #327, .F. );
#235 = CARTESIAN_POINT( '', ( 0.000000000000000, 0.000000000000000, 14.0000000000000 ) );
#236 = DIRECTION( '', ( 0.000000000000000, 0.000000000000000, 1.00000000000000 ) );
#237 = DIRECTION( '', ( 1.00000000000000, 0.000000000000000, 0.000000000000000 ) );
#238 = SURFACE_STYLE_FILL_AREA( #328 );
#239 = ORIENTED_EDGE( '', *, *, #329, .T. );
#240 = ORIENTED_EDGE( '', *, *, #311, .F. );
#241 = ORIENTED_EDGE( '', *, *, #326, .F. );
#242 = ORIENTED_EDGE( '', *, *, #330, .T. );
#243 = CARTESIAN_POINT( '', ( 9.81495457622366, 1.98776211235471E-014, 14.0000000000000 ) );
#244 = DIRECTION( '', ( -0.866025403784438, -0.500000000000000, 0.000000000000000 ) );
#245 = DIRECTION( '', ( 0.500000000000000, -0.866025403784438, 0.000000000000000 ) );
#246 = SURFACE_STYLE_FILL_AREA( #331 );
#247 = ORIENTED_EDGE( '', *, *, #332, .T. );
#248 = CARTESIAN_POINT( '', ( 1.15681633248879E-015, 0.000000000000000, 0.000000000000000 ) );
#249 = DIRECTION( '', ( 0.000000000000000, 0.000000000000000, 1.00000000000000 ) );
#250 = DIRECTION( '', ( 1.00000000000000, 0.000000000000000, 0.000000000000000 ) );
#251 = SURFACE_STYLE_FILL_AREA( #333 );
#252 = ORIENTED_EDGE( '', *, *, #332, .F. );
#253 = ORIENTED_EDGE( '', *, *, #334, .F. );
#254 = CARTESIAN_POINT( '', ( 0.000000000000000, 0.000000000000000, 2.00000000000000 ) );
#255 = DIRECTION( '', ( 0.000000000000000, 0.000000000000000, 1.00000000000000 ) );
#256 = DIRECTION( '', ( 1.00000000000000, 0.000000000000000, 0.000000000000000 ) );
#257 = SURFACE_STYLE_FILL_AREA( #335 );
#258 = ORIENTED_EDGE( '', *, *, #334, .T. );
#259 = ORIENTED_EDGE( '', *, *, #336, .T. );
#260 = CARTESIAN_POINT( '', ( 0.000000000000000, 0.000000000000000, 57.1500000000000 ) );
#261 = DIRECTION( '', ( -0.000000000000000, -0.000000000000000, -1.00000000000000 ) );
#262 = DIRECTION( '', ( 1.00000000000000, 0.000000000000000, 0.000000000000000 ) );
#263 = SURFACE_STYLE_FILL_AREA( #337 );
#264 = ORIENTED_EDGE( '', *, *, #338, .T. );
#265 = ORIENTED_EDGE( '', *, *, #308, .F. );
#266 = ORIENTED_EDGE( '', *, *, #329, .F. );
#267 = ORIENTED_EDGE( '', *, *, #339, .F. );
#268 = ORIENTED_EDGE( '', *, *, #340, .F. );
#269 = ORIENTED_EDGE( '', *, *, #320, .F. );
#270 = ORIENTED_EDGE( '', *, *, #316, .F. );
#271 = CARTESIAN_POINT( '', ( 20.0000000000000, 0.000000000000000, 9.00000000000000 ) );
#272 = DIRECTION( '', ( 0.000000000000000, 0.000000000000000, -1.00000000000000 ) );
#273 = DIRECTION( '', ( -1.00000000000000, 0.000000000000000, 0.000000000000000 ) );
#274 = SURFACE_STYLE_FILL_AREA( #341 );
#275 = ORIENTED_EDGE( '', *, *, #340, .T. );
#276 = ORIENTED_EDGE( '', *, *, #342, .F. );
#277 = ORIENTED_EDGE( '', *, *, #324, .F. );
#278 = ORIENTED_EDGE( '', *, *, #321, .T. );
#279 = CARTESIAN_POINT( '', ( -4.90747728811183, -8.50000000000000, 14.0000000000000 ) );
#280 = DIRECTION( '', ( 1.23720025778354E-015, 1.00000000000000, 0.000000000000000 ) );
#281 = DIRECTION( '', ( -1.00000000000000, 1.23720025778354E-015, 0.000000000000000 ) );
#282 = SURFACE_STYLE_FILL_AREA( #343 );
#283 = ORIENTED_EDGE( '', *, *, #314, .T. );
#284 = CARTESIAN_POINT( '', ( 2.34736656052699E-017, 4.87212438141176E-017, 46.0000000000000 ) );
#285 = DIRECTION( '', ( 0.000000000000000, 0.000000000000000, 1.00000000000000 ) );
#286 = DIRECTION( '', ( 1.00000000000000, 0.000000000000000, 0.000000000000000 ) );
#287 = SURFACE_STYLE_FILL_AREA( #344 );
#288 = ORIENTED_EDGE( '', *, *, #336, .F. );
#289 = ORIENTED_EDGE( '', *, *, #338, .F. );
#290 = CARTESIAN_POINT( '', ( 0.000000000000000, 0.000000000000000, 7.00000000000000 ) );
#291 = DIRECTION( '', ( 0.000000000000000, 0.000000000000000, -1.00000000000000 ) );
#292 = DIRECTION( '', ( -1.00000000000000, 0.000000000000000, 0.000000000000000 ) );
#293 = SURFACE_STYLE_FILL_AREA( #345 );
#294 = ORIENTED_EDGE( '', *, *, #339, .T. );
#295 = ORIENTED_EDGE( '', *, *, #330, .F. );
#296 = ORIENTED_EDGE( '', *, *, #325, .F. );
#297 = ORIENTED_EDGE( '', *, *, #342, .T. );
#298 = CARTESIAN_POINT( '', ( 4.90747728811183, -8.50000000000000, 14.0000000000000 ) );
#299 = DIRECTION( '', ( -0.866025403784439, 0.500000000000000, 0.000000000000000 ) );
#300 = DIRECTION( '', ( -0.500000000000000, -0.866025403784439, 0.000000000000000 ) );
#301 = SURFACE_STYLE_FILL_AREA( #346 );
#302 = ORIENTED_EDGE( '', *, *, #313, .T. );
#303 = ORIENTED_EDGE( '', *, *, #327, .T. );
#304 = CARTESIAN_POINT( '', ( 2.34736656052699E-017, 4.87212438141176E-017, 46.0000000000000 ) );
#305 = DIRECTION( '', ( -0.000000000000000, -0.000000000000000, 1.00000000000000 ) );
#306 = DIRECTION( '', ( -1.00000000000000, 0.000000000000000, 0.000000000000000 ) );
#307 = FILL_AREA_STYLE( '', ( #347 ) );
#308 = EDGE_CURVE( '', #348, #349, #350, .T. );
#309 = EDGE_CURVE( '', #351, #349, #352, .T. );
#310 = EDGE_CURVE( '', #353, #351, #354, .T. );
#311 = EDGE_CURVE( '', #353, #348, #355, .T. );
#312 = FILL_AREA_STYLE( '', ( #356 ) );
#313 = EDGE_CURVE( '', #357, #357, #358, .F. );
#314 = EDGE_CURVE( '', #359, #359, #360, .T. );
#315 = FILL_AREA_STYLE( '', ( #361 ) );
#316 = EDGE_CURVE( '', #349, #362, #363, .T. );
#317 = EDGE_CURVE( '', #364, #362, #365, .T. );
#318 = EDGE_CURVE( '', #351, #364, #366, .T. );
#319 = FILL_AREA_STYLE( '', ( #367 ) );
#320 = EDGE_CURVE( '', #362, #368, #369, .T. );
#321 = EDGE_CURVE( '', #370, #368, #371, .T. );
#322 = EDGE_CURVE( '', #364, #370, #372, .T. );
#323 = FILL_AREA_STYLE( '', ( #373 ) );
#324 = EDGE_CURVE( '', #370, #374, #375, .T. );
#325 = EDGE_CURVE( '', #374, #376, #377, .T. );
#326 = EDGE_CURVE( '', #376, #353, #378, .T. );
#327 = EDGE_CURVE( '', #379, #379, #380, .T. );
#328 = FILL_AREA_STYLE( '', ( #381 ) );
#329 = EDGE_CURVE( '', #382, #348, #383, .T. );
#330 = EDGE_CURVE( '', #376, #382, #384, .T. );
#331 = FILL_AREA_STYLE( '', ( #385 ) );
#332 = EDGE_CURVE( '', #386, #386, #387, .F. );
#333 = FILL_AREA_STYLE( '', ( #388 ) );
#334 = EDGE_CURVE( '', #389, #389, #390, .T. );
#335 = FILL_AREA_STYLE( '', ( #391 ) );
#336 = EDGE_CURVE( '', #392, #392, #393, .T. );
#337 = FILL_AREA_STYLE( '', ( #394 ) );
#338 = EDGE_CURVE( '', #395, #395, #396, .F. );
#339 = EDGE_CURVE( '', #397, #382, #398, .T. );
#340 = EDGE_CURVE( '', #368, #397, #399, .T. );
#341 = FILL_AREA_STYLE( '', ( #400 ) );
#342 = EDGE_CURVE( '', #374, #397, #401, .T. );
#343 = FILL_AREA_STYLE( '', ( #402 ) );
#344 = FILL_AREA_STYLE( '', ( #403 ) );
#345 = FILL_AREA_STYLE( '', ( #404 ) );
#346 = FILL_AREA_STYLE( '', ( #405 ) );
#347 = FILL_AREA_STYLE_COLOUR( '', #406 );
#348 = VERTEX_POINT( '', #407 );
#349 = VERTEX_POINT( '', #408 );
#350 = LINE( '', #409, #410 );
#351 = VERTEX_POINT( '', #411 );
#352 = LINE( '', #412, #413 );
#353 = VERTEX_POINT( '', #414 );
#354 = LINE( '', #415, #416 );
#355 = LINE( '', #417, #418 );
#356 = FILL_AREA_STYLE_COLOUR( '', #419 );
#357 = VERTEX_POINT( '', #420 );
#358 = CIRCLE( '', #421, 5.00000000000000 );
#359 = VERTEX_POINT( '', #422 );
#360 = CIRCLE( '', #423, 4.00000000000000 );
#361 = FILL_AREA_STYLE_COLOUR( '', #424 );
#362 = VERTEX_POINT( '', #425 );
#363 = LINE( '', #426, #427 );
#364 = VERTEX_POINT( '', #428 );
#365 = LINE( '', #429, #430 );
#366 = LINE( '', #431, #432 );
#367 = FILL_AREA_STYLE_COLOUR( '', #433 );
#368 = VERTEX_POINT( '', #434 );
#369 = LINE( '', #435, #436 );
#370 = VERTEX_POINT( '', #437 );
#371 = LINE( '', #438, #439 );
#372 = LINE( '', #440, #441 );
#373 = FILL_AREA_STYLE_COLOUR( '', #442 );
#374 = VERTEX_POINT( '', #443 );
#375 = LINE( '', #444, #445 );
#376 = VERTEX_POINT( '', #446 );
#377 = LINE( '', #447, #448 );
#378 = LINE( '', #449, #450 );
#379 = VERTEX_POINT( '', #451 );
#380 = CIRCLE( '', #452, 5.00000000000000 );
#381 = FILL_AREA_STYLE_COLOUR( '', #453 );
#382 = VERTEX_POINT( '', #454 );
#383 = LINE( '', #455, #456 );
#384 = LINE( '', #457, #458 );
#385 = FILL_AREA_STYLE_COLOUR( '', #459 );
#386 = VERTEX_POINT( '', #460 );
#387 = CIRCLE( '', #461, 18.0000000000000 );
#388 = FILL_AREA_STYLE_COLOUR( '', #462 );
#389 = VERTEX_POINT( '', #463 );
#390 = CIRCLE( '', #464, 20.0000000000000 );
#391 = FILL_AREA_STYLE_COLOUR( '', #465 );
#392 = VERTEX_POINT( '', #466 );
#393 = CIRCLE( '', #467, 20.0000000000000 );
#394 = FILL_AREA_STYLE_COLOUR( '', #468 );
#395 = VERTEX_POINT( '', #469 );
#396 = CIRCLE( '', #470, 18.0000000000000 );
#397 = VERTEX_POINT( '', #471 );
#398 = LINE( '', #472, #473 );
#399 = LINE( '', #474, #475 );
#400 = FILL_AREA_STYLE_COLOUR( '', #476 );
#401 = LINE( '', #477, #478 );
#402 = FILL_AREA_STYLE_COLOUR( '', #479 );
#403 = FILL_AREA_STYLE_COLOUR( '', #480 );
#404 = FILL_AREA_STYLE_COLOUR( '', #481 );
#405 = FILL_AREA_STYLE_COLOUR( '', #482 );
#406 = COLOUR_RGB( '', 0.200000002980232, 0.200000002980232, 0.200000002980232 );
#407 = CARTESIAN_POINT( '', ( 4.90747728811183, 8.50000000000000, 9.00000000000000 ) );
#408 = CARTESIAN_POINT( '', ( -4.90747728811182, 8.50000000000000, 9.00000000000000 ) );
#409 = CARTESIAN_POINT( '', ( 4.90747728811183, 8.50000000000000, 9.00000000000000 ) );
#410 = VECTOR( '', #483, 1000.00000000000 );
#411 = CARTESIAN_POINT( '', ( -4.90747728811182, 8.50000000000000, 14.0000000000000 ) );
#412 = CARTESIAN_POINT( '', ( -4.90747728811182, 8.50000000000000, 14.0000000000000 ) );
#413 = VECTOR( '', #484, 1000.00000000000 );
#414 = CARTESIAN_POINT( '', ( 4.90747728811183, 8.50000000000000, 14.0000000000000 ) );
#415 = CARTESIAN_POINT( '', ( 4.90747728811183, 8.50000000000000, 14.0000000000000 ) );
#416 = VECTOR( '', #485, 1000.00000000000 );
#417 = CARTESIAN_POINT( '', ( 4.90747728811183, 8.50000000000000, 14.0000000000000 ) );
#418 = VECTOR( '', #486, 1000.00000000000 );
#419 = COLOUR_RGB( '', 0.200000002980232, 0.200000002980232, 0.200000002980232 );
#420 = CARTESIAN_POINT( '', ( 5.00000000000000, 4.87212438141176E-017, 45.0000000000000 ) );
#421 = AXIS2_PLACEMENT_3D( '', #487, #488, #489 );
#422 = CARTESIAN_POINT( '', ( 4.00000000000000, 4.87212438141176E-017, 46.0000000000000 ) );
#423 = AXIS2_PLACEMENT_3D( '', #490, #491, #492 );
#424 = COLOUR_RGB( '', 0.200000002980232, 0.200000002980232, 0.200000002980232 );
#425 = CARTESIAN_POINT( '', ( -9.81495457622365, 2.08166817117217E-014, 9.00000000000000 ) );
#426 = CARTESIAN_POINT( '', ( -4.90747728811182, 8.50000000000000, 9.00000000000000 ) );
#427 = VECTOR( '', #493, 999.999999999999 );
#428 = CARTESIAN_POINT( '', ( -9.81495457622365, 2.08166817117217E-014, 14.0000000000000 ) );
#429 = CARTESIAN_POINT( '', ( -9.81495457622365, 2.08166817117217E-014, 14.0000000000000 ) );
#430 = VECTOR( '', #494, 1000.00000000000 );
#431 = CARTESIAN_POINT( '', ( -4.90747728811182, 8.50000000000000, 14.0000000000000 ) );
#432 = VECTOR( '', #495, 999.999999999999 );
#433 = COLOUR_RGB( '', 0.200000002980232, 0.200000002980232, 0.200000002980232 );
#434 = CARTESIAN_POINT( '', ( -4.90747728811182, -8.50000000000000, 9.00000000000000 ) );
#435 = CARTESIAN_POINT( '', ( -9.81495457622365, 2.10796063941020E-014, 9.00000000000000 ) );
#436 = VECTOR( '', #496, 1000.00000000000 );
#437 = CARTESIAN_POINT( '', ( -4.90747728811183, -8.50000000000000, 14.0000000000000 ) );
#438 = CARTESIAN_POINT( '', ( -4.90747728811183, -8.50000000000000, 14.0000000000000 ) );
#439 = VECTOR( '', #497, 1000.00000000000 );
#440 = CARTESIAN_POINT( '', ( -9.81495457622365, 2.10796063941020E-014, 14.0000000000000 ) );
#441 = VECTOR( '', #498, 1000.00000000000 );
#442 = COLOUR_RGB( '', 0.200000002980232, 0.200000002980232, 0.200000002980232 );
#443 = CARTESIAN_POINT( '', ( 4.90747728811183, -8.50000000000000, 14.0000000000000 ) );
#444 = CARTESIAN_POINT( '', ( -4.90747728811183, -8.50000000000000, 14.0000000000000 ) );
#445 = VECTOR( '', #499, 1000.00000000000 );
#446 = CARTESIAN_POINT( '', ( 9.81495457622366, 1.90819582357449E-014, 14.0000000000000 ) );
#447 = CARTESIAN_POINT( '', ( 4.90747728811183, -8.50000000000000, 14.0000000000000 ) );
#448 = VECTOR( '', #500, 1000.00000000000 );
#449 = CARTESIAN_POINT( '', ( 9.81495457622366, 1.98776211235471E-014, 14.0000000000000 ) );
#450 = VECTOR( '', #501, 999.999999999999 );
#451 = CARTESIAN_POINT( '', ( 2.50000000000000, 4.33012701892220, 14.0000000000000 ) );
#452 = AXIS2_PLACEMENT_3D( '', #502, #503, #504 );
#453 = COLOUR_RGB( '', 0.200000002980232, 0.200000002980232, 0.200000002980232 );
#454 = CARTESIAN_POINT( '', ( 9.81495457622366, 1.99493199737333E-014, 9.00000000000000 ) );
#455 = CARTESIAN_POINT( '', ( 9.81495457622366, 1.98776211235471E-014, 9.00000000000000 ) );
#456 = VECTOR( '', #505, 999.999999999999 );
#457 = CARTESIAN_POINT( '', ( 9.81495457622366, 1.90819582357449E-014, 14.0000000000000 ) );
#458 = VECTOR( '', #506, 1000.00000000000 );
#459 = COLOUR_RGB( '', 0.200000002980232, 0.200000002980232, 0.200000002980232 );
#460 = CARTESIAN_POINT( '', ( 18.0000000000000, 0.000000000000000, 0.000000000000000 ) );
#461 = AXIS2_PLACEMENT_3D( '', #507, #508, #509 );
#462 = COLOUR_RGB( '', 0.200000002980232, 0.200000002980232, 0.200000002980232 );
#463 = CARTESIAN_POINT( '', ( 20.0000000000000, 0.000000000000000, 2.00000000000000 ) );
#464 = AXIS2_PLACEMENT_3D( '', #510, #511, #512 );
#465 = COLOUR_RGB( '', 0.200000002980232, 0.200000002980232, 0.200000002980232 );
#466 = CARTESIAN_POINT( '', ( -20.0000000000000, 0.000000000000000, 7.00000000000000 ) );
#467 = AXIS2_PLACEMENT_3D( '', #513, #514, #515 );
#468 = COLOUR_RGB( '', 0.200000002980232, 0.200000002980232, 0.200000002980232 );
#469 = CARTESIAN_POINT( '', ( -18.0000000000000, 0.000000000000000, 9.00000000000000 ) );
#470 = AXIS2_PLACEMENT_3D( '', #516, #517, #518 );
#471 = CARTESIAN_POINT( '', ( 4.90747728811183, -8.50000000000000, 9.00000000000000 ) );
#472 = CARTESIAN_POINT( '', ( 4.90747728811183, -8.50000000000000, 9.00000000000000 ) );
#473 = VECTOR( '', #519, 1000.00000000000 );
#474 = CARTESIAN_POINT( '', ( -4.90747728811183, -8.50000000000000, 9.00000000000000 ) );
#475 = VECTOR( '', #520, 1000.00000000000 );
#476 = COLOUR_RGB( '', 0.200000002980232, 0.200000002980232, 0.200000002980232 );
#477 = CARTESIAN_POINT( '', ( 4.90747728811183, -8.50000000000000, 14.0000000000000 ) );
#478 = VECTOR( '', #521, 1000.00000000000 );
#479 = COLOUR_RGB( '', 0.200000002980232, 0.200000002980232, 0.200000002980232 );
#480 = COLOUR_RGB( '', 0.200000002980232, 0.200000002980232, 0.200000002980232 );
#481 = COLOUR_RGB( '', 0.200000002980232, 0.200000002980232, 0.200000002980232 );
#482 = COLOUR_RGB( '', 0.752941191196442, 0.752941191196442, 0.752941191196442 );
#483 = DIRECTION( '', ( -1.00000000000000, 0.000000000000000, 0.000000000000000 ) );
#484 = DIRECTION( '', ( 0.000000000000000, 0.000000000000000, -1.00000000000000 ) );
#485 = DIRECTION( '', ( -1.00000000000000, 0.000000000000000, 0.000000000000000 ) );
#486 = DIRECTION( '', ( 0.000000000000000, 0.000000000000000, -1.00000000000000 ) );
#487 = CARTESIAN_POINT( '', ( 2.34736656052699E-017, 4.87212438141176E-017, 45.0000000000000 ) );
#488 = DIRECTION( '', ( 0.000000000000000, 0.000000000000000, 1.00000000000000 ) );
#489 = DIRECTION( '', ( 1.00000000000000, 0.000000000000000, 0.000000000000000 ) );
#490 = CARTESIAN_POINT( '', ( 2.34736656052699E-017, 4.87212438141176E-017, 46.0000000000000 ) );
#491 = DIRECTION( '', ( 0.000000000000000, 0.000000000000000, 1.00000000000000 ) );
#492 = DIRECTION( '', ( 1.00000000000000, 0.000000000000000, 0.000000000000000 ) );
#493 = DIRECTION( '', ( -0.500000000000000, -0.866025403784438, 0.000000000000000 ) );
#494 = DIRECTION( '', ( 0.000000000000000, 0.000000000000000, -1.00000000000000 ) );
#495 = DIRECTION( '', ( -0.500000000000000, -0.866025403784438, 0.000000000000000 ) );
#496 = DIRECTION( '', ( 0.500000000000000, -0.866025403784439, 0.000000000000000 ) );
#497 = DIRECTION( '', ( 0.000000000000000, 0.000000000000000, -1.00000000000000 ) );
#498 = DIRECTION( '', ( 0.500000000000000, -0.866025403784439, 0.000000000000000 ) );
#499 = DIRECTION( '', ( 1.00000000000000, -1.23720025778354E-015, 0.000000000000000 ) );
#500 = DIRECTION( '', ( 0.500000000000000, 0.866025403784439, 0.000000000000000 ) );
#501 = DIRECTION( '', ( -0.500000000000000, 0.866025403784438, 0.000000000000000 ) );
#502 = CARTESIAN_POINT( '', ( 2.34736656052699E-017, 4.87212438141176E-017, 14.0000000000000 ) );
#503 = DIRECTION( '', ( 0.000000000000000, -0.000000000000000, 1.00000000000000 ) );
#504 = DIRECTION( '', ( 0.500000000000000, 0.866025403784439, 0.000000000000000 ) );
#505 = DIRECTION( '', ( -0.500000000000000, 0.866025403784438, 0.000000000000000 ) );
#506 = DIRECTION( '', ( 0.000000000000000, 0.000000000000000, -1.00000000000000 ) );
#507 = CARTESIAN_POINT( '', ( 0.000000000000000, 0.000000000000000, 0.000000000000000 ) );
#508 = DIRECTION( '', ( 0.000000000000000, 0.000000000000000, 1.00000000000000 ) );
#509 = DIRECTION( '', ( 1.00000000000000, 0.000000000000000, 0.000000000000000 ) );
#510 = CARTESIAN_POINT( '', ( 0.000000000000000, 0.000000000000000, 2.00000000000000 ) );
#511 = DIRECTION( '', ( 0.000000000000000, 0.000000000000000, 1.00000000000000 ) );
#512 = DIRECTION( '', ( 1.00000000000000, 0.000000000000000, 0.000000000000000 ) );
#513 = CARTESIAN_POINT( '', ( 0.000000000000000, 0.000000000000000, 7.00000000000000 ) );
#514 = DIRECTION( '', ( 0.000000000000000, 0.000000000000000, -1.00000000000000 ) );
#515 = DIRECTION( '', ( -1.00000000000000, 0.000000000000000, 0.000000000000000 ) );
#516 = CARTESIAN_POINT( '', ( 0.000000000000000, 0.000000000000000, 9.00000000000000 ) );
#517 = DIRECTION( '', ( 0.000000000000000, 0.000000000000000, -1.00000000000000 ) );
#518 = DIRECTION( '', ( -1.00000000000000, 0.000000000000000, 0.000000000000000 ) );
#519 = DIRECTION( '', ( 0.500000000000000, 0.866025403784439, 0.000000000000000 ) );
#520 = DIRECTION( '', ( 1.00000000000000, -1.23720025778354E-015, 0.000000000000000 ) );
#521 = DIRECTION( '', ( 0.000000000000000, 0.000000000000000, -1.00000000000000 ) );
ENDSEC;
END-ISO-10303-21;
