ISO-10303-21;
HEADER;
FILE_DESCRIPTION( ( 'Unknown' ), '1' );
FILE_NAME( '//SBS2003/HD_Usb/Disegni/08_LIB/Users_3D/PROD_GAMM_3D/PRMES/7322077.stp', 'Unknown', ( 'Unknown' ), ( 'Unknown' ), 'PSStep 14.0', 'Unknown', '  ' );
FILE_SCHEMA( ( 'AUTOMOTIVE_DESIGN { 1 0 10303 214 1 1 1 1 }' ) );
ENDSEC;
DATA;
#1 = MECHANICAL_DESIGN_GEOMETRIC_PRESENTATION_REPRESENTATION( ' ', ( #10, #11, #12, #13, #14, #15, #16, #17, #18, #19, #20, #21, #22, #23, #24 ), #6 );
#2 = PRODUCT_DEFINITION_CONTEXT( '', #25, 'design' );
#3 = APPLICATION_PROTOCOL_DEFINITION( 'international standard', 'automotive_design', 2001, #25 );
#4 = PRODUCT_CATEGORY_RELATIONSHIP( 'NONE', 'NONE', #26, #27 );
#5 = SHAPE_DEFINITION_REPRESENTATION( #28, #29 );
#6 =  ( GEOMETRIC_REPRESENTATION_CONTEXT( 3 )GLOBAL_UNCERTAINTY_ASSIGNED_CONTEXT( ( #32 ) )GLOBAL_UNIT_ASSIGNED_CONTEXT( ( #34, #35, #36 ) )REPRESENTATION_CONTEXT( 'NONE', 'WORKSPACE' ) );
#10 = STYLED_ITEM( '', ( #38 ), #39 );
#11 = STYLED_ITEM( '', ( #40 ), #41 );
#12 = STYLED_ITEM( '', ( #42 ), #43 );
#13 = STYLED_ITEM( '', ( #44 ), #45 );
#14 = STYLED_ITEM( '', ( #46 ), #47 );
#15 = STYLED_ITEM( '', ( #48 ), #49 );
#16 = STYLED_ITEM( '', ( #50 ), #51 );
#17 = STYLED_ITEM( '', ( #52 ), #53 );
#18 = STYLED_ITEM( '', ( #54 ), #55 );
#19 = STYLED_ITEM( '', ( #56 ), #57 );
#20 = STYLED_ITEM( '', ( #58 ), #59 );
#21 = STYLED_ITEM( '', ( #60 ), #61 );
#22 = STYLED_ITEM( '', ( #62 ), #63 );
#23 = STYLED_ITEM( '', ( #64 ), #65 );
#24 = STYLED_ITEM( '', ( #66 ), #67 );
#25 = APPLICATION_CONTEXT( 'core data for automotive mechanical design processes' );
#26 = PRODUCT_CATEGORY( 'part', 'NONE' );
#27 = PRODUCT_RELATED_PRODUCT_CATEGORY( 'detail', ' ', ( #68 ) );
#28 = PRODUCT_DEFINITION_SHAPE( 'NONE', 'NONE', #69 );
#29 = ADVANCED_BREP_SHAPE_REPRESENTATION( '1', ( #70, #71 ), #6 );
#32 = UNCERTAINTY_MEASURE_WITH_UNIT( LENGTH_MEASURE( 0.00100000000000000 ), #34, '', '' );
#34 =  ( CONVERSION_BASED_UNIT( 'MILLIMETRE', #74 )LENGTH_UNIT(  )NAMED_UNIT( #77 ) );
#35 =  ( NAMED_UNIT( #79 )PLANE_ANGLE_UNIT(  )SI_UNIT( $, .RADIAN. ) );
#36 =  ( NAMED_UNIT( #79 )SI_UNIT( $, .STERADIAN. )SOLID_ANGLE_UNIT(  ) );
#38 = PRESENTATION_STYLE_ASSIGNMENT( ( #85 ) );
#39 = ADVANCED_FACE( '', ( #86, #87 ), #88, .T. );
#40 = PRESENTATION_STYLE_ASSIGNMENT( ( #89 ) );
#41 = ADVANCED_FACE( '', ( #90, #91 ), #92, .T. );
#42 = PRESENTATION_STYLE_ASSIGNMENT( ( #93 ) );
#43 = ADVANCED_FACE( '', ( #94 ), #95, .F. );
#44 = PRESENTATION_STYLE_ASSIGNMENT( ( #96 ) );
#45 = ADVANCED_FACE( '', ( #97 ), #98, .F. );
#46 = PRESENTATION_STYLE_ASSIGNMENT( ( #99 ) );
#47 = ADVANCED_FACE( '', ( #100 ), #101, .F. );
#48 = PRESENTATION_STYLE_ASSIGNMENT( ( #102 ) );
#49 = ADVANCED_FACE( '', ( #103 ), #104, .F. );
#50 = PRESENTATION_STYLE_ASSIGNMENT( ( #105 ) );
#51 = ADVANCED_FACE( '', ( #106 ), #107, .T. );
#52 = PRESENTATION_STYLE_ASSIGNMENT( ( #108 ) );
#53 = ADVANCED_FACE( '', ( #109 ), #110, .F. );
#54 = PRESENTATION_STYLE_ASSIGNMENT( ( #111 ) );
#55 = ADVANCED_FACE( '', ( #112 ), #113, .F. );
#56 = PRESENTATION_STYLE_ASSIGNMENT( ( #114 ) );
#57 = ADVANCED_FACE( '', ( #115 ), #116, .F. );
#58 = PRESENTATION_STYLE_ASSIGNMENT( ( #117 ) );
#59 = ADVANCED_FACE( '', ( #118, #119 ), #120, .T. );
#60 = PRESENTATION_STYLE_ASSIGNMENT( ( #121 ) );
#61 = ADVANCED_FACE( '', ( #122, #123 ), #124, .T. );
#62 = PRESENTATION_STYLE_ASSIGNMENT( ( #125 ) );
#63 = ADVANCED_FACE( '', ( #126, #127 ), #128, .T. );
#64 = PRESENTATION_STYLE_ASSIGNMENT( ( #129 ) );
#65 = ADVANCED_FACE( '', ( #130, #131 ), #132, .T. );
#66 = PRESENTATION_STYLE_ASSIGNMENT( ( #133 ) );
#67 = ADVANCED_FACE( '', ( #134, #135 ), #136, .F. );
#68 = PRODUCT( '1', '1', 'PART-1-DESC', ( #137 ) );
#69 = PRODUCT_DEFINITION( 'NONE', 'NONE', #138, #2 );
#70 = MANIFOLD_SOLID_BREP( '1', #139 );
#71 = AXIS2_PLACEMENT_3D( '', #140, #141, #142 );
#74 = LENGTH_MEASURE_WITH_UNIT( LENGTH_MEASURE( 1.00000000000000 ), #143 );
#77 = DIMENSIONAL_EXPONENTS( 1.00000000000000, 0.000000000000000, 0.000000000000000, 0.000000000000000, 0.000000000000000, 0.000000000000000, 0.000000000000000 );
#79 = DIMENSIONAL_EXPONENTS( 0.000000000000000, 0.000000000000000, 0.000000000000000, 0.000000000000000, 0.000000000000000, 0.000000000000000, 0.000000000000000 );
#85 = SURFACE_STYLE_USAGE( .BOTH., #144 );
#86 = FACE_OUTER_BOUND( '', #145, .T. );
#87 = FACE_OUTER_BOUND( '', #146, .T. );
#88 = CYLINDRICAL_SURFACE( '', #147, 4.00000000000000 );
#89 = SURFACE_STYLE_USAGE( .BOTH., #148 );
#90 = FACE_OUTER_BOUND( '', #149, .T. );
#91 = FACE_BOUND( '', #150, .T. );
#92 = PLANE( '', #151 );
#93 = SURFACE_STYLE_USAGE( .BOTH., #152 );
#94 = FACE_OUTER_BOUND( '', #153, .T. );
#95 = PLANE( '', #154 );
#96 = SURFACE_STYLE_USAGE( .BOTH., #155 );
#97 = FACE_OUTER_BOUND( '', #156, .T. );
#98 = PLANE( '', #157 );
#99 = SURFACE_STYLE_USAGE( .BOTH., #158 );
#100 = FACE_OUTER_BOUND( '', #159, .T. );
#101 = PLANE( '', #160 );
#102 = SURFACE_STYLE_USAGE( .BOTH., #161 );
#103 = FACE_OUTER_BOUND( '', #162, .T. );
#104 = PLANE( '', #163 );
#105 = SURFACE_STYLE_USAGE( .BOTH., #164 );
#106 = FACE_OUTER_BOUND( '', #165, .T. );
#107 = PLANE( '', #166 );
#108 = SURFACE_STYLE_USAGE( .BOTH., #167 );
#109 = FACE_OUTER_BOUND( '', #168, .T. );
#110 = PLANE( '', #169 );
#111 = SURFACE_STYLE_USAGE( .BOTH., #170 );
#112 = FACE_OUTER_BOUND( '', #171, .T. );
#113 = PLANE( '', #172 );
#114 = SURFACE_STYLE_USAGE( .BOTH., #173 );
#115 = FACE_OUTER_BOUND( '', #174, .T. );
#116 = PLANE( '', #175 );
#117 = SURFACE_STYLE_USAGE( .BOTH., #176 );
#118 = FACE_OUTER_BOUND( '', #177, .T. );
#119 = FACE_OUTER_BOUND( '', #178, .T. );
#120 = TOROIDAL_SURFACE( '', #179, 22.5000000000000, 2.50000000000000 );
#121 = SURFACE_STYLE_USAGE( .BOTH., #180 );
#122 = FACE_OUTER_BOUND( '', #181, .T. );
#123 = FACE_OUTER_BOUND( '', #182, .T. );
#124 = TOROIDAL_SURFACE( '', #183, 22.5000000000000, 2.50000000000000 );
#125 = SURFACE_STYLE_USAGE( .BOTH., #184 );
#126 = FACE_OUTER_BOUND( '', #185, .T. );
#127 = FACE_BOUND( '', #186, .T. );
#128 = CONICAL_SURFACE( '', #187, 3.00000000000000, 0.785398163397448 );
#129 = SURFACE_STYLE_USAGE( .BOTH., #188 );
#130 = FACE_OUTER_BOUND( '', #189, .T. );
#131 = FACE_OUTER_BOUND( '', #190, .T. );
#132 = CYLINDRICAL_SURFACE( '', #191, 25.0000000000000 );
#133 = SURFACE_STYLE_USAGE( .BOTH., #192 );
#134 = FACE_OUTER_BOUND( '', #193, .T. );
#135 = FACE_BOUND( '', #194, .T. );
#136 = PLANE( '', #195 );
#137 = PRODUCT_CONTEXT( '', #25, 'mechanical' );
#138 = PRODUCT_DEFINITION_FORMATION_WITH_SPECIFIED_SOURCE( ' ', 'NONE', #68, .NOT_KNOWN. );
#139 = CLOSED_SHELL( '', ( #41, #61, #53, #43, #65, #59, #63, #67, #47, #39, #45, #57, #49, #55, #51 ) );
#140 = CARTESIAN_POINT( '', ( 0.000000000000000, 0.000000000000000, 0.000000000000000 ) );
#141 = DIRECTION( '', ( 0.000000000000000, 0.000000000000000, 1.00000000000000 ) );
#142 = DIRECTION( '', ( 1.00000000000000, 0.000000000000000, 0.000000000000000 ) );
#143 =  ( LENGTH_UNIT(  )NAMED_UNIT( #77 )SI_UNIT( .MILLI., .METRE. ) );
#144 = SURFACE_SIDE_STYLE( '', ( #197 ) );
#145 = EDGE_LOOP( '', ( #198 ) );
#146 = EDGE_LOOP( '', ( #199 ) );
#147 = AXIS2_PLACEMENT_3D( '', #200, #201, #202 );
#148 = SURFACE_SIDE_STYLE( '', ( #203 ) );
#149 = EDGE_LOOP( '', ( #204, #205, #206, #207, #208, #209 ) );
#150 = EDGE_LOOP( '', ( #210 ) );
#151 = AXIS2_PLACEMENT_3D( '', #211, #212, #213 );
#152 = SURFACE_SIDE_STYLE( '', ( #214 ) );
#153 = EDGE_LOOP( '', ( #215, #216, #217, #218 ) );
#154 = AXIS2_PLACEMENT_3D( '', #219, #220, #221 );
#155 = SURFACE_SIDE_STYLE( '', ( #222 ) );
#156 = EDGE_LOOP( '', ( #223, #224, #225, #226 ) );
#157 = AXIS2_PLACEMENT_3D( '', #227, #228, #229 );
#158 = SURFACE_SIDE_STYLE( '', ( #230 ) );
#159 = EDGE_LOOP( '', ( #231 ) );
#160 = AXIS2_PLACEMENT_3D( '', #232, #233, #234 );
#161 = SURFACE_SIDE_STYLE( '', ( #235 ) );
#162 = EDGE_LOOP( '', ( #236, #237, #238, #239 ) );
#163 = AXIS2_PLACEMENT_3D( '', #240, #241, #242 );
#164 = SURFACE_SIDE_STYLE( '', ( #243 ) );
#165 = EDGE_LOOP( '', ( #244 ) );
#166 = AXIS2_PLACEMENT_3D( '', #245, #246, #247 );
#167 = SURFACE_SIDE_STYLE( '', ( #248 ) );
#168 = EDGE_LOOP( '', ( #249, #250, #251, #252 ) );
#169 = AXIS2_PLACEMENT_3D( '', #253, #254, #255 );
#170 = SURFACE_SIDE_STYLE( '', ( #256 ) );
#171 = EDGE_LOOP( '', ( #257, #258, #259, #260 ) );
#172 = AXIS2_PLACEMENT_3D( '', #261, #262, #263 );
#173 = SURFACE_SIDE_STYLE( '', ( #264 ) );
#174 = EDGE_LOOP( '', ( #265, #266, #267, #268 ) );
#175 = AXIS2_PLACEMENT_3D( '', #269, #270, #271 );
#176 = SURFACE_SIDE_STYLE( '', ( #272 ) );
#177 = EDGE_LOOP( '', ( #273 ) );
#178 = EDGE_LOOP( '', ( #274 ) );
#179 = AXIS2_PLACEMENT_3D( '', #275, #276, #277 );
#180 = SURFACE_SIDE_STYLE( '', ( #278 ) );
#181 = EDGE_LOOP( '', ( #279 ) );
#182 = EDGE_LOOP( '', ( #280 ) );
#183 = AXIS2_PLACEMENT_3D( '', #281, #282, #283 );
#184 = SURFACE_SIDE_STYLE( '', ( #284 ) );
#185 = EDGE_LOOP( '', ( #285 ) );
#186 = EDGE_LOOP( '', ( #286 ) );
#187 = AXIS2_PLACEMENT_3D( '', #287, #288, #289 );
#188 = SURFACE_SIDE_STYLE( '', ( #290 ) );
#189 = EDGE_LOOP( '', ( #291 ) );
#190 = EDGE_LOOP( '', ( #292 ) );
#191 = AXIS2_PLACEMENT_3D( '', #293, #294, #295 );
#192 = SURFACE_SIDE_STYLE( '', ( #296 ) );
#193 = EDGE_LOOP( '', ( #297 ) );
#194 = EDGE_LOOP( '', ( #298, #299, #300, #301, #302, #303 ) );
#195 = AXIS2_PLACEMENT_3D( '', #304, #305, #306 );
#197 = SURFACE_STYLE_FILL_AREA( #307 );
#198 = ORIENTED_EDGE( '', *, *, #308, .T. );
#199 = ORIENTED_EDGE( '', *, *, #309, .T. );
#200 = CARTESIAN_POINT( '', ( 2.34736656052699E-017, 4.87212438141176E-017, 37.0000000000000 ) );
#201 = DIRECTION( '', ( -0.000000000000000, -0.000000000000000, 1.00000000000000 ) );
#202 = DIRECTION( '', ( -1.00000000000000, 0.000000000000000, 0.000000000000000 ) );
#203 = SURFACE_STYLE_FILL_AREA( #310 );
#204 = ORIENTED_EDGE( '', *, *, #311, .T. );
#205 = ORIENTED_EDGE( '', *, *, #312, .T. );
#206 = ORIENTED_EDGE( '', *, *, #313, .T. );
#207 = ORIENTED_EDGE( '', *, *, #314, .T. );
#208 = ORIENTED_EDGE( '', *, *, #315, .T. );
#209 = ORIENTED_EDGE( '', *, *, #316, .T. );
#210 = ORIENTED_EDGE( '', *, *, #309, .F. );
#211 = CARTESIAN_POINT( '', ( 0.000000000000000, 0.000000000000000, 15.0000000000000 ) );
#212 = DIRECTION( '', ( 0.000000000000000, 0.000000000000000, 1.00000000000000 ) );
#213 = DIRECTION( '', ( 1.00000000000000, 0.000000000000000, 0.000000000000000 ) );
#214 = SURFACE_STYLE_FILL_AREA( #317 );
#215 = ORIENTED_EDGE( '', *, *, #318, .T. );
#216 = ORIENTED_EDGE( '', *, *, #319, .F. );
#217 = ORIENTED_EDGE( '', *, *, #311, .F. );
#218 = ORIENTED_EDGE( '', *, *, #320, .T. );
#219 = CARTESIAN_POINT( '', ( 4.90747728811183, 8.50000000000000, 15.0000000000000 ) );
#220 = DIRECTION( '', ( 0.000000000000000, -1.00000000000000, 0.000000000000000 ) );
#221 = DIRECTION( '', ( 0.000000000000000, 0.000000000000000, -1.00000000000000 ) );
#222 = SURFACE_STYLE_FILL_AREA( #321 );
#223 = ORIENTED_EDGE( '', *, *, #322, .T. );
#224 = ORIENTED_EDGE( '', *, *, #320, .F. );
#225 = ORIENTED_EDGE( '', *, *, #316, .F. );
#226 = ORIENTED_EDGE( '', *, *, #323, .T. );
#227 = CARTESIAN_POINT( '', ( 9.81495457622366, 1.98776211235471E-014, 15.0000000000000 ) );
#228 = DIRECTION( '', ( -0.866025403784438, -0.500000000000000, 0.000000000000000 ) );
#229 = DIRECTION( '', ( 0.500000000000000, -0.866025403784438, 0.000000000000000 ) );
#230 = SURFACE_STYLE_FILL_AREA( #324 );
#231 = ORIENTED_EDGE( '', *, *, #325, .T. );
#232 = CARTESIAN_POINT( '', ( 1.15681633248879E-015, 0.000000000000000, 0.000000000000000 ) );
#233 = DIRECTION( '', ( 0.000000000000000, 0.000000000000000, 1.00000000000000 ) );
#234 = DIRECTION( '', ( 1.00000000000000, 0.000000000000000, 0.000000000000000 ) );
#235 = SURFACE_STYLE_FILL_AREA( #326 );
#236 = ORIENTED_EDGE( '', *, *, #327, .T. );
#237 = ORIENTED_EDGE( '', *, *, #328, .F. );
#238 = ORIENTED_EDGE( '', *, *, #314, .F. );
#239 = ORIENTED_EDGE( '', *, *, #329, .T. );
#240 = CARTESIAN_POINT( '', ( -4.90747728811183, -8.50000000000000, 15.0000000000000 ) );
#241 = DIRECTION( '', ( 1.23720025778354E-015, 1.00000000000000, 0.000000000000000 ) );
#242 = DIRECTION( '', ( -1.00000000000000, 1.23720025778354E-015, 0.000000000000000 ) );
#243 = SURFACE_STYLE_FILL_AREA( #330 );
#244 = ORIENTED_EDGE( '', *, *, #331, .T. );
#245 = CARTESIAN_POINT( '', ( 2.34736656052699E-017, 4.87212438141176E-017, 37.0000000000000 ) );
#246 = DIRECTION( '', ( 0.000000000000000, 0.000000000000000, 1.00000000000000 ) );
#247 = DIRECTION( '', ( 1.00000000000000, 0.000000000000000, 0.000000000000000 ) );
#248 = SURFACE_STYLE_FILL_AREA( #332 );
#249 = ORIENTED_EDGE( '', *, *, #333, .T. );
#250 = ORIENTED_EDGE( '', *, *, #334, .F. );
#251 = ORIENTED_EDGE( '', *, *, #312, .F. );
#252 = ORIENTED_EDGE( '', *, *, #319, .T. );
#253 = CARTESIAN_POINT( '', ( -4.90747728811182, 8.50000000000000, 15.0000000000000 ) );
#254 = DIRECTION( '', ( 0.866025403784438, -0.500000000000000, 0.000000000000000 ) );
#255 = DIRECTION( '', ( 0.500000000000000, 0.866025403784438, 0.000000000000000 ) );
#256 = SURFACE_STYLE_FILL_AREA( #335 );
#257 = ORIENTED_EDGE( '', *, *, #336, .T. );
#258 = ORIENTED_EDGE( '', *, *, #329, .F. );
#259 = ORIENTED_EDGE( '', *, *, #313, .F. );
#260 = ORIENTED_EDGE( '', *, *, #334, .T. );
#261 = CARTESIAN_POINT( '', ( -9.81495457622365, 2.10796063941020E-014, 15.0000000000000 ) );
#262 = DIRECTION( '', ( 0.866025403784439, 0.500000000000000, 0.000000000000000 ) );
#263 = DIRECTION( '', ( -0.500000000000000, 0.866025403784439, 0.000000000000000 ) );
#264 = SURFACE_STYLE_FILL_AREA( #337 );
#265 = ORIENTED_EDGE( '', *, *, #338, .T. );
#266 = ORIENTED_EDGE( '', *, *, #323, .F. );
#267 = ORIENTED_EDGE( '', *, *, #315, .F. );
#268 = ORIENTED_EDGE( '', *, *, #328, .T. );
#269 = CARTESIAN_POINT( '', ( 4.90747728811183, -8.50000000000000, 15.0000000000000 ) );
#270 = DIRECTION( '', ( -0.866025403784439, 0.500000000000000, 0.000000000000000 ) );
#271 = DIRECTION( '', ( -0.500000000000000, -0.866025403784439, 0.000000000000000 ) );
#272 = SURFACE_STYLE_FILL_AREA( #339 );
#273 = ORIENTED_EDGE( '', *, *, #340, .F. );
#274 = ORIENTED_EDGE( '', *, *, #341, .F. );
#275 = CARTESIAN_POINT( '', ( 0.000000000000000, 0.000000000000000, 7.50000000000000 ) );
#276 = DIRECTION( '', ( 0.000000000000000, 0.000000000000000, -1.00000000000000 ) );
#277 = DIRECTION( '', ( -1.00000000000000, 0.000000000000000, 0.000000000000000 ) );
#278 = SURFACE_STYLE_FILL_AREA( #342 );
#279 = ORIENTED_EDGE( '', *, *, #325, .F. );
#280 = ORIENTED_EDGE( '', *, *, #343, .F. );
#281 = CARTESIAN_POINT( '', ( 0.000000000000000, 0.000000000000000, 2.50000000000000 ) );
#282 = DIRECTION( '', ( 0.000000000000000, 0.000000000000000, 1.00000000000000 ) );
#283 = DIRECTION( '', ( 1.00000000000000, 0.000000000000000, 0.000000000000000 ) );
#284 = SURFACE_STYLE_FILL_AREA( #344 );
#285 = ORIENTED_EDGE( '', *, *, #308, .F. );
#286 = ORIENTED_EDGE( '', *, *, #331, .F. );
#287 = CARTESIAN_POINT( '', ( 2.34736656052699E-017, 4.87212438141176E-017, 37.0000000000000 ) );
#288 = DIRECTION( '', ( -0.000000000000000, 0.000000000000000, -1.00000000000000 ) );
#289 = DIRECTION( '', ( -1.00000000000000, 0.000000000000000, 0.000000000000000 ) );
#290 = SURFACE_STYLE_FILL_AREA( #345 );
#291 = ORIENTED_EDGE( '', *, *, #343, .T. );
#292 = ORIENTED_EDGE( '', *, *, #340, .T. );
#293 = CARTESIAN_POINT( '', ( 0.000000000000000, 0.000000000000000, 57.1500000000000 ) );
#294 = DIRECTION( '', ( -0.000000000000000, -0.000000000000000, -1.00000000000000 ) );
#295 = DIRECTION( '', ( 1.00000000000000, 0.000000000000000, 0.000000000000000 ) );
#296 = SURFACE_STYLE_FILL_AREA( #346 );
#297 = ORIENTED_EDGE( '', *, *, #341, .T. );
#298 = ORIENTED_EDGE( '', *, *, #318, .F. );
#299 = ORIENTED_EDGE( '', *, *, #322, .F. );
#300 = ORIENTED_EDGE( '', *, *, #338, .F. );
#301 = ORIENTED_EDGE( '', *, *, #327, .F. );
#302 = ORIENTED_EDGE( '', *, *, #336, .F. );
#303 = ORIENTED_EDGE( '', *, *, #333, .F. );
#304 = CARTESIAN_POINT( '', ( 25.0000000000000, 0.000000000000000, 10.0000000000000 ) );
#305 = DIRECTION( '', ( 0.000000000000000, 0.000000000000000, -1.00000000000000 ) );
#306 = DIRECTION( '', ( -1.00000000000000, 0.000000000000000, 0.000000000000000 ) );
#307 = FILL_AREA_STYLE( '', ( #347 ) );
#308 = EDGE_CURVE( '', #348, #348, #349, .F. );
#309 = EDGE_CURVE( '', #350, #350, #351, .T. );
#310 = FILL_AREA_STYLE( '', ( #352 ) );
#311 = EDGE_CURVE( '', #353, #354, #355, .T. );
#312 = EDGE_CURVE( '', #354, #356, #357, .T. );
#313 = EDGE_CURVE( '', #356, #358, #359, .T. );
#314 = EDGE_CURVE( '', #358, #360, #361, .T. );
#315 = EDGE_CURVE( '', #360, #362, #363, .T. );
#316 = EDGE_CURVE( '', #362, #353, #364, .T. );
#317 = FILL_AREA_STYLE( '', ( #365 ) );
#318 = EDGE_CURVE( '', #366, #367, #368, .T. );
#319 = EDGE_CURVE( '', #354, #367, #369, .T. );
#320 = EDGE_CURVE( '', #353, #366, #370, .T. );
#321 = FILL_AREA_STYLE( '', ( #371 ) );
#322 = EDGE_CURVE( '', #372, #366, #373, .T. );
#323 = EDGE_CURVE( '', #362, #372, #374, .T. );
#324 = FILL_AREA_STYLE( '', ( #375 ) );
#325 = EDGE_CURVE( '', #376, #376, #377, .F. );
#326 = FILL_AREA_STYLE( '', ( #378 ) );
#327 = EDGE_CURVE( '', #379, #380, #381, .T. );
#328 = EDGE_CURVE( '', #360, #380, #382, .T. );
#329 = EDGE_CURVE( '', #358, #379, #383, .T. );
#330 = FILL_AREA_STYLE( '', ( #384 ) );
#331 = EDGE_CURVE( '', #385, #385, #386, .T. );
#332 = FILL_AREA_STYLE( '', ( #387 ) );
#333 = EDGE_CURVE( '', #367, #388, #389, .T. );
#334 = EDGE_CURVE( '', #356, #388, #390, .T. );
#335 = FILL_AREA_STYLE( '', ( #391 ) );
#336 = EDGE_CURVE( '', #388, #379, #392, .T. );
#337 = FILL_AREA_STYLE( '', ( #393 ) );
#338 = EDGE_CURVE( '', #380, #372, #394, .T. );
#339 = FILL_AREA_STYLE( '', ( #395 ) );
#340 = EDGE_CURVE( '', #396, #396, #397, .T. );
#341 = EDGE_CURVE( '', #398, #398, #399, .F. );
#342 = FILL_AREA_STYLE( '', ( #400 ) );
#343 = EDGE_CURVE( '', #401, #401, #402, .T. );
#344 = FILL_AREA_STYLE( '', ( #403 ) );
#345 = FILL_AREA_STYLE( '', ( #404 ) );
#346 = FILL_AREA_STYLE( '', ( #405 ) );
#347 = FILL_AREA_STYLE_COLOUR( '', #406 );
#348 = VERTEX_POINT( '', #407 );
#349 = CIRCLE( '', #408, 4.00000000000000 );
#350 = VERTEX_POINT( '', #409 );
#351 = CIRCLE( '', #410, 4.00000000000000 );
#352 = FILL_AREA_STYLE_COLOUR( '', #411 );
#353 = VERTEX_POINT( '', #412 );
#354 = VERTEX_POINT( '', #413 );
#355 = LINE( '', #414, #415 );
#356 = VERTEX_POINT( '', #416 );
#357 = LINE( '', #417, #418 );
#358 = VERTEX_POINT( '', #419 );
#359 = LINE( '', #420, #421 );
#360 = VERTEX_POINT( '', #422 );
#361 = LINE( '', #423, #424 );
#362 = VERTEX_POINT( '', #425 );
#363 = LINE( '', #426, #427 );
#364 = LINE( '', #428, #429 );
#365 = FILL_AREA_STYLE_COLOUR( '', #430 );
#366 = VERTEX_POINT( '', #431 );
#367 = VERTEX_POINT( '', #432 );
#368 = LINE( '', #433, #434 );
#369 = LINE( '', #435, #436 );
#370 = LINE( '', #437, #438 );
#371 = FILL_AREA_STYLE_COLOUR( '', #439 );
#372 = VERTEX_POINT( '', #440 );
#373 = LINE( '', #441, #442 );
#374 = LINE( '', #443, #444 );
#375 = FILL_AREA_STYLE_COLOUR( '', #445 );
#376 = VERTEX_POINT( '', #446 );
#377 = CIRCLE( '', #447, 22.5000000000000 );
#378 = FILL_AREA_STYLE_COLOUR( '', #448 );
#379 = VERTEX_POINT( '', #449 );
#380 = VERTEX_POINT( '', #450 );
#381 = LINE( '', #451, #452 );
#382 = LINE( '', #453, #454 );
#383 = LINE( '', #455, #456 );
#384 = FILL_AREA_STYLE_COLOUR( '', #457 );
#385 = VERTEX_POINT( '', #458 );
#386 = CIRCLE( '', #459, 3.00000000000000 );
#387 = FILL_AREA_STYLE_COLOUR( '', #460 );
#388 = VERTEX_POINT( '', #461 );
#389 = LINE( '', #462, #463 );
#390 = LINE( '', #464, #465 );
#391 = FILL_AREA_STYLE_COLOUR( '', #466 );
#392 = LINE( '', #467, #468 );
#393 = FILL_AREA_STYLE_COLOUR( '', #469 );
#394 = LINE( '', #470, #471 );
#395 = FILL_AREA_STYLE_COLOUR( '', #472 );
#396 = VERTEX_POINT( '', #473 );
#397 = CIRCLE( '', #474, 25.0000000000000 );
#398 = VERTEX_POINT( '', #475 );
#399 = CIRCLE( '', #476, 22.5000000000000 );
#400 = FILL_AREA_STYLE_COLOUR( '', #477 );
#401 = VERTEX_POINT( '', #478 );
#402 = CIRCLE( '', #479, 25.0000000000000 );
#403 = FILL_AREA_STYLE_COLOUR( '', #480 );
#404 = FILL_AREA_STYLE_COLOUR( '', #481 );
#405 = FILL_AREA_STYLE_COLOUR( '', #482 );
#406 = COLOUR_RGB( '', 0.752941191196442, 0.752941191196442, 0.752941191196442 );
#407 = CARTESIAN_POINT( '', ( 4.00000000000000, 4.87212438141176E-017, 36.0000000000000 ) );
#408 = AXIS2_PLACEMENT_3D( '', #483, #484, #485 );
#409 = CARTESIAN_POINT( '', ( 2.00000000000000, 3.46410161513776, 15.0000000000000 ) );
#410 = AXIS2_PLACEMENT_3D( '', #486, #487, #488 );
#411 = COLOUR_RGB( '', 0.200000002980232, 0.200000002980232, 0.200000002980232 );
#412 = CARTESIAN_POINT( '', ( 4.90747728811183, 8.50000000000000, 15.0000000000000 ) );
#413 = CARTESIAN_POINT( '', ( -4.90747728811182, 8.50000000000000, 15.0000000000000 ) );
#414 = CARTESIAN_POINT( '', ( 4.90747728811183, 8.50000000000000, 15.0000000000000 ) );
#415 = VECTOR( '', #489, 1000.00000000000 );
#416 = CARTESIAN_POINT( '', ( -9.81495457622365, 2.08166817117217E-014, 15.0000000000000 ) );
#417 = CARTESIAN_POINT( '', ( -4.90747728811182, 8.50000000000000, 15.0000000000000 ) );
#418 = VECTOR( '', #490, 999.999999999999 );
#419 = CARTESIAN_POINT( '', ( -4.90747728811183, -8.50000000000000, 15.0000000000000 ) );
#420 = CARTESIAN_POINT( '', ( -9.81495457622365, 2.10796063941020E-014, 15.0000000000000 ) );
#421 = VECTOR( '', #491, 1000.00000000000 );
#422 = CARTESIAN_POINT( '', ( 4.90747728811183, -8.50000000000000, 15.0000000000000 ) );
#423 = CARTESIAN_POINT( '', ( -4.90747728811183, -8.50000000000000, 15.0000000000000 ) );
#424 = VECTOR( '', #492, 1000.00000000000 );
#425 = CARTESIAN_POINT( '', ( 9.81495457622366, 1.90819582357449E-014, 15.0000000000000 ) );
#426 = CARTESIAN_POINT( '', ( 4.90747728811183, -8.50000000000000, 15.0000000000000 ) );
#427 = VECTOR( '', #493, 1000.00000000000 );
#428 = CARTESIAN_POINT( '', ( 9.81495457622366, 1.98776211235471E-014, 15.0000000000000 ) );
#429 = VECTOR( '', #494, 999.999999999999 );
#430 = COLOUR_RGB( '', 0.200000002980232, 0.200000002980232, 0.200000002980232 );
#431 = CARTESIAN_POINT( '', ( 4.90747728811183, 8.50000000000000, 10.0000000000000 ) );
#432 = CARTESIAN_POINT( '', ( -4.90747728811182, 8.50000000000000, 10.0000000000000 ) );
#433 = CARTESIAN_POINT( '', ( 4.90747728811183, 8.50000000000000, 10.0000000000000 ) );
#434 = VECTOR( '', #495, 1000.00000000000 );
#435 = CARTESIAN_POINT( '', ( -4.90747728811182, 8.50000000000000, 15.0000000000000 ) );
#436 = VECTOR( '', #496, 1000.00000000000 );
#437 = CARTESIAN_POINT( '', ( 4.90747728811183, 8.50000000000000, 15.0000000000000 ) );
#438 = VECTOR( '', #497, 1000.00000000000 );
#439 = COLOUR_RGB( '', 0.200000002980232, 0.200000002980232, 0.200000002980232 );
#440 = CARTESIAN_POINT( '', ( 9.81495457622366, 1.99493199737333E-014, 10.0000000000000 ) );
#441 = CARTESIAN_POINT( '', ( 9.81495457622366, 1.98776211235471E-014, 10.0000000000000 ) );
#442 = VECTOR( '', #498, 999.999999999999 );
#443 = CARTESIAN_POINT( '', ( 9.81495457622366, 1.90819582357449E-014, 15.0000000000000 ) );
#444 = VECTOR( '', #499, 1000.00000000000 );
#445 = COLOUR_RGB( '', 0.200000002980232, 0.200000002980232, 0.200000002980232 );
#446 = CARTESIAN_POINT( '', ( 22.5000000000000, 0.000000000000000, 0.000000000000000 ) );
#447 = AXIS2_PLACEMENT_3D( '', #500, #501, #502 );
#448 = COLOUR_RGB( '', 0.200000002980232, 0.200000002980232, 0.200000002980232 );
#449 = CARTESIAN_POINT( '', ( -4.90747728811182, -8.50000000000000, 10.0000000000000 ) );
#450 = CARTESIAN_POINT( '', ( 4.90747728811183, -8.50000000000000, 10.0000000000000 ) );
#451 = CARTESIAN_POINT( '', ( -4.90747728811183, -8.50000000000000, 10.0000000000000 ) );
#452 = VECTOR( '', #503, 1000.00000000000 );
#453 = CARTESIAN_POINT( '', ( 4.90747728811183, -8.50000000000000, 15.0000000000000 ) );
#454 = VECTOR( '', #504, 1000.00000000000 );
#455 = CARTESIAN_POINT( '', ( -4.90747728811183, -8.50000000000000, 15.0000000000000 ) );
#456 = VECTOR( '', #505, 1000.00000000000 );
#457 = COLOUR_RGB( '', 0.200000002980232, 0.200000002980232, 0.200000002980232 );
#458 = CARTESIAN_POINT( '', ( 3.00000000000000, 4.87212438141176E-017, 37.0000000000000 ) );
#459 = AXIS2_PLACEMENT_3D( '', #506, #507, #508 );
#460 = COLOUR_RGB( '', 0.200000002980232, 0.200000002980232, 0.200000002980232 );
#461 = CARTESIAN_POINT( '', ( -9.81495457622365, 1.90819582357449E-014, 10.0000000000000 ) );
#462 = CARTESIAN_POINT( '', ( -4.90747728811182, 8.50000000000000, 10.0000000000000 ) );
#463 = VECTOR( '', #509, 999.999999999999 );
#464 = CARTESIAN_POINT( '', ( -9.81495457622365, 2.08166817117217E-014, 15.0000000000000 ) );
#465 = VECTOR( '', #510, 1000.00000000000 );
#466 = COLOUR_RGB( '', 0.200000002980232, 0.200000002980232, 0.200000002980232 );
#467 = CARTESIAN_POINT( '', ( -9.81495457622365, 2.10796063941020E-014, 10.0000000000000 ) );
#468 = VECTOR( '', #511, 1000.00000000000 );
#469 = COLOUR_RGB( '', 0.200000002980232, 0.200000002980232, 0.200000002980232 );
#470 = CARTESIAN_POINT( '', ( 4.90747728811183, -8.50000000000000, 10.0000000000000 ) );
#471 = VECTOR( '', #512, 1000.00000000000 );
#472 = COLOUR_RGB( '', 0.200000002980232, 0.200000002980232, 0.200000002980232 );
#473 = CARTESIAN_POINT( '', ( -25.0000000000000, 0.000000000000000, 7.50000000000000 ) );
#474 = AXIS2_PLACEMENT_3D( '', #513, #514, #515 );
#475 = CARTESIAN_POINT( '', ( -22.5000000000000, 0.000000000000000, 10.0000000000000 ) );
#476 = AXIS2_PLACEMENT_3D( '', #516, #517, #518 );
#477 = COLOUR_RGB( '', 0.200000002980232, 0.200000002980232, 0.200000002980232 );
#478 = CARTESIAN_POINT( '', ( 25.0000000000000, 0.000000000000000, 2.50000000000000 ) );
#479 = AXIS2_PLACEMENT_3D( '', #519, #520, #521 );
#480 = COLOUR_RGB( '', 0.200000002980232, 0.200000002980232, 0.200000002980232 );
#481 = COLOUR_RGB( '', 0.200000002980232, 0.200000002980232, 0.200000002980232 );
#482 = COLOUR_RGB( '', 0.200000002980232, 0.200000002980232, 0.200000002980232 );
#483 = CARTESIAN_POINT( '', ( 2.34736656052699E-017, 4.87212438141176E-017, 36.0000000000000 ) );
#484 = DIRECTION( '', ( 0.000000000000000, 0.000000000000000, 1.00000000000000 ) );
#485 = DIRECTION( '', ( 1.00000000000000, 0.000000000000000, 0.000000000000000 ) );
#486 = CARTESIAN_POINT( '', ( 2.34736656052699E-017, 4.87212438141176E-017, 15.0000000000000 ) );
#487 = DIRECTION( '', ( 0.000000000000000, -0.000000000000000, 1.00000000000000 ) );
#488 = DIRECTION( '', ( 0.500000000000000, 0.866025403784439, 0.000000000000000 ) );
#489 = DIRECTION( '', ( -1.00000000000000, 0.000000000000000, 0.000000000000000 ) );
#490 = DIRECTION( '', ( -0.500000000000000, -0.866025403784438, 0.000000000000000 ) );
#491 = DIRECTION( '', ( 0.500000000000000, -0.866025403784439, 0.000000000000000 ) );
#492 = DIRECTION( '', ( 1.00000000000000, -1.23720025778354E-015, 0.000000000000000 ) );
#493 = DIRECTION( '', ( 0.500000000000000, 0.866025403784439, 0.000000000000000 ) );
#494 = DIRECTION( '', ( -0.500000000000000, 0.866025403784438, 0.000000000000000 ) );
#495 = DIRECTION( '', ( -1.00000000000000, 0.000000000000000, 0.000000000000000 ) );
#496 = DIRECTION( '', ( 0.000000000000000, 0.000000000000000, -1.00000000000000 ) );
#497 = DIRECTION( '', ( 0.000000000000000, 0.000000000000000, -1.00000000000000 ) );
#498 = DIRECTION( '', ( -0.500000000000000, 0.866025403784438, 0.000000000000000 ) );
#499 = DIRECTION( '', ( 0.000000000000000, 0.000000000000000, -1.00000000000000 ) );
#500 = CARTESIAN_POINT( '', ( 0.000000000000000, 0.000000000000000, 0.000000000000000 ) );
#501 = DIRECTION( '', ( 0.000000000000000, 0.000000000000000, 1.00000000000000 ) );
#502 = DIRECTION( '', ( 1.00000000000000, 0.000000000000000, 0.000000000000000 ) );
#503 = DIRECTION( '', ( 1.00000000000000, -1.23720025778354E-015, 0.000000000000000 ) );
#504 = DIRECTION( '', ( 0.000000000000000, 0.000000000000000, -1.00000000000000 ) );
#505 = DIRECTION( '', ( 0.000000000000000, 0.000000000000000, -1.00000000000000 ) );
#506 = CARTESIAN_POINT( '', ( 2.34736656052699E-017, 4.87212438141176E-017, 37.0000000000000 ) );
#507 = DIRECTION( '', ( 0.000000000000000, 0.000000000000000, 1.00000000000000 ) );
#508 = DIRECTION( '', ( 1.00000000000000, 0.000000000000000, 0.000000000000000 ) );
#509 = DIRECTION( '', ( -0.500000000000000, -0.866025403784438, 0.000000000000000 ) );
#510 = DIRECTION( '', ( 0.000000000000000, 0.000000000000000, -1.00000000000000 ) );
#511 = DIRECTION( '', ( 0.500000000000000, -0.866025403784439, 0.000000000000000 ) );
#512 = DIRECTION( '', ( 0.500000000000000, 0.866025403784439, 0.000000000000000 ) );
#513 = CARTESIAN_POINT( '', ( 0.000000000000000, 0.000000000000000, 7.50000000000000 ) );
#514 = DIRECTION( '', ( 0.000000000000000, 0.000000000000000, -1.00000000000000 ) );
#515 = DIRECTION( '', ( -1.00000000000000, 0.000000000000000, 0.000000000000000 ) );
#516 = CARTESIAN_POINT( '', ( 0.000000000000000, 0.000000000000000, 10.0000000000000 ) );
#517 = DIRECTION( '', ( 0.000000000000000, 0.000000000000000, -1.00000000000000 ) );
#518 = DIRECTION( '', ( -1.00000000000000, 0.000000000000000, 0.000000000000000 ) );
#519 = CARTESIAN_POINT( '', ( 0.000000000000000, 0.000000000000000, 2.50000000000000 ) );
#520 = DIRECTION( '', ( 0.000000000000000, 0.000000000000000, 1.00000000000000 ) );
#521 = DIRECTION( '', ( 1.00000000000000, 0.000000000000000, 0.000000000000000 ) );
ENDSEC;
END-ISO-10303-21;
