ISO-10303-21;
HEADER;
FILE_DESCRIPTION( ( 'Unknown' ), '1' );
FILE_NAME( '//SBS2003/HD_Usb/Disegni/08_LIB/Users_3D/PROD_GAMM_3D/PRMES/7322110.stp', 'Unknown', ( 'Unknown' ), ( 'Unknown' ), 'PSStep 14.0', 'Unknown', '  ' );
FILE_SCHEMA( ( 'AUTOMOTIVE_DESIGN { 1 0 10303 214 1 1 1 1 }' ) );
ENDSEC;
DATA;
#1 = MECHANICAL_DESIGN_GEOMETRIC_PRESENTATION_REPRESENTATION( ' ', ( #10, #11, #12, #13, #14, #15, #16, #17, #18, #19, #20, #21, #22, #23, #24 ), #6 );
#2 = PRODUCT_DEFINITION_CONTEXT( '', #25, 'design' );
#3 = APPLICATION_PROTOCOL_DEFINITION( 'international standard', 'automotive_design', 2001, #25 );
#4 = PRODUCT_CATEGORY_RELATIONSHIP( 'NONE', 'NONE', #26, #27 );
#5 = SHAPE_DEFINITION_REPRESENTATION( #28, #29 );
#6 =  ( GEOMETRIC_REPRESENTATION_CONTEXT( 3 )GLOBAL_UNCERTAINTY_ASSIGNED_CONTEXT( ( #32 ) )GLOBAL_UNIT_ASSIGNED_CONTEXT( ( #34, #35, #36 ) )REPRESENTATION_CONTEXT( 'NONE', 'WORKSPACE' ) );
#10 = STYLED_ITEM( '', ( #38 ), #39 );
#11 = STYLED_ITEM( '', ( #40 ), #41 );
#12 = STYLED_ITEM( '', ( #42 ), #43 );
#13 = STYLED_ITEM( '', ( #44 ), #45 );
#14 = STYLED_ITEM( '', ( #46 ), #47 );
#15 = STYLED_ITEM( '', ( #48 ), #49 );
#16 = STYLED_ITEM( '', ( #50 ), #51 );
#17 = STYLED_ITEM( '', ( #52 ), #53 );
#18 = STYLED_ITEM( '', ( #54 ), #55 );
#19 = STYLED_ITEM( '', ( #56 ), #57 );
#20 = STYLED_ITEM( '', ( #58 ), #59 );
#21 = STYLED_ITEM( '', ( #60 ), #61 );
#22 = STYLED_ITEM( '', ( #62 ), #63 );
#23 = STYLED_ITEM( '', ( #64 ), #65 );
#24 = STYLED_ITEM( '', ( #66 ), #67 );
#25 = APPLICATION_CONTEXT( 'core data for automotive mechanical design processes' );
#26 = PRODUCT_CATEGORY( 'part', 'NONE' );
#27 = PRODUCT_RELATED_PRODUCT_CATEGORY( 'detail', ' ', ( #68 ) );
#28 = PRODUCT_DEFINITION_SHAPE( 'NONE', 'NONE', #69 );
#29 = ADVANCED_BREP_SHAPE_REPRESENTATION( '1', ( #70, #71 ), #6 );
#32 = UNCERTAINTY_MEASURE_WITH_UNIT( LENGTH_MEASURE( 0.00100000000000000 ), #34, '', '' );
#34 =  ( CONVERSION_BASED_UNIT( 'MILLIMETRE', #74 )LENGTH_UNIT(  )NAMED_UNIT( #77 ) );
#35 =  ( NAMED_UNIT( #79 )PLANE_ANGLE_UNIT(  )SI_UNIT( $, .RADIAN. ) );
#36 =  ( NAMED_UNIT( #79 )SI_UNIT( $, .STERADIAN. )SOLID_ANGLE_UNIT(  ) );
#38 = PRESENTATION_STYLE_ASSIGNMENT( ( #85 ) );
#39 = ADVANCED_FACE( '', ( #86, #87 ), #88, .T. );
#40 = PRESENTATION_STYLE_ASSIGNMENT( ( #89 ) );
#41 = ADVANCED_FACE( '', ( #90 ), #91, .F. );
#42 = PRESENTATION_STYLE_ASSIGNMENT( ( #92 ) );
#43 = ADVANCED_FACE( '', ( #93 ), #94, .F. );
#44 = PRESENTATION_STYLE_ASSIGNMENT( ( #95 ) );
#45 = ADVANCED_FACE( '', ( #96 ), #97, .T. );
#46 = PRESENTATION_STYLE_ASSIGNMENT( ( #98 ) );
#47 = ADVANCED_FACE( '', ( #99 ), #100, .F. );
#48 = PRESENTATION_STYLE_ASSIGNMENT( ( #101 ) );
#49 = ADVANCED_FACE( '', ( #102, #103 ), #104, .T. );
#50 = PRESENTATION_STYLE_ASSIGNMENT( ( #105 ) );
#51 = ADVANCED_FACE( '', ( #106 ), #107, .F. );
#52 = PRESENTATION_STYLE_ASSIGNMENT( ( #108 ) );
#53 = ADVANCED_FACE( '', ( #109 ), #110, .F. );
#54 = PRESENTATION_STYLE_ASSIGNMENT( ( #111 ) );
#55 = ADVANCED_FACE( '', ( #112 ), #113, .F. );
#56 = PRESENTATION_STYLE_ASSIGNMENT( ( #114 ) );
#57 = ADVANCED_FACE( '', ( #115, #116 ), #117, .F. );
#58 = PRESENTATION_STYLE_ASSIGNMENT( ( #118 ) );
#59 = ADVANCED_FACE( '', ( #119, #120 ), #121, .T. );
#60 = PRESENTATION_STYLE_ASSIGNMENT( ( #122 ) );
#61 = ADVANCED_FACE( '', ( #123 ), #124, .F. );
#62 = PRESENTATION_STYLE_ASSIGNMENT( ( #125 ) );
#63 = ADVANCED_FACE( '', ( #126, #127 ), #128, .T. );
#64 = PRESENTATION_STYLE_ASSIGNMENT( ( #129 ) );
#65 = ADVANCED_FACE( '', ( #130, #131 ), #132, .T. );
#66 = PRESENTATION_STYLE_ASSIGNMENT( ( #133 ) );
#67 = ADVANCED_FACE( '', ( #134, #135 ), #136, .T. );
#68 = PRODUCT( '1', '1', 'PART-1-DESC', ( #137 ) );
#69 = PRODUCT_DEFINITION( 'NONE', 'NONE', #138, #2 );
#70 = MANIFOLD_SOLID_BREP( '1', #139 );
#71 = AXIS2_PLACEMENT_3D( '', #140, #141, #142 );
#74 = LENGTH_MEASURE_WITH_UNIT( LENGTH_MEASURE( 1.00000000000000 ), #143 );
#77 = DIMENSIONAL_EXPONENTS( 1.00000000000000, 0.000000000000000, 0.000000000000000, 0.000000000000000, 0.000000000000000, 0.000000000000000, 0.000000000000000 );
#79 = DIMENSIONAL_EXPONENTS( 0.000000000000000, 0.000000000000000, 0.000000000000000, 0.000000000000000, 0.000000000000000, 0.000000000000000, 0.000000000000000 );
#85 = SURFACE_STYLE_USAGE( .BOTH., #144 );
#86 = FACE_OUTER_BOUND( '', #145, .T. );
#87 = FACE_BOUND( '', #146, .T. );
#88 = PLANE( '', #147 );
#89 = SURFACE_STYLE_USAGE( .BOTH., #148 );
#90 = FACE_OUTER_BOUND( '', #149, .T. );
#91 = PLANE( '', #150 );
#92 = SURFACE_STYLE_USAGE( .BOTH., #151 );
#93 = FACE_OUTER_BOUND( '', #152, .T. );
#94 = PLANE( '', #153 );
#95 = SURFACE_STYLE_USAGE( .BOTH., #154 );
#96 = FACE_OUTER_BOUND( '', #155, .T. );
#97 = PLANE( '', #156 );
#98 = SURFACE_STYLE_USAGE( .BOTH., #157 );
#99 = FACE_OUTER_BOUND( '', #158, .T. );
#100 = PLANE( '', #159 );
#101 = SURFACE_STYLE_USAGE( .BOTH., #160 );
#102 = FACE_OUTER_BOUND( '', #161, .T. );
#103 = FACE_OUTER_BOUND( '', #162, .T. );
#104 = TOROIDAL_SURFACE( '', #163, 22.5000000000000, 2.50000000000000 );
#105 = SURFACE_STYLE_USAGE( .BOTH., #164 );
#106 = FACE_OUTER_BOUND( '', #165, .T. );
#107 = PLANE( '', #166 );
#108 = SURFACE_STYLE_USAGE( .BOTH., #167 );
#109 = FACE_OUTER_BOUND( '', #168, .T. );
#110 = PLANE( '', #169 );
#111 = SURFACE_STYLE_USAGE( .BOTH., #170 );
#112 = FACE_OUTER_BOUND( '', #171, .T. );
#113 = PLANE( '', #172 );
#114 = SURFACE_STYLE_USAGE( .BOTH., #173 );
#115 = FACE_OUTER_BOUND( '', #174, .T. );
#116 = FACE_BOUND( '', #175, .T. );
#117 = PLANE( '', #176 );
#118 = SURFACE_STYLE_USAGE( .BOTH., #177 );
#119 = FACE_OUTER_BOUND( '', #178, .T. );
#120 = FACE_BOUND( '', #179, .T. );
#121 = CONICAL_SURFACE( '', #180, 4.00000000000000, 0.785398163397448 );
#122 = SURFACE_STYLE_USAGE( .BOTH., #181 );
#123 = FACE_OUTER_BOUND( '', #182, .T. );
#124 = PLANE( '', #183 );
#125 = SURFACE_STYLE_USAGE( .BOTH., #184 );
#126 = FACE_OUTER_BOUND( '', #185, .T. );
#127 = FACE_OUTER_BOUND( '', #186, .T. );
#128 = CYLINDRICAL_SURFACE( '', #187, 25.0000000000000 );
#129 = SURFACE_STYLE_USAGE( .BOTH., #188 );
#130 = FACE_OUTER_BOUND( '', #189, .T. );
#131 = FACE_OUTER_BOUND( '', #190, .T. );
#132 = TOROIDAL_SURFACE( '', #191, 22.5000000000000, 2.50000000000000 );
#133 = SURFACE_STYLE_USAGE( .BOTH., #192 );
#134 = FACE_OUTER_BOUND( '', #193, .T. );
#135 = FACE_OUTER_BOUND( '', #194, .T. );
#136 = CYLINDRICAL_SURFACE( '', #195, 5.00000000000000 );
#137 = PRODUCT_CONTEXT( '', #25, 'mechanical' );
#138 = PRODUCT_DEFINITION_FORMATION_WITH_SPECIFIED_SOURCE( ' ', 'NONE', #68, .NOT_KNOWN. );
#139 = CLOSED_SHELL( '', ( #39, #49, #51, #55, #63, #65, #59, #57, #53, #67, #47, #41, #43, #61, #45 ) );
#140 = CARTESIAN_POINT( '', ( 0.000000000000000, 0.000000000000000, 0.000000000000000 ) );
#141 = DIRECTION( '', ( 0.000000000000000, 0.000000000000000, 1.00000000000000 ) );
#142 = DIRECTION( '', ( 1.00000000000000, 0.000000000000000, 0.000000000000000 ) );
#143 =  ( LENGTH_UNIT(  )NAMED_UNIT( #77 )SI_UNIT( .MILLI., .METRE. ) );
#144 = SURFACE_SIDE_STYLE( '', ( #197 ) );
#145 = EDGE_LOOP( '', ( #198, #199, #200, #201, #202, #203 ) );
#146 = EDGE_LOOP( '', ( #204 ) );
#147 = AXIS2_PLACEMENT_3D( '', #205, #206, #207 );
#148 = SURFACE_SIDE_STYLE( '', ( #208 ) );
#149 = EDGE_LOOP( '', ( #209, #210, #211, #212 ) );
#150 = AXIS2_PLACEMENT_3D( '', #213, #214, #215 );
#151 = SURFACE_SIDE_STYLE( '', ( #216 ) );
#152 = EDGE_LOOP( '', ( #217, #218, #219, #220 ) );
#153 = AXIS2_PLACEMENT_3D( '', #221, #222, #223 );
#154 = SURFACE_SIDE_STYLE( '', ( #224 ) );
#155 = EDGE_LOOP( '', ( #225 ) );
#156 = AXIS2_PLACEMENT_3D( '', #226, #227, #228 );
#157 = SURFACE_SIDE_STYLE( '', ( #229 ) );
#158 = EDGE_LOOP( '', ( #230, #231, #232, #233 ) );
#159 = AXIS2_PLACEMENT_3D( '', #234, #235, #236 );
#160 = SURFACE_SIDE_STYLE( '', ( #237 ) );
#161 = EDGE_LOOP( '', ( #238 ) );
#162 = EDGE_LOOP( '', ( #239 ) );
#163 = AXIS2_PLACEMENT_3D( '', #240, #241, #242 );
#164 = SURFACE_SIDE_STYLE( '', ( #243 ) );
#165 = EDGE_LOOP( '', ( #244, #245, #246, #247 ) );
#166 = AXIS2_PLACEMENT_3D( '', #248, #249, #250 );
#167 = SURFACE_SIDE_STYLE( '', ( #251 ) );
#168 = EDGE_LOOP( '', ( #252 ) );
#169 = AXIS2_PLACEMENT_3D( '', #253, #254, #255 );
#170 = SURFACE_SIDE_STYLE( '', ( #256 ) );
#171 = EDGE_LOOP( '', ( #257, #258, #259, #260 ) );
#172 = AXIS2_PLACEMENT_3D( '', #261, #262, #263 );
#173 = SURFACE_SIDE_STYLE( '', ( #264 ) );
#174 = EDGE_LOOP( '', ( #265 ) );
#175 = EDGE_LOOP( '', ( #266, #267, #268, #269, #270, #271 ) );
#176 = AXIS2_PLACEMENT_3D( '', #272, #273, #274 );
#177 = SURFACE_SIDE_STYLE( '', ( #275 ) );
#178 = EDGE_LOOP( '', ( #276 ) );
#179 = EDGE_LOOP( '', ( #277 ) );
#180 = AXIS2_PLACEMENT_3D( '', #278, #279, #280 );
#181 = SURFACE_SIDE_STYLE( '', ( #281 ) );
#182 = EDGE_LOOP( '', ( #282, #283, #284, #285 ) );
#183 = AXIS2_PLACEMENT_3D( '', #286, #287, #288 );
#184 = SURFACE_SIDE_STYLE( '', ( #289 ) );
#185 = EDGE_LOOP( '', ( #290 ) );
#186 = EDGE_LOOP( '', ( #291 ) );
#187 = AXIS2_PLACEMENT_3D( '', #292, #293, #294 );
#188 = SURFACE_SIDE_STYLE( '', ( #295 ) );
#189 = EDGE_LOOP( '', ( #296 ) );
#190 = EDGE_LOOP( '', ( #297 ) );
#191 = AXIS2_PLACEMENT_3D( '', #298, #299, #300 );
#192 = SURFACE_SIDE_STYLE( '', ( #301 ) );
#193 = EDGE_LOOP( '', ( #302 ) );
#194 = EDGE_LOOP( '', ( #303 ) );
#195 = AXIS2_PLACEMENT_3D( '', #304, #305, #306 );
#197 = SURFACE_STYLE_FILL_AREA( #307 );
#198 = ORIENTED_EDGE( '', *, *, #308, .T. );
#199 = ORIENTED_EDGE( '', *, *, #309, .T. );
#200 = ORIENTED_EDGE( '', *, *, #310, .T. );
#201 = ORIENTED_EDGE( '', *, *, #311, .T. );
#202 = ORIENTED_EDGE( '', *, *, #312, .T. );
#203 = ORIENTED_EDGE( '', *, *, #313, .T. );
#204 = ORIENTED_EDGE( '', *, *, #314, .F. );
#205 = CARTESIAN_POINT( '', ( 0.000000000000000, 0.000000000000000, 15.0000000000000 ) );
#206 = DIRECTION( '', ( 0.000000000000000, 0.000000000000000, 1.00000000000000 ) );
#207 = DIRECTION( '', ( 1.00000000000000, 0.000000000000000, 0.000000000000000 ) );
#208 = SURFACE_STYLE_FILL_AREA( #315 );
#209 = ORIENTED_EDGE( '', *, *, #316, .T. );
#210 = ORIENTED_EDGE( '', *, *, #317, .F. );
#211 = ORIENTED_EDGE( '', *, *, #312, .F. );
#212 = ORIENTED_EDGE( '', *, *, #318, .T. );
#213 = CARTESIAN_POINT( '', ( 4.90747728811183, -8.50000000000000, 15.0000000000000 ) );
#214 = DIRECTION( '', ( -0.866025403784439, 0.500000000000000, 0.000000000000000 ) );
#215 = DIRECTION( '', ( -0.500000000000000, -0.866025403784439, 0.000000000000000 ) );
#216 = SURFACE_STYLE_FILL_AREA( #319 );
#217 = ORIENTED_EDGE( '', *, *, #320, .T. );
#218 = ORIENTED_EDGE( '', *, *, #318, .F. );
#219 = ORIENTED_EDGE( '', *, *, #311, .F. );
#220 = ORIENTED_EDGE( '', *, *, #321, .T. );
#221 = CARTESIAN_POINT( '', ( -4.90747728811183, -8.50000000000000, 15.0000000000000 ) );
#222 = DIRECTION( '', ( 1.23720025778354E-015, 1.00000000000000, 0.000000000000000 ) );
#223 = DIRECTION( '', ( -1.00000000000000, 1.23720025778354E-015, 0.000000000000000 ) );
#224 = SURFACE_STYLE_FILL_AREA( #322 );
#225 = ORIENTED_EDGE( '', *, *, #323, .T. );
#226 = CARTESIAN_POINT( '', ( 2.34736656052699E-017, 4.87212438141176E-017, 42.0000000000000 ) );
#227 = DIRECTION( '', ( 0.000000000000000, 0.000000000000000, 1.00000000000000 ) );
#228 = DIRECTION( '', ( 1.00000000000000, 0.000000000000000, 0.000000000000000 ) );
#229 = SURFACE_STYLE_FILL_AREA( #324 );
#230 = ORIENTED_EDGE( '', *, *, #325, .T. );
#231 = ORIENTED_EDGE( '', *, *, #326, .F. );
#232 = ORIENTED_EDGE( '', *, *, #313, .F. );
#233 = ORIENTED_EDGE( '', *, *, #317, .T. );
#234 = CARTESIAN_POINT( '', ( 9.81495457622366, 1.98776211235471E-014, 15.0000000000000 ) );
#235 = DIRECTION( '', ( -0.866025403784438, -0.500000000000000, 0.000000000000000 ) );
#236 = DIRECTION( '', ( 0.500000000000000, -0.866025403784438, 0.000000000000000 ) );
#237 = SURFACE_STYLE_FILL_AREA( #327 );
#238 = ORIENTED_EDGE( '', *, *, #328, .F. );
#239 = ORIENTED_EDGE( '', *, *, #329, .F. );
#240 = CARTESIAN_POINT( '', ( 0.000000000000000, 0.000000000000000, 2.50000000000000 ) );
#241 = DIRECTION( '', ( 0.000000000000000, 0.000000000000000, 1.00000000000000 ) );
#242 = DIRECTION( '', ( 1.00000000000000, 0.000000000000000, 0.000000000000000 ) );
#243 = SURFACE_STYLE_FILL_AREA( #330 );
#244 = ORIENTED_EDGE( '', *, *, #331, .T. );
#245 = ORIENTED_EDGE( '', *, *, #332, .F. );
#246 = ORIENTED_EDGE( '', *, *, #309, .F. );
#247 = ORIENTED_EDGE( '', *, *, #333, .T. );
#248 = CARTESIAN_POINT( '', ( -4.90747728811182, 8.50000000000000, 15.0000000000000 ) );
#249 = DIRECTION( '', ( 0.866025403784438, -0.500000000000000, 0.000000000000000 ) );
#250 = DIRECTION( '', ( 0.500000000000000, 0.866025403784438, 0.000000000000000 ) );
#251 = SURFACE_STYLE_FILL_AREA( #334 );
#252 = ORIENTED_EDGE( '', *, *, #328, .T. );
#253 = CARTESIAN_POINT( '', ( 1.15681633248879E-015, 0.000000000000000, 0.000000000000000 ) );
#254 = DIRECTION( '', ( 0.000000000000000, 0.000000000000000, 1.00000000000000 ) );
#255 = DIRECTION( '', ( 1.00000000000000, 0.000000000000000, 0.000000000000000 ) );
#256 = SURFACE_STYLE_FILL_AREA( #335 );
#257 = ORIENTED_EDGE( '', *, *, #336, .T. );
#258 = ORIENTED_EDGE( '', *, *, #333, .F. );
#259 = ORIENTED_EDGE( '', *, *, #308, .F. );
#260 = ORIENTED_EDGE( '', *, *, #326, .T. );
#261 = CARTESIAN_POINT( '', ( 4.90747728811183, 8.50000000000000, 15.0000000000000 ) );
#262 = DIRECTION( '', ( 0.000000000000000, -1.00000000000000, 0.000000000000000 ) );
#263 = DIRECTION( '', ( 0.000000000000000, 0.000000000000000, -1.00000000000000 ) );
#264 = SURFACE_STYLE_FILL_AREA( #337 );
#265 = ORIENTED_EDGE( '', *, *, #338, .T. );
#266 = ORIENTED_EDGE( '', *, *, #336, .F. );
#267 = ORIENTED_EDGE( '', *, *, #325, .F. );
#268 = ORIENTED_EDGE( '', *, *, #316, .F. );
#269 = ORIENTED_EDGE( '', *, *, #320, .F. );
#270 = ORIENTED_EDGE( '', *, *, #339, .F. );
#271 = ORIENTED_EDGE( '', *, *, #331, .F. );
#272 = CARTESIAN_POINT( '', ( 25.0000000000000, 0.000000000000000, 10.0000000000000 ) );
#273 = DIRECTION( '', ( 0.000000000000000, 0.000000000000000, -1.00000000000000 ) );
#274 = DIRECTION( '', ( -1.00000000000000, 0.000000000000000, 0.000000000000000 ) );
#275 = SURFACE_STYLE_FILL_AREA( #340 );
#276 = ORIENTED_EDGE( '', *, *, #341, .F. );
#277 = ORIENTED_EDGE( '', *, *, #323, .F. );
#278 = CARTESIAN_POINT( '', ( 2.34736656052699E-017, 4.87212438141176E-017, 42.0000000000000 ) );
#279 = DIRECTION( '', ( -0.000000000000000, 0.000000000000000, -1.00000000000000 ) );
#280 = DIRECTION( '', ( -1.00000000000000, 0.000000000000000, 0.000000000000000 ) );
#281 = SURFACE_STYLE_FILL_AREA( #342 );
#282 = ORIENTED_EDGE( '', *, *, #339, .T. );
#283 = ORIENTED_EDGE( '', *, *, #321, .F. );
#284 = ORIENTED_EDGE( '', *, *, #310, .F. );
#285 = ORIENTED_EDGE( '', *, *, #332, .T. );
#286 = CARTESIAN_POINT( '', ( -9.81495457622365, 2.10796063941020E-014, 15.0000000000000 ) );
#287 = DIRECTION( '', ( 0.866025403784439, 0.500000000000000, 0.000000000000000 ) );
#288 = DIRECTION( '', ( -0.500000000000000, 0.866025403784439, 0.000000000000000 ) );
#289 = SURFACE_STYLE_FILL_AREA( #343 );
#290 = ORIENTED_EDGE( '', *, *, #329, .T. );
#291 = ORIENTED_EDGE( '', *, *, #344, .T. );
#292 = CARTESIAN_POINT( '', ( 0.000000000000000, 0.000000000000000, 57.1500000000000 ) );
#293 = DIRECTION( '', ( -0.000000000000000, -0.000000000000000, -1.00000000000000 ) );
#294 = DIRECTION( '', ( 1.00000000000000, 0.000000000000000, 0.000000000000000 ) );
#295 = SURFACE_STYLE_FILL_AREA( #345 );
#296 = ORIENTED_EDGE( '', *, *, #344, .F. );
#297 = ORIENTED_EDGE( '', *, *, #338, .F. );
#298 = CARTESIAN_POINT( '', ( 0.000000000000000, 0.000000000000000, 7.50000000000000 ) );
#299 = DIRECTION( '', ( 0.000000000000000, 0.000000000000000, -1.00000000000000 ) );
#300 = DIRECTION( '', ( -1.00000000000000, 0.000000000000000, 0.000000000000000 ) );
#301 = SURFACE_STYLE_FILL_AREA( #346 );
#302 = ORIENTED_EDGE( '', *, *, #341, .T. );
#303 = ORIENTED_EDGE( '', *, *, #314, .T. );
#304 = CARTESIAN_POINT( '', ( 2.34736656052699E-017, 4.87212438141176E-017, 42.0000000000000 ) );
#305 = DIRECTION( '', ( -0.000000000000000, -0.000000000000000, 1.00000000000000 ) );
#306 = DIRECTION( '', ( -1.00000000000000, 0.000000000000000, 0.000000000000000 ) );
#307 = FILL_AREA_STYLE( '', ( #347 ) );
#308 = EDGE_CURVE( '', #348, #349, #350, .T. );
#309 = EDGE_CURVE( '', #349, #351, #352, .T. );
#310 = EDGE_CURVE( '', #351, #353, #354, .T. );
#311 = EDGE_CURVE( '', #353, #355, #356, .T. );
#312 = EDGE_CURVE( '', #355, #357, #358, .T. );
#313 = EDGE_CURVE( '', #357, #348, #359, .T. );
#314 = EDGE_CURVE( '', #360, #360, #361, .T. );
#315 = FILL_AREA_STYLE( '', ( #362 ) );
#316 = EDGE_CURVE( '', #363, #364, #365, .T. );
#317 = EDGE_CURVE( '', #357, #364, #366, .T. );
#318 = EDGE_CURVE( '', #355, #363, #367, .T. );
#319 = FILL_AREA_STYLE( '', ( #368 ) );
#320 = EDGE_CURVE( '', #369, #363, #370, .T. );
#321 = EDGE_CURVE( '', #353, #369, #371, .T. );
#322 = FILL_AREA_STYLE( '', ( #372 ) );
#323 = EDGE_CURVE( '', #373, #373, #374, .T. );
#324 = FILL_AREA_STYLE( '', ( #375 ) );
#325 = EDGE_CURVE( '', #364, #376, #377, .T. );
#326 = EDGE_CURVE( '', #348, #376, #378, .T. );
#327 = FILL_AREA_STYLE( '', ( #379 ) );
#328 = EDGE_CURVE( '', #380, #380, #381, .F. );
#329 = EDGE_CURVE( '', #382, #382, #383, .T. );
#330 = FILL_AREA_STYLE( '', ( #384 ) );
#331 = EDGE_CURVE( '', #385, #386, #387, .T. );
#332 = EDGE_CURVE( '', #351, #386, #388, .T. );
#333 = EDGE_CURVE( '', #349, #385, #389, .T. );
#334 = FILL_AREA_STYLE( '', ( #390 ) );
#335 = FILL_AREA_STYLE( '', ( #391 ) );
#336 = EDGE_CURVE( '', #376, #385, #392, .T. );
#337 = FILL_AREA_STYLE( '', ( #393 ) );
#338 = EDGE_CURVE( '', #394, #394, #395, .F. );
#339 = EDGE_CURVE( '', #386, #369, #396, .T. );
#340 = FILL_AREA_STYLE( '', ( #397 ) );
#341 = EDGE_CURVE( '', #398, #398, #399, .F. );
#342 = FILL_AREA_STYLE( '', ( #400 ) );
#343 = FILL_AREA_STYLE( '', ( #401 ) );
#344 = EDGE_CURVE( '', #402, #402, #403, .T. );
#345 = FILL_AREA_STYLE( '', ( #404 ) );
#346 = FILL_AREA_STYLE( '', ( #405 ) );
#347 = FILL_AREA_STYLE_COLOUR( '', #406 );
#348 = VERTEX_POINT( '', #407 );
#349 = VERTEX_POINT( '', #408 );
#350 = LINE( '', #409, #410 );
#351 = VERTEX_POINT( '', #411 );
#352 = LINE( '', #412, #413 );
#353 = VERTEX_POINT( '', #414 );
#354 = LINE( '', #415, #416 );
#355 = VERTEX_POINT( '', #417 );
#356 = LINE( '', #418, #419 );
#357 = VERTEX_POINT( '', #420 );
#358 = LINE( '', #421, #422 );
#359 = LINE( '', #423, #424 );
#360 = VERTEX_POINT( '', #425 );
#361 = CIRCLE( '', #426, 5.00000000000000 );
#362 = FILL_AREA_STYLE_COLOUR( '', #427 );
#363 = VERTEX_POINT( '', #428 );
#364 = VERTEX_POINT( '', #429 );
#365 = LINE( '', #430, #431 );
#366 = LINE( '', #432, #433 );
#367 = LINE( '', #434, #435 );
#368 = FILL_AREA_STYLE_COLOUR( '', #436 );
#369 = VERTEX_POINT( '', #437 );
#370 = LINE( '', #438, #439 );
#371 = LINE( '', #440, #441 );
#372 = FILL_AREA_STYLE_COLOUR( '', #442 );
#373 = VERTEX_POINT( '', #443 );
#374 = CIRCLE( '', #444, 4.00000000000000 );
#375 = FILL_AREA_STYLE_COLOUR( '', #445 );
#376 = VERTEX_POINT( '', #446 );
#377 = LINE( '', #447, #448 );
#378 = LINE( '', #449, #450 );
#379 = FILL_AREA_STYLE_COLOUR( '', #451 );
#380 = VERTEX_POINT( '', #452 );
#381 = CIRCLE( '', #453, 22.5000000000000 );
#382 = VERTEX_POINT( '', #454 );
#383 = CIRCLE( '', #455, 25.0000000000000 );
#384 = FILL_AREA_STYLE_COLOUR( '', #456 );
#385 = VERTEX_POINT( '', #457 );
#386 = VERTEX_POINT( '', #458 );
#387 = LINE( '', #459, #460 );
#388 = LINE( '', #461, #462 );
#389 = LINE( '', #463, #464 );
#390 = FILL_AREA_STYLE_COLOUR( '', #465 );
#391 = FILL_AREA_STYLE_COLOUR( '', #466 );
#392 = LINE( '', #467, #468 );
#393 = FILL_AREA_STYLE_COLOUR( '', #469 );
#394 = VERTEX_POINT( '', #470 );
#395 = CIRCLE( '', #471, 22.5000000000000 );
#396 = LINE( '', #472, #473 );
#397 = FILL_AREA_STYLE_COLOUR( '', #474 );
#398 = VERTEX_POINT( '', #475 );
#399 = CIRCLE( '', #476, 5.00000000000000 );
#400 = FILL_AREA_STYLE_COLOUR( '', #477 );
#401 = FILL_AREA_STYLE_COLOUR( '', #478 );
#402 = VERTEX_POINT( '', #479 );
#403 = CIRCLE( '', #480, 25.0000000000000 );
#404 = FILL_AREA_STYLE_COLOUR( '', #481 );
#405 = FILL_AREA_STYLE_COLOUR( '', #482 );
#406 = COLOUR_RGB( '', 0.200000002980232, 0.200000002980232, 0.200000002980232 );
#407 = CARTESIAN_POINT( '', ( 4.90747728811183, 8.50000000000000, 15.0000000000000 ) );
#408 = CARTESIAN_POINT( '', ( -4.90747728811182, 8.50000000000000, 15.0000000000000 ) );
#409 = CARTESIAN_POINT( '', ( 4.90747728811183, 8.50000000000000, 15.0000000000000 ) );
#410 = VECTOR( '', #483, 1000.00000000000 );
#411 = CARTESIAN_POINT( '', ( -9.81495457622365, 2.08166817117217E-014, 15.0000000000000 ) );
#412 = CARTESIAN_POINT( '', ( -4.90747728811182, 8.50000000000000, 15.0000000000000 ) );
#413 = VECTOR( '', #484, 999.999999999999 );
#414 = CARTESIAN_POINT( '', ( -4.90747728811183, -8.50000000000000, 15.0000000000000 ) );
#415 = CARTESIAN_POINT( '', ( -9.81495457622365, 2.10796063941020E-014, 15.0000000000000 ) );
#416 = VECTOR( '', #485, 1000.00000000000 );
#417 = CARTESIAN_POINT( '', ( 4.90747728811183, -8.50000000000000, 15.0000000000000 ) );
#418 = CARTESIAN_POINT( '', ( -4.90747728811183, -8.50000000000000, 15.0000000000000 ) );
#419 = VECTOR( '', #486, 1000.00000000000 );
#420 = CARTESIAN_POINT( '', ( 9.81495457622366, 1.90819582357449E-014, 15.0000000000000 ) );
#421 = CARTESIAN_POINT( '', ( 4.90747728811183, -8.50000000000000, 15.0000000000000 ) );
#422 = VECTOR( '', #487, 1000.00000000000 );
#423 = CARTESIAN_POINT( '', ( 9.81495457622366, 1.98776211235471E-014, 15.0000000000000 ) );
#424 = VECTOR( '', #488, 999.999999999999 );
#425 = CARTESIAN_POINT( '', ( 2.50000000000000, 4.33012701892220, 15.0000000000000 ) );
#426 = AXIS2_PLACEMENT_3D( '', #489, #490, #491 );
#427 = COLOUR_RGB( '', 0.200000002980232, 0.200000002980232, 0.200000002980232 );
#428 = CARTESIAN_POINT( '', ( 4.90747728811183, -8.50000000000000, 10.0000000000000 ) );
#429 = CARTESIAN_POINT( '', ( 9.81495457622366, 1.99493199737333E-014, 10.0000000000000 ) );
#430 = CARTESIAN_POINT( '', ( 4.90747728811183, -8.50000000000000, 10.0000000000000 ) );
#431 = VECTOR( '', #492, 1000.00000000000 );
#432 = CARTESIAN_POINT( '', ( 9.81495457622366, 1.90819582357449E-014, 15.0000000000000 ) );
#433 = VECTOR( '', #493, 1000.00000000000 );
#434 = CARTESIAN_POINT( '', ( 4.90747728811183, -8.50000000000000, 15.0000000000000 ) );
#435 = VECTOR( '', #494, 1000.00000000000 );
#436 = COLOUR_RGB( '', 0.200000002980232, 0.200000002980232, 0.200000002980232 );
#437 = CARTESIAN_POINT( '', ( -4.90747728811182, -8.50000000000000, 10.0000000000000 ) );
#438 = CARTESIAN_POINT( '', ( -4.90747728811183, -8.50000000000000, 10.0000000000000 ) );
#439 = VECTOR( '', #495, 1000.00000000000 );
#440 = CARTESIAN_POINT( '', ( -4.90747728811183, -8.50000000000000, 15.0000000000000 ) );
#441 = VECTOR( '', #496, 1000.00000000000 );
#442 = COLOUR_RGB( '', 0.200000002980232, 0.200000002980232, 0.200000002980232 );
#443 = CARTESIAN_POINT( '', ( 4.00000000000000, 4.87212438141176E-017, 42.0000000000000 ) );
#444 = AXIS2_PLACEMENT_3D( '', #497, #498, #499 );
#445 = COLOUR_RGB( '', 0.200000002980232, 0.200000002980232, 0.200000002980232 );
#446 = CARTESIAN_POINT( '', ( 4.90747728811183, 8.50000000000000, 10.0000000000000 ) );
#447 = CARTESIAN_POINT( '', ( 9.81495457622366, 1.98776211235471E-014, 10.0000000000000 ) );
#448 = VECTOR( '', #500, 999.999999999999 );
#449 = CARTESIAN_POINT( '', ( 4.90747728811183, 8.50000000000000, 15.0000000000000 ) );
#450 = VECTOR( '', #501, 1000.00000000000 );
#451 = COLOUR_RGB( '', 0.200000002980232, 0.200000002980232, 0.200000002980232 );
#452 = CARTESIAN_POINT( '', ( 22.5000000000000, 0.000000000000000, 0.000000000000000 ) );
#453 = AXIS2_PLACEMENT_3D( '', #502, #503, #504 );
#454 = CARTESIAN_POINT( '', ( 25.0000000000000, 0.000000000000000, 2.50000000000000 ) );
#455 = AXIS2_PLACEMENT_3D( '', #505, #506, #507 );
#456 = COLOUR_RGB( '', 0.200000002980232, 0.200000002980232, 0.200000002980232 );
#457 = CARTESIAN_POINT( '', ( -4.90747728811182, 8.50000000000000, 10.0000000000000 ) );
#458 = CARTESIAN_POINT( '', ( -9.81495457622365, 1.90819582357449E-014, 10.0000000000000 ) );
#459 = CARTESIAN_POINT( '', ( -4.90747728811182, 8.50000000000000, 10.0000000000000 ) );
#460 = VECTOR( '', #508, 999.999999999999 );
#461 = CARTESIAN_POINT( '', ( -9.81495457622365, 2.08166817117217E-014, 15.0000000000000 ) );
#462 = VECTOR( '', #509, 1000.00000000000 );
#463 = CARTESIAN_POINT( '', ( -4.90747728811182, 8.50000000000000, 15.0000000000000 ) );
#464 = VECTOR( '', #510, 1000.00000000000 );
#465 = COLOUR_RGB( '', 0.200000002980232, 0.200000002980232, 0.200000002980232 );
#466 = COLOUR_RGB( '', 0.200000002980232, 0.200000002980232, 0.200000002980232 );
#467 = CARTESIAN_POINT( '', ( 4.90747728811183, 8.50000000000000, 10.0000000000000 ) );
#468 = VECTOR( '', #511, 1000.00000000000 );
#469 = COLOUR_RGB( '', 0.200000002980232, 0.200000002980232, 0.200000002980232 );
#470 = CARTESIAN_POINT( '', ( -22.5000000000000, 0.000000000000000, 10.0000000000000 ) );
#471 = AXIS2_PLACEMENT_3D( '', #512, #513, #514 );
#472 = CARTESIAN_POINT( '', ( -9.81495457622365, 2.10796063941020E-014, 10.0000000000000 ) );
#473 = VECTOR( '', #515, 1000.00000000000 );
#474 = COLOUR_RGB( '', 0.200000002980232, 0.200000002980232, 0.200000002980232 );
#475 = CARTESIAN_POINT( '', ( 5.00000000000000, 4.87212438141176E-017, 41.0000000000000 ) );
#476 = AXIS2_PLACEMENT_3D( '', #516, #517, #518 );
#477 = COLOUR_RGB( '', 0.200000002980232, 0.200000002980232, 0.200000002980232 );
#478 = COLOUR_RGB( '', 0.200000002980232, 0.200000002980232, 0.200000002980232 );
#479 = CARTESIAN_POINT( '', ( -25.0000000000000, 0.000000000000000, 7.50000000000000 ) );
#480 = AXIS2_PLACEMENT_3D( '', #519, #520, #521 );
#481 = COLOUR_RGB( '', 0.200000002980232, 0.200000002980232, 0.200000002980232 );
#482 = COLOUR_RGB( '', 0.752941191196442, 0.752941191196442, 0.752941191196442 );
#483 = DIRECTION( '', ( -1.00000000000000, 0.000000000000000, 0.000000000000000 ) );
#484 = DIRECTION( '', ( -0.500000000000000, -0.866025403784438, 0.000000000000000 ) );
#485 = DIRECTION( '', ( 0.500000000000000, -0.866025403784439, 0.000000000000000 ) );
#486 = DIRECTION( '', ( 1.00000000000000, -1.23720025778354E-015, 0.000000000000000 ) );
#487 = DIRECTION( '', ( 0.500000000000000, 0.866025403784439, 0.000000000000000 ) );
#488 = DIRECTION( '', ( -0.500000000000000, 0.866025403784438, 0.000000000000000 ) );
#489 = CARTESIAN_POINT( '', ( 2.34736656052699E-017, 4.87212438141176E-017, 15.0000000000000 ) );
#490 = DIRECTION( '', ( 0.000000000000000, -0.000000000000000, 1.00000000000000 ) );
#491 = DIRECTION( '', ( 0.500000000000000, 0.866025403784439, 0.000000000000000 ) );
#492 = DIRECTION( '', ( 0.500000000000000, 0.866025403784439, 0.000000000000000 ) );
#493 = DIRECTION( '', ( 0.000000000000000, 0.000000000000000, -1.00000000000000 ) );
#494 = DIRECTION( '', ( 0.000000000000000, 0.000000000000000, -1.00000000000000 ) );
#495 = DIRECTION( '', ( 1.00000000000000, -1.23720025778354E-015, 0.000000000000000 ) );
#496 = DIRECTION( '', ( 0.000000000000000, 0.000000000000000, -1.00000000000000 ) );
#497 = CARTESIAN_POINT( '', ( 2.34736656052699E-017, 4.87212438141176E-017, 42.0000000000000 ) );
#498 = DIRECTION( '', ( 0.000000000000000, 0.000000000000000, 1.00000000000000 ) );
#499 = DIRECTION( '', ( 1.00000000000000, 0.000000000000000, 0.000000000000000 ) );
#500 = DIRECTION( '', ( -0.500000000000000, 0.866025403784438, 0.000000000000000 ) );
#501 = DIRECTION( '', ( 0.000000000000000, 0.000000000000000, -1.00000000000000 ) );
#502 = CARTESIAN_POINT( '', ( 0.000000000000000, 0.000000000000000, 0.000000000000000 ) );
#503 = DIRECTION( '', ( 0.000000000000000, 0.000000000000000, 1.00000000000000 ) );
#504 = DIRECTION( '', ( 1.00000000000000, 0.000000000000000, 0.000000000000000 ) );
#505 = CARTESIAN_POINT( '', ( 0.000000000000000, 0.000000000000000, 2.50000000000000 ) );
#506 = DIRECTION( '', ( 0.000000000000000, 0.000000000000000, 1.00000000000000 ) );
#507 = DIRECTION( '', ( 1.00000000000000, 0.000000000000000, 0.000000000000000 ) );
#508 = DIRECTION( '', ( -0.500000000000000, -0.866025403784438, 0.000000000000000 ) );
#509 = DIRECTION( '', ( 0.000000000000000, 0.000000000000000, -1.00000000000000 ) );
#510 = DIRECTION( '', ( 0.000000000000000, 0.000000000000000, -1.00000000000000 ) );
#511 = DIRECTION( '', ( -1.00000000000000, 0.000000000000000, 0.000000000000000 ) );
#512 = CARTESIAN_POINT( '', ( 0.000000000000000, 0.000000000000000, 10.0000000000000 ) );
#513 = DIRECTION( '', ( 0.000000000000000, 0.000000000000000, -1.00000000000000 ) );
#514 = DIRECTION( '', ( -1.00000000000000, 0.000000000000000, 0.000000000000000 ) );
#515 = DIRECTION( '', ( 0.500000000000000, -0.866025403784439, 0.000000000000000 ) );
#516 = CARTESIAN_POINT( '', ( 2.34736656052699E-017, 4.87212438141176E-017, 41.0000000000000 ) );
#517 = DIRECTION( '', ( 0.000000000000000, 0.000000000000000, 1.00000000000000 ) );
#518 = DIRECTION( '', ( 1.00000000000000, 0.000000000000000, 0.000000000000000 ) );
#519 = CARTESIAN_POINT( '', ( 0.000000000000000, 0.000000000000000, 7.50000000000000 ) );
#520 = DIRECTION( '', ( 0.000000000000000, 0.000000000000000, -1.00000000000000 ) );
#521 = DIRECTION( '', ( -1.00000000000000, 0.000000000000000, 0.000000000000000 ) );
ENDSEC;
END-ISO-10303-21;
