ISO-10303-21;
HEADER;
FILE_DESCRIPTION( ( 'Unknown' ), '1' );
FILE_NAME( '//SBS2003/HD_Usb/Disegni/08_LIB/Users_3D/PROD_GAMM_3D/PRMES/7322115.stp', 'Unknown', ( 'Unknown' ), ( 'Unknown' ), 'PSStep 14.0', 'Unknown', '  ' );
FILE_SCHEMA( ( 'AUTOMOTIVE_DESIGN { 1 0 10303 214 1 1 1 1 }' ) );
ENDSEC;
DATA;
#1 = MECHANICAL_DESIGN_GEOMETRIC_PRESENTATION_REPRESENTATION( ' ', ( #10, #11, #12, #13, #14, #15, #16, #17, #18, #19, #20, #21, #22, #23, #24 ), #6 );
#2 = PRODUCT_DEFINITION_CONTEXT( '', #25, 'design' );
#3 = APPLICATION_PROTOCOL_DEFINITION( 'international standard', 'automotive_design', 2001, #25 );
#4 = PRODUCT_CATEGORY_RELATIONSHIP( 'NONE', 'NONE', #26, #27 );
#5 = SHAPE_DEFINITION_REPRESENTATION( #28, #29 );
#6 =  ( GEOMETRIC_REPRESENTATION_CONTEXT( 3 )GLOBAL_UNCERTAINTY_ASSIGNED_CONTEXT( ( #32 ) )GLOBAL_UNIT_ASSIGNED_CONTEXT( ( #34, #35, #36 ) )REPRESENTATION_CONTEXT( 'NONE', 'WORKSPACE' ) );
#10 = STYLED_ITEM( '', ( #38 ), #39 );
#11 = STYLED_ITEM( '', ( #40 ), #41 );
#12 = STYLED_ITEM( '', ( #42 ), #43 );
#13 = STYLED_ITEM( '', ( #44 ), #45 );
#14 = STYLED_ITEM( '', ( #46 ), #47 );
#15 = STYLED_ITEM( '', ( #48 ), #49 );
#16 = STYLED_ITEM( '', ( #50 ), #51 );
#17 = STYLED_ITEM( '', ( #52 ), #53 );
#18 = STYLED_ITEM( '', ( #54 ), #55 );
#19 = STYLED_ITEM( '', ( #56 ), #57 );
#20 = STYLED_ITEM( '', ( #58 ), #59 );
#21 = STYLED_ITEM( '', ( #60 ), #61 );
#22 = STYLED_ITEM( '', ( #62 ), #63 );
#23 = STYLED_ITEM( '', ( #64 ), #65 );
#24 = STYLED_ITEM( '', ( #66 ), #67 );
#25 = APPLICATION_CONTEXT( 'core data for automotive mechanical design processes' );
#26 = PRODUCT_CATEGORY( 'part', 'NONE' );
#27 = PRODUCT_RELATED_PRODUCT_CATEGORY( 'detail', ' ', ( #68 ) );
#28 = PRODUCT_DEFINITION_SHAPE( 'NONE', 'NONE', #69 );
#29 = ADVANCED_BREP_SHAPE_REPRESENTATION( '1', ( #70, #71 ), #6 );
#32 = UNCERTAINTY_MEASURE_WITH_UNIT( LENGTH_MEASURE( 0.00100000000000000 ), #34, '', '' );
#34 =  ( CONVERSION_BASED_UNIT( 'MILLIMETRE', #74 )LENGTH_UNIT(  )NAMED_UNIT( #77 ) );
#35 =  ( NAMED_UNIT( #79 )PLANE_ANGLE_UNIT(  )SI_UNIT( $, .RADIAN. ) );
#36 =  ( NAMED_UNIT( #79 )SI_UNIT( $, .STERADIAN. )SOLID_ANGLE_UNIT(  ) );
#38 = PRESENTATION_STYLE_ASSIGNMENT( ( #85 ) );
#39 = ADVANCED_FACE( '', ( #86, #87 ), #88, .T. );
#40 = PRESENTATION_STYLE_ASSIGNMENT( ( #89 ) );
#41 = ADVANCED_FACE( '', ( #90, #91 ), #92, .T. );
#42 = PRESENTATION_STYLE_ASSIGNMENT( ( #93 ) );
#43 = ADVANCED_FACE( '', ( #94, #95 ), #96, .T. );
#44 = PRESENTATION_STYLE_ASSIGNMENT( ( #97 ) );
#45 = ADVANCED_FACE( '', ( #98, #99 ), #100, .T. );
#46 = PRESENTATION_STYLE_ASSIGNMENT( ( #101 ) );
#47 = ADVANCED_FACE( '', ( #102 ), #103, .F. );
#48 = PRESENTATION_STYLE_ASSIGNMENT( ( #104 ) );
#49 = ADVANCED_FACE( '', ( #105 ), #106, .F. );
#50 = PRESENTATION_STYLE_ASSIGNMENT( ( #107 ) );
#51 = ADVANCED_FACE( '', ( #108 ), #109, .F. );
#52 = PRESENTATION_STYLE_ASSIGNMENT( ( #110 ) );
#53 = ADVANCED_FACE( '', ( #111 ), #112, .F. );
#54 = PRESENTATION_STYLE_ASSIGNMENT( ( #113 ) );
#55 = ADVANCED_FACE( '', ( #114 ), #115, .F. );
#56 = PRESENTATION_STYLE_ASSIGNMENT( ( #116 ) );
#57 = ADVANCED_FACE( '', ( #117 ), #118, .T. );
#58 = PRESENTATION_STYLE_ASSIGNMENT( ( #119 ) );
#59 = ADVANCED_FACE( '', ( #120 ), #121, .F. );
#60 = PRESENTATION_STYLE_ASSIGNMENT( ( #122 ) );
#61 = ADVANCED_FACE( '', ( #123, #124 ), #125, .T. );
#62 = PRESENTATION_STYLE_ASSIGNMENT( ( #126 ) );
#63 = ADVANCED_FACE( '', ( #127 ), #128, .F. );
#64 = PRESENTATION_STYLE_ASSIGNMENT( ( #129 ) );
#65 = ADVANCED_FACE( '', ( #130, #131 ), #132, .T. );
#66 = PRESENTATION_STYLE_ASSIGNMENT( ( #133 ) );
#67 = ADVANCED_FACE( '', ( #134, #135 ), #136, .F. );
#68 = PRODUCT( '1', '1', 'PART-1-DESC', ( #137 ) );
#69 = PRODUCT_DEFINITION( 'NONE', 'NONE', #138, #2 );
#70 = MANIFOLD_SOLID_BREP( '1', #139 );
#71 = AXIS2_PLACEMENT_3D( '', #140, #141, #142 );
#74 = LENGTH_MEASURE_WITH_UNIT( LENGTH_MEASURE( 1.00000000000000 ), #143 );
#77 = DIMENSIONAL_EXPONENTS( 1.00000000000000, 0.000000000000000, 0.000000000000000, 0.000000000000000, 0.000000000000000, 0.000000000000000, 0.000000000000000 );
#79 = DIMENSIONAL_EXPONENTS( 0.000000000000000, 0.000000000000000, 0.000000000000000, 0.000000000000000, 0.000000000000000, 0.000000000000000, 0.000000000000000 );
#85 = SURFACE_STYLE_USAGE( .BOTH., #144 );
#86 = FACE_OUTER_BOUND( '', #145, .T. );
#87 = FACE_OUTER_BOUND( '', #146, .T. );
#88 = CYLINDRICAL_SURFACE( '', #147, 5.00000000000000 );
#89 = SURFACE_STYLE_USAGE( .BOTH., #148 );
#90 = FACE_OUTER_BOUND( '', #149, .T. );
#91 = FACE_BOUND( '', #150, .T. );
#92 = PLANE( '', #151 );
#93 = SURFACE_STYLE_USAGE( .BOTH., #152 );
#94 = FACE_OUTER_BOUND( '', #153, .T. );
#95 = FACE_OUTER_BOUND( '', #154, .T. );
#96 = TOROIDAL_SURFACE( '', #155, 22.5000000000000, 2.50000000000000 );
#97 = SURFACE_STYLE_USAGE( .BOTH., #156 );
#98 = FACE_OUTER_BOUND( '', #157, .T. );
#99 = FACE_OUTER_BOUND( '', #158, .T. );
#100 = CYLINDRICAL_SURFACE( '', #159, 25.0000000000000 );
#101 = SURFACE_STYLE_USAGE( .BOTH., #160 );
#102 = FACE_OUTER_BOUND( '', #161, .T. );
#103 = PLANE( '', #162 );
#104 = SURFACE_STYLE_USAGE( .BOTH., #163 );
#105 = FACE_OUTER_BOUND( '', #164, .T. );
#106 = PLANE( '', #165 );
#107 = SURFACE_STYLE_USAGE( .BOTH., #166 );
#108 = FACE_OUTER_BOUND( '', #167, .T. );
#109 = PLANE( '', #168 );
#110 = SURFACE_STYLE_USAGE( .BOTH., #169 );
#111 = FACE_OUTER_BOUND( '', #170, .T. );
#112 = PLANE( '', #171 );
#113 = SURFACE_STYLE_USAGE( .BOTH., #172 );
#114 = FACE_OUTER_BOUND( '', #173, .T. );
#115 = PLANE( '', #174 );
#116 = SURFACE_STYLE_USAGE( .BOTH., #175 );
#117 = FACE_OUTER_BOUND( '', #176, .T. );
#118 = PLANE( '', #177 );
#119 = SURFACE_STYLE_USAGE( .BOTH., #178 );
#120 = FACE_OUTER_BOUND( '', #179, .T. );
#121 = PLANE( '', #180 );
#122 = SURFACE_STYLE_USAGE( .BOTH., #181 );
#123 = FACE_OUTER_BOUND( '', #182, .T. );
#124 = FACE_BOUND( '', #183, .T. );
#125 = CONICAL_SURFACE( '', #184, 4.00000000000000, 0.785398163397448 );
#126 = SURFACE_STYLE_USAGE( .BOTH., #185 );
#127 = FACE_OUTER_BOUND( '', #186, .T. );
#128 = PLANE( '', #187 );
#129 = SURFACE_STYLE_USAGE( .BOTH., #188 );
#130 = FACE_OUTER_BOUND( '', #189, .T. );
#131 = FACE_OUTER_BOUND( '', #190, .T. );
#132 = TOROIDAL_SURFACE( '', #191, 22.5000000000000, 2.50000000000000 );
#133 = SURFACE_STYLE_USAGE( .BOTH., #192 );
#134 = FACE_OUTER_BOUND( '', #193, .T. );
#135 = FACE_BOUND( '', #194, .T. );
#136 = PLANE( '', #195 );
#137 = PRODUCT_CONTEXT( '', #25, 'mechanical' );
#138 = PRODUCT_DEFINITION_FORMATION_WITH_SPECIFIED_SOURCE( ' ', 'NONE', #68, .NOT_KNOWN. );
#139 = CLOSED_SHELL( '', ( #41, #65, #59, #63, #45, #43, #61, #67, #53, #39, #55, #49, #51, #47, #57 ) );
#140 = CARTESIAN_POINT( '', ( 0.000000000000000, 0.000000000000000, 0.000000000000000 ) );
#141 = DIRECTION( '', ( 0.000000000000000, 0.000000000000000, 1.00000000000000 ) );
#142 = DIRECTION( '', ( 1.00000000000000, 0.000000000000000, 0.000000000000000 ) );
#143 =  ( LENGTH_UNIT(  )NAMED_UNIT( #77 )SI_UNIT( .MILLI., .METRE. ) );
#144 = SURFACE_SIDE_STYLE( '', ( #197 ) );
#145 = EDGE_LOOP( '', ( #198 ) );
#146 = EDGE_LOOP( '', ( #199 ) );
#147 = AXIS2_PLACEMENT_3D( '', #200, #201, #202 );
#148 = SURFACE_SIDE_STYLE( '', ( #203 ) );
#149 = EDGE_LOOP( '', ( #204, #205, #206, #207, #208, #209 ) );
#150 = EDGE_LOOP( '', ( #210 ) );
#151 = AXIS2_PLACEMENT_3D( '', #211, #212, #213 );
#152 = SURFACE_SIDE_STYLE( '', ( #214 ) );
#153 = EDGE_LOOP( '', ( #215 ) );
#154 = EDGE_LOOP( '', ( #216 ) );
#155 = AXIS2_PLACEMENT_3D( '', #217, #218, #219 );
#156 = SURFACE_SIDE_STYLE( '', ( #220 ) );
#157 = EDGE_LOOP( '', ( #221 ) );
#158 = EDGE_LOOP( '', ( #222 ) );
#159 = AXIS2_PLACEMENT_3D( '', #223, #224, #225 );
#160 = SURFACE_SIDE_STYLE( '', ( #226 ) );
#161 = EDGE_LOOP( '', ( #227, #228, #229, #230 ) );
#162 = AXIS2_PLACEMENT_3D( '', #231, #232, #233 );
#163 = SURFACE_SIDE_STYLE( '', ( #234 ) );
#164 = EDGE_LOOP( '', ( #235, #236, #237, #238 ) );
#165 = AXIS2_PLACEMENT_3D( '', #239, #240, #241 );
#166 = SURFACE_SIDE_STYLE( '', ( #242 ) );
#167 = EDGE_LOOP( '', ( #243, #244, #245, #246 ) );
#168 = AXIS2_PLACEMENT_3D( '', #247, #248, #249 );
#169 = SURFACE_SIDE_STYLE( '', ( #250 ) );
#170 = EDGE_LOOP( '', ( #251 ) );
#171 = AXIS2_PLACEMENT_3D( '', #252, #253, #254 );
#172 = SURFACE_SIDE_STYLE( '', ( #255 ) );
#173 = EDGE_LOOP( '', ( #256, #257, #258, #259 ) );
#174 = AXIS2_PLACEMENT_3D( '', #260, #261, #262 );
#175 = SURFACE_SIDE_STYLE( '', ( #263 ) );
#176 = EDGE_LOOP( '', ( #264 ) );
#177 = AXIS2_PLACEMENT_3D( '', #265, #266, #267 );
#178 = SURFACE_SIDE_STYLE( '', ( #268 ) );
#179 = EDGE_LOOP( '', ( #269, #270, #271, #272 ) );
#180 = AXIS2_PLACEMENT_3D( '', #273, #274, #275 );
#181 = SURFACE_SIDE_STYLE( '', ( #276 ) );
#182 = EDGE_LOOP( '', ( #277 ) );
#183 = EDGE_LOOP( '', ( #278 ) );
#184 = AXIS2_PLACEMENT_3D( '', #279, #280, #281 );
#185 = SURFACE_SIDE_STYLE( '', ( #282 ) );
#186 = EDGE_LOOP( '', ( #283, #284, #285, #286 ) );
#187 = AXIS2_PLACEMENT_3D( '', #287, #288, #289 );
#188 = SURFACE_SIDE_STYLE( '', ( #290 ) );
#189 = EDGE_LOOP( '', ( #291 ) );
#190 = EDGE_LOOP( '', ( #292 ) );
#191 = AXIS2_PLACEMENT_3D( '', #293, #294, #295 );
#192 = SURFACE_SIDE_STYLE( '', ( #296 ) );
#193 = EDGE_LOOP( '', ( #297 ) );
#194 = EDGE_LOOP( '', ( #298, #299, #300, #301, #302, #303 ) );
#195 = AXIS2_PLACEMENT_3D( '', #304, #305, #306 );
#197 = SURFACE_STYLE_FILL_AREA( #307 );
#198 = ORIENTED_EDGE( '', *, *, #308, .T. );
#199 = ORIENTED_EDGE( '', *, *, #309, .T. );
#200 = CARTESIAN_POINT( '', ( 2.34736656052699E-017, 4.87212438141176E-017, 47.0000000000000 ) );
#201 = DIRECTION( '', ( -0.000000000000000, -0.000000000000000, 1.00000000000000 ) );
#202 = DIRECTION( '', ( -1.00000000000000, 0.000000000000000, 0.000000000000000 ) );
#203 = SURFACE_STYLE_FILL_AREA( #310 );
#204 = ORIENTED_EDGE( '', *, *, #311, .T. );
#205 = ORIENTED_EDGE( '', *, *, #312, .T. );
#206 = ORIENTED_EDGE( '', *, *, #313, .T. );
#207 = ORIENTED_EDGE( '', *, *, #314, .T. );
#208 = ORIENTED_EDGE( '', *, *, #315, .T. );
#209 = ORIENTED_EDGE( '', *, *, #316, .T. );
#210 = ORIENTED_EDGE( '', *, *, #309, .F. );
#211 = CARTESIAN_POINT( '', ( 0.000000000000000, 0.000000000000000, 15.0000000000000 ) );
#212 = DIRECTION( '', ( 0.000000000000000, 0.000000000000000, 1.00000000000000 ) );
#213 = DIRECTION( '', ( 1.00000000000000, 0.000000000000000, 0.000000000000000 ) );
#214 = SURFACE_STYLE_FILL_AREA( #317 );
#215 = ORIENTED_EDGE( '', *, *, #318, .F. );
#216 = ORIENTED_EDGE( '', *, *, #319, .F. );
#217 = CARTESIAN_POINT( '', ( 0.000000000000000, 0.000000000000000, 7.50000000000000 ) );
#218 = DIRECTION( '', ( 0.000000000000000, 0.000000000000000, -1.00000000000000 ) );
#219 = DIRECTION( '', ( -1.00000000000000, 0.000000000000000, 0.000000000000000 ) );
#220 = SURFACE_STYLE_FILL_AREA( #320 );
#221 = ORIENTED_EDGE( '', *, *, #321, .T. );
#222 = ORIENTED_EDGE( '', *, *, #318, .T. );
#223 = CARTESIAN_POINT( '', ( 0.000000000000000, 0.000000000000000, 57.1500000000000 ) );
#224 = DIRECTION( '', ( -0.000000000000000, -0.000000000000000, -1.00000000000000 ) );
#225 = DIRECTION( '', ( 1.00000000000000, 0.000000000000000, 0.000000000000000 ) );
#226 = SURFACE_STYLE_FILL_AREA( #322 );
#227 = ORIENTED_EDGE( '', *, *, #323, .T. );
#228 = ORIENTED_EDGE( '', *, *, #324, .F. );
#229 = ORIENTED_EDGE( '', *, *, #313, .F. );
#230 = ORIENTED_EDGE( '', *, *, #325, .T. );
#231 = CARTESIAN_POINT( '', ( -9.81495457622365, 2.10796063941020E-014, 15.0000000000000 ) );
#232 = DIRECTION( '', ( 0.866025403784439, 0.500000000000000, 0.000000000000000 ) );
#233 = DIRECTION( '', ( -0.500000000000000, 0.866025403784439, 0.000000000000000 ) );
#234 = SURFACE_STYLE_FILL_AREA( #326 );
#235 = ORIENTED_EDGE( '', *, *, #327, .T. );
#236 = ORIENTED_EDGE( '', *, *, #328, .F. );
#237 = ORIENTED_EDGE( '', *, *, #315, .F. );
#238 = ORIENTED_EDGE( '', *, *, #329, .T. );
#239 = CARTESIAN_POINT( '', ( 4.90747728811183, -8.50000000000000, 15.0000000000000 ) );
#240 = DIRECTION( '', ( -0.866025403784439, 0.500000000000000, 0.000000000000000 ) );
#241 = DIRECTION( '', ( -0.500000000000000, -0.866025403784439, 0.000000000000000 ) );
#242 = SURFACE_STYLE_FILL_AREA( #330 );
#243 = ORIENTED_EDGE( '', *, *, #331, .T. );
#244 = ORIENTED_EDGE( '', *, *, #329, .F. );
#245 = ORIENTED_EDGE( '', *, *, #314, .F. );
#246 = ORIENTED_EDGE( '', *, *, #324, .T. );
#247 = CARTESIAN_POINT( '', ( -4.90747728811183, -8.50000000000000, 15.0000000000000 ) );
#248 = DIRECTION( '', ( 1.23720025778354E-015, 1.00000000000000, 0.000000000000000 ) );
#249 = DIRECTION( '', ( -1.00000000000000, 1.23720025778354E-015, 0.000000000000000 ) );
#250 = SURFACE_STYLE_FILL_AREA( #332 );
#251 = ORIENTED_EDGE( '', *, *, #333, .T. );
#252 = CARTESIAN_POINT( '', ( 1.15681633248879E-015, 0.000000000000000, 0.000000000000000 ) );
#253 = DIRECTION( '', ( 0.000000000000000, 0.000000000000000, 1.00000000000000 ) );
#254 = DIRECTION( '', ( 1.00000000000000, 0.000000000000000, 0.000000000000000 ) );
#255 = SURFACE_STYLE_FILL_AREA( #334 );
#256 = ORIENTED_EDGE( '', *, *, #335, .T. );
#257 = ORIENTED_EDGE( '', *, *, #336, .F. );
#258 = ORIENTED_EDGE( '', *, *, #316, .F. );
#259 = ORIENTED_EDGE( '', *, *, #328, .T. );
#260 = CARTESIAN_POINT( '', ( 9.81495457622366, 1.98776211235471E-014, 15.0000000000000 ) );
#261 = DIRECTION( '', ( -0.866025403784438, -0.500000000000000, 0.000000000000000 ) );
#262 = DIRECTION( '', ( 0.500000000000000, -0.866025403784438, 0.000000000000000 ) );
#263 = SURFACE_STYLE_FILL_AREA( #337 );
#264 = ORIENTED_EDGE( '', *, *, #338, .T. );
#265 = CARTESIAN_POINT( '', ( 2.34736656052699E-017, 4.87212438141176E-017, 47.0000000000000 ) );
#266 = DIRECTION( '', ( 0.000000000000000, 0.000000000000000, 1.00000000000000 ) );
#267 = DIRECTION( '', ( 1.00000000000000, 0.000000000000000, 0.000000000000000 ) );
#268 = SURFACE_STYLE_FILL_AREA( #339 );
#269 = ORIENTED_EDGE( '', *, *, #340, .T. );
#270 = ORIENTED_EDGE( '', *, *, #325, .F. );
#271 = ORIENTED_EDGE( '', *, *, #312, .F. );
#272 = ORIENTED_EDGE( '', *, *, #341, .T. );
#273 = CARTESIAN_POINT( '', ( -4.90747728811182, 8.50000000000000, 15.0000000000000 ) );
#274 = DIRECTION( '', ( 0.866025403784438, -0.500000000000000, 0.000000000000000 ) );
#275 = DIRECTION( '', ( 0.500000000000000, 0.866025403784438, 0.000000000000000 ) );
#276 = SURFACE_STYLE_FILL_AREA( #342 );
#277 = ORIENTED_EDGE( '', *, *, #308, .F. );
#278 = ORIENTED_EDGE( '', *, *, #338, .F. );
#279 = CARTESIAN_POINT( '', ( 2.34736656052699E-017, 4.87212438141176E-017, 47.0000000000000 ) );
#280 = DIRECTION( '', ( -0.000000000000000, 0.000000000000000, -1.00000000000000 ) );
#281 = DIRECTION( '', ( -1.00000000000000, 0.000000000000000, 0.000000000000000 ) );
#282 = SURFACE_STYLE_FILL_AREA( #343 );
#283 = ORIENTED_EDGE( '', *, *, #344, .T. );
#284 = ORIENTED_EDGE( '', *, *, #341, .F. );
#285 = ORIENTED_EDGE( '', *, *, #311, .F. );
#286 = ORIENTED_EDGE( '', *, *, #336, .T. );
#287 = CARTESIAN_POINT( '', ( 4.90747728811183, 8.50000000000000, 15.0000000000000 ) );
#288 = DIRECTION( '', ( 0.000000000000000, -1.00000000000000, 0.000000000000000 ) );
#289 = DIRECTION( '', ( 0.000000000000000, 0.000000000000000, -1.00000000000000 ) );
#290 = SURFACE_STYLE_FILL_AREA( #345 );
#291 = ORIENTED_EDGE( '', *, *, #333, .F. );
#292 = ORIENTED_EDGE( '', *, *, #321, .F. );
#293 = CARTESIAN_POINT( '', ( 0.000000000000000, 0.000000000000000, 2.50000000000000 ) );
#294 = DIRECTION( '', ( 0.000000000000000, 0.000000000000000, 1.00000000000000 ) );
#295 = DIRECTION( '', ( 1.00000000000000, 0.000000000000000, 0.000000000000000 ) );
#296 = SURFACE_STYLE_FILL_AREA( #346 );
#297 = ORIENTED_EDGE( '', *, *, #319, .T. );
#298 = ORIENTED_EDGE( '', *, *, #344, .F. );
#299 = ORIENTED_EDGE( '', *, *, #335, .F. );
#300 = ORIENTED_EDGE( '', *, *, #327, .F. );
#301 = ORIENTED_EDGE( '', *, *, #331, .F. );
#302 = ORIENTED_EDGE( '', *, *, #323, .F. );
#303 = ORIENTED_EDGE( '', *, *, #340, .F. );
#304 = CARTESIAN_POINT( '', ( 25.0000000000000, 0.000000000000000, 10.0000000000000 ) );
#305 = DIRECTION( '', ( 0.000000000000000, 0.000000000000000, -1.00000000000000 ) );
#306 = DIRECTION( '', ( -1.00000000000000, 0.000000000000000, 0.000000000000000 ) );
#307 = FILL_AREA_STYLE( '', ( #347 ) );
#308 = EDGE_CURVE( '', #348, #348, #349, .F. );
#309 = EDGE_CURVE( '', #350, #350, #351, .T. );
#310 = FILL_AREA_STYLE( '', ( #352 ) );
#311 = EDGE_CURVE( '', #353, #354, #355, .T. );
#312 = EDGE_CURVE( '', #354, #356, #357, .T. );
#313 = EDGE_CURVE( '', #356, #358, #359, .T. );
#314 = EDGE_CURVE( '', #358, #360, #361, .T. );
#315 = EDGE_CURVE( '', #360, #362, #363, .T. );
#316 = EDGE_CURVE( '', #362, #353, #364, .T. );
#317 = FILL_AREA_STYLE( '', ( #365 ) );
#318 = EDGE_CURVE( '', #366, #366, #367, .T. );
#319 = EDGE_CURVE( '', #368, #368, #369, .F. );
#320 = FILL_AREA_STYLE( '', ( #370 ) );
#321 = EDGE_CURVE( '', #371, #371, #372, .T. );
#322 = FILL_AREA_STYLE( '', ( #373 ) );
#323 = EDGE_CURVE( '', #374, #375, #376, .T. );
#324 = EDGE_CURVE( '', #358, #375, #377, .T. );
#325 = EDGE_CURVE( '', #356, #374, #378, .T. );
#326 = FILL_AREA_STYLE( '', ( #379 ) );
#327 = EDGE_CURVE( '', #380, #381, #382, .T. );
#328 = EDGE_CURVE( '', #362, #381, #383, .T. );
#329 = EDGE_CURVE( '', #360, #380, #384, .T. );
#330 = FILL_AREA_STYLE( '', ( #385 ) );
#331 = EDGE_CURVE( '', #375, #380, #386, .T. );
#332 = FILL_AREA_STYLE( '', ( #387 ) );
#333 = EDGE_CURVE( '', #388, #388, #389, .F. );
#334 = FILL_AREA_STYLE( '', ( #390 ) );
#335 = EDGE_CURVE( '', #381, #391, #392, .T. );
#336 = EDGE_CURVE( '', #353, #391, #393, .T. );
#337 = FILL_AREA_STYLE( '', ( #394 ) );
#338 = EDGE_CURVE( '', #395, #395, #396, .T. );
#339 = FILL_AREA_STYLE( '', ( #397 ) );
#340 = EDGE_CURVE( '', #398, #374, #399, .T. );
#341 = EDGE_CURVE( '', #354, #398, #400, .T. );
#342 = FILL_AREA_STYLE( '', ( #401 ) );
#343 = FILL_AREA_STYLE( '', ( #402 ) );
#344 = EDGE_CURVE( '', #391, #398, #403, .T. );
#345 = FILL_AREA_STYLE( '', ( #404 ) );
#346 = FILL_AREA_STYLE( '', ( #405 ) );
#347 = FILL_AREA_STYLE_COLOUR( '', #406 );
#348 = VERTEX_POINT( '', #407 );
#349 = CIRCLE( '', #408, 5.00000000000000 );
#350 = VERTEX_POINT( '', #409 );
#351 = CIRCLE( '', #410, 5.00000000000000 );
#352 = FILL_AREA_STYLE_COLOUR( '', #411 );
#353 = VERTEX_POINT( '', #412 );
#354 = VERTEX_POINT( '', #413 );
#355 = LINE( '', #414, #415 );
#356 = VERTEX_POINT( '', #416 );
#357 = LINE( '', #417, #418 );
#358 = VERTEX_POINT( '', #419 );
#359 = LINE( '', #420, #421 );
#360 = VERTEX_POINT( '', #422 );
#361 = LINE( '', #423, #424 );
#362 = VERTEX_POINT( '', #425 );
#363 = LINE( '', #426, #427 );
#364 = LINE( '', #428, #429 );
#365 = FILL_AREA_STYLE_COLOUR( '', #430 );
#366 = VERTEX_POINT( '', #431 );
#367 = CIRCLE( '', #432, 25.0000000000000 );
#368 = VERTEX_POINT( '', #433 );
#369 = CIRCLE( '', #434, 22.5000000000000 );
#370 = FILL_AREA_STYLE_COLOUR( '', #435 );
#371 = VERTEX_POINT( '', #436 );
#372 = CIRCLE( '', #437, 25.0000000000000 );
#373 = FILL_AREA_STYLE_COLOUR( '', #438 );
#374 = VERTEX_POINT( '', #439 );
#375 = VERTEX_POINT( '', #440 );
#376 = LINE( '', #441, #442 );
#377 = LINE( '', #443, #444 );
#378 = LINE( '', #445, #446 );
#379 = FILL_AREA_STYLE_COLOUR( '', #447 );
#380 = VERTEX_POINT( '', #448 );
#381 = VERTEX_POINT( '', #449 );
#382 = LINE( '', #450, #451 );
#383 = LINE( '', #452, #453 );
#384 = LINE( '', #454, #455 );
#385 = FILL_AREA_STYLE_COLOUR( '', #456 );
#386 = LINE( '', #457, #458 );
#387 = FILL_AREA_STYLE_COLOUR( '', #459 );
#388 = VERTEX_POINT( '', #460 );
#389 = CIRCLE( '', #461, 22.5000000000000 );
#390 = FILL_AREA_STYLE_COLOUR( '', #462 );
#391 = VERTEX_POINT( '', #463 );
#392 = LINE( '', #464, #465 );
#393 = LINE( '', #466, #467 );
#394 = FILL_AREA_STYLE_COLOUR( '', #468 );
#395 = VERTEX_POINT( '', #469 );
#396 = CIRCLE( '', #470, 4.00000000000000 );
#397 = FILL_AREA_STYLE_COLOUR( '', #471 );
#398 = VERTEX_POINT( '', #472 );
#399 = LINE( '', #473, #474 );
#400 = LINE( '', #475, #476 );
#401 = FILL_AREA_STYLE_COLOUR( '', #477 );
#402 = FILL_AREA_STYLE_COLOUR( '', #478 );
#403 = LINE( '', #479, #480 );
#404 = FILL_AREA_STYLE_COLOUR( '', #481 );
#405 = FILL_AREA_STYLE_COLOUR( '', #482 );
#406 = COLOUR_RGB( '', 0.752941191196442, 0.752941191196442, 0.752941191196442 );
#407 = CARTESIAN_POINT( '', ( 5.00000000000000, 4.87212438141176E-017, 46.0000000000000 ) );
#408 = AXIS2_PLACEMENT_3D( '', #483, #484, #485 );
#409 = CARTESIAN_POINT( '', ( 2.50000000000000, 4.33012701892220, 15.0000000000000 ) );
#410 = AXIS2_PLACEMENT_3D( '', #486, #487, #488 );
#411 = COLOUR_RGB( '', 0.200000002980232, 0.200000002980232, 0.200000002980232 );
#412 = CARTESIAN_POINT( '', ( 4.90747728811183, 8.50000000000000, 15.0000000000000 ) );
#413 = CARTESIAN_POINT( '', ( -4.90747728811182, 8.50000000000000, 15.0000000000000 ) );
#414 = CARTESIAN_POINT( '', ( 4.90747728811183, 8.50000000000000, 15.0000000000000 ) );
#415 = VECTOR( '', #489, 1000.00000000000 );
#416 = CARTESIAN_POINT( '', ( -9.81495457622365, 2.08166817117217E-014, 15.0000000000000 ) );
#417 = CARTESIAN_POINT( '', ( -4.90747728811182, 8.50000000000000, 15.0000000000000 ) );
#418 = VECTOR( '', #490, 999.999999999999 );
#419 = CARTESIAN_POINT( '', ( -4.90747728811183, -8.50000000000000, 15.0000000000000 ) );
#420 = CARTESIAN_POINT( '', ( -9.81495457622365, 2.10796063941020E-014, 15.0000000000000 ) );
#421 = VECTOR( '', #491, 1000.00000000000 );
#422 = CARTESIAN_POINT( '', ( 4.90747728811183, -8.50000000000000, 15.0000000000000 ) );
#423 = CARTESIAN_POINT( '', ( -4.90747728811183, -8.50000000000000, 15.0000000000000 ) );
#424 = VECTOR( '', #492, 1000.00000000000 );
#425 = CARTESIAN_POINT( '', ( 9.81495457622366, 1.90819582357449E-014, 15.0000000000000 ) );
#426 = CARTESIAN_POINT( '', ( 4.90747728811183, -8.50000000000000, 15.0000000000000 ) );
#427 = VECTOR( '', #493, 1000.00000000000 );
#428 = CARTESIAN_POINT( '', ( 9.81495457622366, 1.98776211235471E-014, 15.0000000000000 ) );
#429 = VECTOR( '', #494, 999.999999999999 );
#430 = COLOUR_RGB( '', 0.200000002980232, 0.200000002980232, 0.200000002980232 );
#431 = CARTESIAN_POINT( '', ( -25.0000000000000, 0.000000000000000, 7.50000000000000 ) );
#432 = AXIS2_PLACEMENT_3D( '', #495, #496, #497 );
#433 = CARTESIAN_POINT( '', ( -22.5000000000000, 0.000000000000000, 10.0000000000000 ) );
#434 = AXIS2_PLACEMENT_3D( '', #498, #499, #500 );
#435 = COLOUR_RGB( '', 0.200000002980232, 0.200000002980232, 0.200000002980232 );
#436 = CARTESIAN_POINT( '', ( 25.0000000000000, 0.000000000000000, 2.50000000000000 ) );
#437 = AXIS2_PLACEMENT_3D( '', #501, #502, #503 );
#438 = COLOUR_RGB( '', 0.200000002980232, 0.200000002980232, 0.200000002980232 );
#439 = CARTESIAN_POINT( '', ( -9.81495457622365, 1.90819582357449E-014, 10.0000000000000 ) );
#440 = CARTESIAN_POINT( '', ( -4.90747728811182, -8.50000000000000, 10.0000000000000 ) );
#441 = CARTESIAN_POINT( '', ( -9.81495457622365, 2.10796063941020E-014, 10.0000000000000 ) );
#442 = VECTOR( '', #504, 1000.00000000000 );
#443 = CARTESIAN_POINT( '', ( -4.90747728811183, -8.50000000000000, 15.0000000000000 ) );
#444 = VECTOR( '', #505, 1000.00000000000 );
#445 = CARTESIAN_POINT( '', ( -9.81495457622365, 2.08166817117217E-014, 15.0000000000000 ) );
#446 = VECTOR( '', #506, 1000.00000000000 );
#447 = COLOUR_RGB( '', 0.200000002980232, 0.200000002980232, 0.200000002980232 );
#448 = CARTESIAN_POINT( '', ( 4.90747728811183, -8.50000000000000, 10.0000000000000 ) );
#449 = CARTESIAN_POINT( '', ( 9.81495457622366, 1.99493199737333E-014, 10.0000000000000 ) );
#450 = CARTESIAN_POINT( '', ( 4.90747728811183, -8.50000000000000, 10.0000000000000 ) );
#451 = VECTOR( '', #507, 1000.00000000000 );
#452 = CARTESIAN_POINT( '', ( 9.81495457622366, 1.90819582357449E-014, 15.0000000000000 ) );
#453 = VECTOR( '', #508, 1000.00000000000 );
#454 = CARTESIAN_POINT( '', ( 4.90747728811183, -8.50000000000000, 15.0000000000000 ) );
#455 = VECTOR( '', #509, 1000.00000000000 );
#456 = COLOUR_RGB( '', 0.200000002980232, 0.200000002980232, 0.200000002980232 );
#457 = CARTESIAN_POINT( '', ( -4.90747728811183, -8.50000000000000, 10.0000000000000 ) );
#458 = VECTOR( '', #510, 1000.00000000000 );
#459 = COLOUR_RGB( '', 0.200000002980232, 0.200000002980232, 0.200000002980232 );
#460 = CARTESIAN_POINT( '', ( 22.5000000000000, 0.000000000000000, 0.000000000000000 ) );
#461 = AXIS2_PLACEMENT_3D( '', #511, #512, #513 );
#462 = COLOUR_RGB( '', 0.200000002980232, 0.200000002980232, 0.200000002980232 );
#463 = CARTESIAN_POINT( '', ( 4.90747728811183, 8.50000000000000, 10.0000000000000 ) );
#464 = CARTESIAN_POINT( '', ( 9.81495457622366, 1.98776211235471E-014, 10.0000000000000 ) );
#465 = VECTOR( '', #514, 999.999999999999 );
#466 = CARTESIAN_POINT( '', ( 4.90747728811183, 8.50000000000000, 15.0000000000000 ) );
#467 = VECTOR( '', #515, 1000.00000000000 );
#468 = COLOUR_RGB( '', 0.200000002980232, 0.200000002980232, 0.200000002980232 );
#469 = CARTESIAN_POINT( '', ( 4.00000000000000, 4.87212438141176E-017, 47.0000000000000 ) );
#470 = AXIS2_PLACEMENT_3D( '', #516, #517, #518 );
#471 = COLOUR_RGB( '', 0.200000002980232, 0.200000002980232, 0.200000002980232 );
#472 = CARTESIAN_POINT( '', ( -4.90747728811182, 8.50000000000000, 10.0000000000000 ) );
#473 = CARTESIAN_POINT( '', ( -4.90747728811182, 8.50000000000000, 10.0000000000000 ) );
#474 = VECTOR( '', #519, 999.999999999999 );
#475 = CARTESIAN_POINT( '', ( -4.90747728811182, 8.50000000000000, 15.0000000000000 ) );
#476 = VECTOR( '', #520, 1000.00000000000 );
#477 = COLOUR_RGB( '', 0.200000002980232, 0.200000002980232, 0.200000002980232 );
#478 = COLOUR_RGB( '', 0.200000002980232, 0.200000002980232, 0.200000002980232 );
#479 = CARTESIAN_POINT( '', ( 4.90747728811183, 8.50000000000000, 10.0000000000000 ) );
#480 = VECTOR( '', #521, 1000.00000000000 );
#481 = COLOUR_RGB( '', 0.200000002980232, 0.200000002980232, 0.200000002980232 );
#482 = COLOUR_RGB( '', 0.200000002980232, 0.200000002980232, 0.200000002980232 );
#483 = CARTESIAN_POINT( '', ( 2.34736656052699E-017, 4.87212438141176E-017, 46.0000000000000 ) );
#484 = DIRECTION( '', ( 0.000000000000000, 0.000000000000000, 1.00000000000000 ) );
#485 = DIRECTION( '', ( 1.00000000000000, 0.000000000000000, 0.000000000000000 ) );
#486 = CARTESIAN_POINT( '', ( 2.34736656052699E-017, 4.87212438141176E-017, 15.0000000000000 ) );
#487 = DIRECTION( '', ( 0.000000000000000, -0.000000000000000, 1.00000000000000 ) );
#488 = DIRECTION( '', ( 0.500000000000000, 0.866025403784439, 0.000000000000000 ) );
#489 = DIRECTION( '', ( -1.00000000000000, 0.000000000000000, 0.000000000000000 ) );
#490 = DIRECTION( '', ( -0.500000000000000, -0.866025403784438, 0.000000000000000 ) );
#491 = DIRECTION( '', ( 0.500000000000000, -0.866025403784439, 0.000000000000000 ) );
#492 = DIRECTION( '', ( 1.00000000000000, -1.23720025778354E-015, 0.000000000000000 ) );
#493 = DIRECTION( '', ( 0.500000000000000, 0.866025403784439, 0.000000000000000 ) );
#494 = DIRECTION( '', ( -0.500000000000000, 0.866025403784438, 0.000000000000000 ) );
#495 = CARTESIAN_POINT( '', ( 0.000000000000000, 0.000000000000000, 7.50000000000000 ) );
#496 = DIRECTION( '', ( 0.000000000000000, 0.000000000000000, -1.00000000000000 ) );
#497 = DIRECTION( '', ( -1.00000000000000, 0.000000000000000, 0.000000000000000 ) );
#498 = CARTESIAN_POINT( '', ( 0.000000000000000, 0.000000000000000, 10.0000000000000 ) );
#499 = DIRECTION( '', ( 0.000000000000000, 0.000000000000000, -1.00000000000000 ) );
#500 = DIRECTION( '', ( -1.00000000000000, 0.000000000000000, 0.000000000000000 ) );
#501 = CARTESIAN_POINT( '', ( 0.000000000000000, 0.000000000000000, 2.50000000000000 ) );
#502 = DIRECTION( '', ( 0.000000000000000, 0.000000000000000, 1.00000000000000 ) );
#503 = DIRECTION( '', ( 1.00000000000000, 0.000000000000000, 0.000000000000000 ) );
#504 = DIRECTION( '', ( 0.500000000000000, -0.866025403784439, 0.000000000000000 ) );
#505 = DIRECTION( '', ( 0.000000000000000, 0.000000000000000, -1.00000000000000 ) );
#506 = DIRECTION( '', ( 0.000000000000000, 0.000000000000000, -1.00000000000000 ) );
#507 = DIRECTION( '', ( 0.500000000000000, 0.866025403784439, 0.000000000000000 ) );
#508 = DIRECTION( '', ( 0.000000000000000, 0.000000000000000, -1.00000000000000 ) );
#509 = DIRECTION( '', ( 0.000000000000000, 0.000000000000000, -1.00000000000000 ) );
#510 = DIRECTION( '', ( 1.00000000000000, -1.23720025778354E-015, 0.000000000000000 ) );
#511 = CARTESIAN_POINT( '', ( 0.000000000000000, 0.000000000000000, 0.000000000000000 ) );
#512 = DIRECTION( '', ( 0.000000000000000, 0.000000000000000, 1.00000000000000 ) );
#513 = DIRECTION( '', ( 1.00000000000000, 0.000000000000000, 0.000000000000000 ) );
#514 = DIRECTION( '', ( -0.500000000000000, 0.866025403784438, 0.000000000000000 ) );
#515 = DIRECTION( '', ( 0.000000000000000, 0.000000000000000, -1.00000000000000 ) );
#516 = CARTESIAN_POINT( '', ( 2.34736656052699E-017, 4.87212438141176E-017, 47.0000000000000 ) );
#517 = DIRECTION( '', ( 0.000000000000000, 0.000000000000000, 1.00000000000000 ) );
#518 = DIRECTION( '', ( 1.00000000000000, 0.000000000000000, 0.000000000000000 ) );
#519 = DIRECTION( '', ( -0.500000000000000, -0.866025403784438, 0.000000000000000 ) );
#520 = DIRECTION( '', ( 0.000000000000000, 0.000000000000000, -1.00000000000000 ) );
#521 = DIRECTION( '', ( -1.00000000000000, 0.000000000000000, 0.000000000000000 ) );
ENDSEC;
END-ISO-10303-21;
