ISO-10303-21;
HEADER;
FILE_DESCRIPTION( ( 'Unknown' ), '1' );
FILE_NAME( '//SBS2003/HD_Usb/Disegni/08_LIB/Users_3D/PROD_GAMM_3D/PRMES/7322190.stp', 'Unknown', ( 'Unknown' ), ( 'Unknown' ), 'PSStep 14.0', 'Unknown', '  ' );
FILE_SCHEMA( ( 'AUTOMOTIVE_DESIGN { 1 0 10303 214 1 1 1 1 }' ) );
ENDSEC;
DATA;
#1 = MECHANICAL_DESIGN_GEOMETRIC_PRESENTATION_REPRESENTATION( ' ', ( #10, #11, #12, #13, #14, #15, #16, #17, #18, #19, #20, #21, #22, #23, #24 ), #6 );
#2 = PRODUCT_DEFINITION_CONTEXT( '', #25, 'design' );
#3 = APPLICATION_PROTOCOL_DEFINITION( 'international standard', 'automotive_design', 2001, #25 );
#4 = PRODUCT_CATEGORY_RELATIONSHIP( 'NONE', 'NONE', #26, #27 );
#5 = SHAPE_DEFINITION_REPRESENTATION( #28, #29 );
#6 =  ( GEOMETRIC_REPRESENTATION_CONTEXT( 3 )GLOBAL_UNCERTAINTY_ASSIGNED_CONTEXT( ( #32 ) )GLOBAL_UNIT_ASSIGNED_CONTEXT( ( #34, #35, #36 ) )REPRESENTATION_CONTEXT( 'NONE', 'WORKSPACE' ) );
#10 = STYLED_ITEM( '', ( #38 ), #39 );
#11 = STYLED_ITEM( '', ( #40 ), #41 );
#12 = STYLED_ITEM( '', ( #42 ), #43 );
#13 = STYLED_ITEM( '', ( #44 ), #45 );
#14 = STYLED_ITEM( '', ( #46 ), #47 );
#15 = STYLED_ITEM( '', ( #48 ), #49 );
#16 = STYLED_ITEM( '', ( #50 ), #51 );
#17 = STYLED_ITEM( '', ( #52 ), #53 );
#18 = STYLED_ITEM( '', ( #54 ), #55 );
#19 = STYLED_ITEM( '', ( #56 ), #57 );
#20 = STYLED_ITEM( '', ( #58 ), #59 );
#21 = STYLED_ITEM( '', ( #60 ), #61 );
#22 = STYLED_ITEM( '', ( #62 ), #63 );
#23 = STYLED_ITEM( '', ( #64 ), #65 );
#24 = STYLED_ITEM( '', ( #66 ), #67 );
#25 = APPLICATION_CONTEXT( 'core data for automotive mechanical design processes' );
#26 = PRODUCT_CATEGORY( 'part', 'NONE' );
#27 = PRODUCT_RELATED_PRODUCT_CATEGORY( 'detail', ' ', ( #68 ) );
#28 = PRODUCT_DEFINITION_SHAPE( 'NONE', 'NONE', #69 );
#29 = ADVANCED_BREP_SHAPE_REPRESENTATION( '1', ( #70, #71 ), #6 );
#32 = UNCERTAINTY_MEASURE_WITH_UNIT( LENGTH_MEASURE( 0.00100000000000000 ), #34, '', '' );
#34 =  ( CONVERSION_BASED_UNIT( 'MILLIMETRE', #74 )LENGTH_UNIT(  )NAMED_UNIT( #77 ) );
#35 =  ( NAMED_UNIT( #79 )PLANE_ANGLE_UNIT(  )SI_UNIT( $, .RADIAN. ) );
#36 =  ( NAMED_UNIT( #79 )SI_UNIT( $, .STERADIAN. )SOLID_ANGLE_UNIT(  ) );
#38 = PRESENTATION_STYLE_ASSIGNMENT( ( #85 ) );
#39 = ADVANCED_FACE( '', ( #86, #87 ), #88, .T. );
#40 = PRESENTATION_STYLE_ASSIGNMENT( ( #89 ) );
#41 = ADVANCED_FACE( '', ( #90, #91 ), #92, .F. );
#42 = PRESENTATION_STYLE_ASSIGNMENT( ( #93 ) );
#43 = ADVANCED_FACE( '', ( #94, #95 ), #96, .T. );
#44 = PRESENTATION_STYLE_ASSIGNMENT( ( #97 ) );
#45 = ADVANCED_FACE( '', ( #98, #99 ), #100, .T. );
#46 = PRESENTATION_STYLE_ASSIGNMENT( ( #101 ) );
#47 = ADVANCED_FACE( '', ( #102 ), #103, .F. );
#48 = PRESENTATION_STYLE_ASSIGNMENT( ( #104 ) );
#49 = ADVANCED_FACE( '', ( #105 ), #106, .F. );
#50 = PRESENTATION_STYLE_ASSIGNMENT( ( #107 ) );
#51 = ADVANCED_FACE( '', ( #108 ), #109, .F. );
#52 = PRESENTATION_STYLE_ASSIGNMENT( ( #110 ) );
#53 = ADVANCED_FACE( '', ( #111 ), #112, .T. );
#54 = PRESENTATION_STYLE_ASSIGNMENT( ( #113 ) );
#55 = ADVANCED_FACE( '', ( #114 ), #115, .F. );
#56 = PRESENTATION_STYLE_ASSIGNMENT( ( #116 ) );
#57 = ADVANCED_FACE( '', ( #117 ), #118, .F. );
#58 = PRESENTATION_STYLE_ASSIGNMENT( ( #119 ) );
#59 = ADVANCED_FACE( '', ( #120 ), #121, .F. );
#60 = PRESENTATION_STYLE_ASSIGNMENT( ( #122 ) );
#61 = ADVANCED_FACE( '', ( #123 ), #124, .F. );
#62 = PRESENTATION_STYLE_ASSIGNMENT( ( #125 ) );
#63 = ADVANCED_FACE( '', ( #126, #127 ), #128, .T. );
#64 = PRESENTATION_STYLE_ASSIGNMENT( ( #129 ) );
#65 = ADVANCED_FACE( '', ( #130, #131 ), #132, .T. );
#66 = PRESENTATION_STYLE_ASSIGNMENT( ( #133 ) );
#67 = ADVANCED_FACE( '', ( #134, #135 ), #136, .T. );
#68 = PRODUCT( '1', '1', 'PART-1-DESC', ( #137 ) );
#69 = PRODUCT_DEFINITION( 'NONE', 'NONE', #138, #2 );
#70 = MANIFOLD_SOLID_BREP( '1', #139 );
#71 = AXIS2_PLACEMENT_3D( '', #140, #141, #142 );
#74 = LENGTH_MEASURE_WITH_UNIT( LENGTH_MEASURE( 1.00000000000000 ), #143 );
#77 = DIMENSIONAL_EXPONENTS( 1.00000000000000, 0.000000000000000, 0.000000000000000, 0.000000000000000, 0.000000000000000, 0.000000000000000, 0.000000000000000 );
#79 = DIMENSIONAL_EXPONENTS( 0.000000000000000, 0.000000000000000, 0.000000000000000, 0.000000000000000, 0.000000000000000, 0.000000000000000, 0.000000000000000 );
#85 = SURFACE_STYLE_USAGE( .BOTH., #144 );
#86 = FACE_OUTER_BOUND( '', #145, .T. );
#87 = FACE_OUTER_BOUND( '', #146, .T. );
#88 = CYLINDRICAL_SURFACE( '', #147, 30.0000000000000 );
#89 = SURFACE_STYLE_USAGE( .BOTH., #148 );
#90 = FACE_OUTER_BOUND( '', #149, .T. );
#91 = FACE_BOUND( '', #150, .T. );
#92 = PLANE( '', #151 );
#93 = SURFACE_STYLE_USAGE( .BOTH., #152 );
#94 = FACE_OUTER_BOUND( '', #153, .T. );
#95 = FACE_BOUND( '', #154, .T. );
#96 = PLANE( '', #155 );
#97 = SURFACE_STYLE_USAGE( .BOTH., #156 );
#98 = FACE_OUTER_BOUND( '', #157, .T. );
#99 = FACE_OUTER_BOUND( '', #158, .T. );
#100 = TOROIDAL_SURFACE( '', #159, 27.5000000000000, 2.50000000000000 );
#101 = SURFACE_STYLE_USAGE( .BOTH., #160 );
#102 = FACE_OUTER_BOUND( '', #161, .T. );
#103 = PLANE( '', #162 );
#104 = SURFACE_STYLE_USAGE( .BOTH., #163 );
#105 = FACE_OUTER_BOUND( '', #164, .T. );
#106 = PLANE( '', #165 );
#107 = SURFACE_STYLE_USAGE( .BOTH., #166 );
#108 = FACE_OUTER_BOUND( '', #167, .T. );
#109 = PLANE( '', #168 );
#110 = SURFACE_STYLE_USAGE( .BOTH., #169 );
#111 = FACE_OUTER_BOUND( '', #170, .T. );
#112 = PLANE( '', #171 );
#113 = SURFACE_STYLE_USAGE( .BOTH., #172 );
#114 = FACE_OUTER_BOUND( '', #173, .T. );
#115 = PLANE( '', #174 );
#116 = SURFACE_STYLE_USAGE( .BOTH., #175 );
#117 = FACE_OUTER_BOUND( '', #176, .T. );
#118 = PLANE( '', #177 );
#119 = SURFACE_STYLE_USAGE( .BOTH., #178 );
#120 = FACE_OUTER_BOUND( '', #179, .T. );
#121 = PLANE( '', #180 );
#122 = SURFACE_STYLE_USAGE( .BOTH., #181 );
#123 = FACE_OUTER_BOUND( '', #182, .T. );
#124 = PLANE( '', #183 );
#125 = SURFACE_STYLE_USAGE( .BOTH., #184 );
#126 = FACE_OUTER_BOUND( '', #185, .T. );
#127 = FACE_BOUND( '', #186, .T. );
#128 = CONICAL_SURFACE( '', #187, 4.00000000000000, 0.785398163397448 );
#129 = SURFACE_STYLE_USAGE( .BOTH., #188 );
#130 = FACE_OUTER_BOUND( '', #189, .T. );
#131 = FACE_OUTER_BOUND( '', #190, .T. );
#132 = TOROIDAL_SURFACE( '', #191, 27.5000000000000, 2.50000000000000 );
#133 = SURFACE_STYLE_USAGE( .BOTH., #192 );
#134 = FACE_OUTER_BOUND( '', #193, .T. );
#135 = FACE_OUTER_BOUND( '', #194, .T. );
#136 = CYLINDRICAL_SURFACE( '', #195, 5.00000000000000 );
#137 = PRODUCT_CONTEXT( '', #25, 'mechanical' );
#138 = PRODUCT_DEFINITION_FORMATION_WITH_SPECIFIED_SOURCE( ' ', 'NONE', #68, .NOT_KNOWN. );
#139 = CLOSED_SHELL( '', ( #43, #45, #47, #61, #39, #65, #63, #41, #49, #67, #57, #55, #51, #59, #53 ) );
#140 = CARTESIAN_POINT( '', ( 0.000000000000000, 0.000000000000000, 0.000000000000000 ) );
#141 = DIRECTION( '', ( 0.000000000000000, 0.000000000000000, 1.00000000000000 ) );
#142 = DIRECTION( '', ( 1.00000000000000, 0.000000000000000, 0.000000000000000 ) );
#143 =  ( LENGTH_UNIT(  )NAMED_UNIT( #77 )SI_UNIT( .MILLI., .METRE. ) );
#144 = SURFACE_SIDE_STYLE( '', ( #197 ) );
#145 = EDGE_LOOP( '', ( #198 ) );
#146 = EDGE_LOOP( '', ( #199 ) );
#147 = AXIS2_PLACEMENT_3D( '', #200, #201, #202 );
#148 = SURFACE_SIDE_STYLE( '', ( #203 ) );
#149 = EDGE_LOOP( '', ( #204 ) );
#150 = EDGE_LOOP( '', ( #205, #206, #207, #208, #209, #210 ) );
#151 = AXIS2_PLACEMENT_3D( '', #211, #212, #213 );
#152 = SURFACE_SIDE_STYLE( '', ( #214 ) );
#153 = EDGE_LOOP( '', ( #215, #216, #217, #218, #219, #220 ) );
#154 = EDGE_LOOP( '', ( #221 ) );
#155 = AXIS2_PLACEMENT_3D( '', #222, #223, #224 );
#156 = SURFACE_SIDE_STYLE( '', ( #225 ) );
#157 = EDGE_LOOP( '', ( #226 ) );
#158 = EDGE_LOOP( '', ( #227 ) );
#159 = AXIS2_PLACEMENT_3D( '', #228, #229, #230 );
#160 = SURFACE_SIDE_STYLE( '', ( #231 ) );
#161 = EDGE_LOOP( '', ( #232, #233, #234, #235 ) );
#162 = AXIS2_PLACEMENT_3D( '', #236, #237, #238 );
#163 = SURFACE_SIDE_STYLE( '', ( #239 ) );
#164 = EDGE_LOOP( '', ( #240 ) );
#165 = AXIS2_PLACEMENT_3D( '', #241, #242, #243 );
#166 = SURFACE_SIDE_STYLE( '', ( #244 ) );
#167 = EDGE_LOOP( '', ( #245, #246, #247, #248 ) );
#168 = AXIS2_PLACEMENT_3D( '', #249, #250, #251 );
#169 = SURFACE_SIDE_STYLE( '', ( #252 ) );
#170 = EDGE_LOOP( '', ( #253 ) );
#171 = AXIS2_PLACEMENT_3D( '', #254, #255, #256 );
#172 = SURFACE_SIDE_STYLE( '', ( #257 ) );
#173 = EDGE_LOOP( '', ( #258, #259, #260, #261 ) );
#174 = AXIS2_PLACEMENT_3D( '', #262, #263, #264 );
#175 = SURFACE_SIDE_STYLE( '', ( #265 ) );
#176 = EDGE_LOOP( '', ( #266, #267, #268, #269 ) );
#177 = AXIS2_PLACEMENT_3D( '', #270, #271, #272 );
#178 = SURFACE_SIDE_STYLE( '', ( #273 ) );
#179 = EDGE_LOOP( '', ( #274, #275, #276, #277 ) );
#180 = AXIS2_PLACEMENT_3D( '', #278, #279, #280 );
#181 = SURFACE_SIDE_STYLE( '', ( #281 ) );
#182 = EDGE_LOOP( '', ( #282, #283, #284, #285 ) );
#183 = AXIS2_PLACEMENT_3D( '', #286, #287, #288 );
#184 = SURFACE_SIDE_STYLE( '', ( #289 ) );
#185 = EDGE_LOOP( '', ( #290 ) );
#186 = EDGE_LOOP( '', ( #291 ) );
#187 = AXIS2_PLACEMENT_3D( '', #292, #293, #294 );
#188 = SURFACE_SIDE_STYLE( '', ( #295 ) );
#189 = EDGE_LOOP( '', ( #296 ) );
#190 = EDGE_LOOP( '', ( #297 ) );
#191 = AXIS2_PLACEMENT_3D( '', #298, #299, #300 );
#192 = SURFACE_SIDE_STYLE( '', ( #301 ) );
#193 = EDGE_LOOP( '', ( #302 ) );
#194 = EDGE_LOOP( '', ( #303 ) );
#195 = AXIS2_PLACEMENT_3D( '', #304, #305, #306 );
#197 = SURFACE_STYLE_FILL_AREA( #307 );
#198 = ORIENTED_EDGE( '', *, *, #308, .T. );
#199 = ORIENTED_EDGE( '', *, *, #309, .T. );
#200 = CARTESIAN_POINT( '', ( 0.000000000000000, 0.000000000000000, 57.1500000000000 ) );
#201 = DIRECTION( '', ( -0.000000000000000, -0.000000000000000, -1.00000000000000 ) );
#202 = DIRECTION( '', ( 1.00000000000000, 0.000000000000000, 0.000000000000000 ) );
#203 = SURFACE_STYLE_FILL_AREA( #310 );
#204 = ORIENTED_EDGE( '', *, *, #311, .T. );
#205 = ORIENTED_EDGE( '', *, *, #312, .F. );
#206 = ORIENTED_EDGE( '', *, *, #313, .F. );
#207 = ORIENTED_EDGE( '', *, *, #314, .F. );
#208 = ORIENTED_EDGE( '', *, *, #315, .F. );
#209 = ORIENTED_EDGE( '', *, *, #316, .F. );
#210 = ORIENTED_EDGE( '', *, *, #317, .F. );
#211 = CARTESIAN_POINT( '', ( 30.0000000000000, 0.000000000000000, 10.0000000000000 ) );
#212 = DIRECTION( '', ( 0.000000000000000, 0.000000000000000, -1.00000000000000 ) );
#213 = DIRECTION( '', ( -1.00000000000000, 0.000000000000000, 0.000000000000000 ) );
#214 = SURFACE_STYLE_FILL_AREA( #318 );
#215 = ORIENTED_EDGE( '', *, *, #319, .T. );
#216 = ORIENTED_EDGE( '', *, *, #320, .T. );
#217 = ORIENTED_EDGE( '', *, *, #321, .T. );
#218 = ORIENTED_EDGE( '', *, *, #322, .T. );
#219 = ORIENTED_EDGE( '', *, *, #323, .T. );
#220 = ORIENTED_EDGE( '', *, *, #324, .T. );
#221 = ORIENTED_EDGE( '', *, *, #325, .F. );
#222 = CARTESIAN_POINT( '', ( 0.000000000000000, 0.000000000000000, 15.0000000000000 ) );
#223 = DIRECTION( '', ( 0.000000000000000, 0.000000000000000, 1.00000000000000 ) );
#224 = DIRECTION( '', ( 1.00000000000000, 0.000000000000000, 0.000000000000000 ) );
#225 = SURFACE_STYLE_FILL_AREA( #326 );
#226 = ORIENTED_EDGE( '', *, *, #327, .F. );
#227 = ORIENTED_EDGE( '', *, *, #308, .F. );
#228 = CARTESIAN_POINT( '', ( 0.000000000000000, 0.000000000000000, 2.50000000000000 ) );
#229 = DIRECTION( '', ( 0.000000000000000, 0.000000000000000, 1.00000000000000 ) );
#230 = DIRECTION( '', ( 1.00000000000000, 0.000000000000000, 0.000000000000000 ) );
#231 = SURFACE_STYLE_FILL_AREA( #328 );
#232 = ORIENTED_EDGE( '', *, *, #317, .T. );
#233 = ORIENTED_EDGE( '', *, *, #329, .F. );
#234 = ORIENTED_EDGE( '', *, *, #320, .F. );
#235 = ORIENTED_EDGE( '', *, *, #330, .T. );
#236 = CARTESIAN_POINT( '', ( -4.90747728811182, 8.50000000000000, 15.0000000000000 ) );
#237 = DIRECTION( '', ( 0.866025403784438, -0.500000000000000, 0.000000000000000 ) );
#238 = DIRECTION( '', ( 0.500000000000000, 0.866025403784438, 0.000000000000000 ) );
#239 = SURFACE_STYLE_FILL_AREA( #331 );
#240 = ORIENTED_EDGE( '', *, *, #327, .T. );
#241 = CARTESIAN_POINT( '', ( 1.15681633248879E-015, 0.000000000000000, 0.000000000000000 ) );
#242 = DIRECTION( '', ( 0.000000000000000, 0.000000000000000, 1.00000000000000 ) );
#243 = DIRECTION( '', ( 1.00000000000000, 0.000000000000000, 0.000000000000000 ) );
#244 = SURFACE_STYLE_FILL_AREA( #332 );
#245 = ORIENTED_EDGE( '', *, *, #315, .T. );
#246 = ORIENTED_EDGE( '', *, *, #333, .F. );
#247 = ORIENTED_EDGE( '', *, *, #322, .F. );
#248 = ORIENTED_EDGE( '', *, *, #334, .T. );
#249 = CARTESIAN_POINT( '', ( -4.90747728811183, -8.50000000000000, 15.0000000000000 ) );
#250 = DIRECTION( '', ( 1.23720025778354E-015, 1.00000000000000, 0.000000000000000 ) );
#251 = DIRECTION( '', ( -1.00000000000000, 1.23720025778354E-015, 0.000000000000000 ) );
#252 = SURFACE_STYLE_FILL_AREA( #335 );
#253 = ORIENTED_EDGE( '', *, *, #336, .T. );
#254 = CARTESIAN_POINT( '', ( 2.34736656052699E-017, 4.87212438141176E-017, 60.0000000000000 ) );
#255 = DIRECTION( '', ( 0.000000000000000, 0.000000000000000, 1.00000000000000 ) );
#256 = DIRECTION( '', ( 1.00000000000000, 0.000000000000000, 0.000000000000000 ) );
#257 = SURFACE_STYLE_FILL_AREA( #337 );
#258 = ORIENTED_EDGE( '', *, *, #314, .T. );
#259 = ORIENTED_EDGE( '', *, *, #338, .F. );
#260 = ORIENTED_EDGE( '', *, *, #323, .F. );
#261 = ORIENTED_EDGE( '', *, *, #333, .T. );
#262 = CARTESIAN_POINT( '', ( 4.90747728811183, -8.50000000000000, 15.0000000000000 ) );
#263 = DIRECTION( '', ( -0.866025403784439, 0.500000000000000, 0.000000000000000 ) );
#264 = DIRECTION( '', ( -0.500000000000000, -0.866025403784439, 0.000000000000000 ) );
#265 = SURFACE_STYLE_FILL_AREA( #339 );
#266 = ORIENTED_EDGE( '', *, *, #313, .T. );
#267 = ORIENTED_EDGE( '', *, *, #340, .F. );
#268 = ORIENTED_EDGE( '', *, *, #324, .F. );
#269 = ORIENTED_EDGE( '', *, *, #338, .T. );
#270 = CARTESIAN_POINT( '', ( 9.81495457622366, 1.98776211235471E-014, 15.0000000000000 ) );
#271 = DIRECTION( '', ( -0.866025403784438, -0.500000000000000, 0.000000000000000 ) );
#272 = DIRECTION( '', ( 0.500000000000000, -0.866025403784438, 0.000000000000000 ) );
#273 = SURFACE_STYLE_FILL_AREA( #341 );
#274 = ORIENTED_EDGE( '', *, *, #316, .T. );
#275 = ORIENTED_EDGE( '', *, *, #334, .F. );
#276 = ORIENTED_EDGE( '', *, *, #321, .F. );
#277 = ORIENTED_EDGE( '', *, *, #329, .T. );
#278 = CARTESIAN_POINT( '', ( -9.81495457622365, 2.10796063941020E-014, 15.0000000000000 ) );
#279 = DIRECTION( '', ( 0.866025403784439, 0.500000000000000, 0.000000000000000 ) );
#280 = DIRECTION( '', ( -0.500000000000000, 0.866025403784439, 0.000000000000000 ) );
#281 = SURFACE_STYLE_FILL_AREA( #342 );
#282 = ORIENTED_EDGE( '', *, *, #312, .T. );
#283 = ORIENTED_EDGE( '', *, *, #330, .F. );
#284 = ORIENTED_EDGE( '', *, *, #319, .F. );
#285 = ORIENTED_EDGE( '', *, *, #340, .T. );
#286 = CARTESIAN_POINT( '', ( 4.90747728811183, 8.50000000000000, 15.0000000000000 ) );
#287 = DIRECTION( '', ( 0.000000000000000, -1.00000000000000, 0.000000000000000 ) );
#288 = DIRECTION( '', ( 0.000000000000000, 0.000000000000000, -1.00000000000000 ) );
#289 = SURFACE_STYLE_FILL_AREA( #343 );
#290 = ORIENTED_EDGE( '', *, *, #344, .F. );
#291 = ORIENTED_EDGE( '', *, *, #336, .F. );
#292 = CARTESIAN_POINT( '', ( 2.34736656052699E-017, 4.87212438141176E-017, 60.0000000000000 ) );
#293 = DIRECTION( '', ( -0.000000000000000, 0.000000000000000, -1.00000000000000 ) );
#294 = DIRECTION( '', ( -1.00000000000000, 0.000000000000000, 0.000000000000000 ) );
#295 = SURFACE_STYLE_FILL_AREA( #345 );
#296 = ORIENTED_EDGE( '', *, *, #309, .F. );
#297 = ORIENTED_EDGE( '', *, *, #311, .F. );
#298 = CARTESIAN_POINT( '', ( 0.000000000000000, 0.000000000000000, 7.50000000000000 ) );
#299 = DIRECTION( '', ( 0.000000000000000, 0.000000000000000, -1.00000000000000 ) );
#300 = DIRECTION( '', ( -1.00000000000000, 0.000000000000000, 0.000000000000000 ) );
#301 = SURFACE_STYLE_FILL_AREA( #346 );
#302 = ORIENTED_EDGE( '', *, *, #344, .T. );
#303 = ORIENTED_EDGE( '', *, *, #325, .T. );
#304 = CARTESIAN_POINT( '', ( 2.34736656052699E-017, 4.87212438141176E-017, 60.0000000000000 ) );
#305 = DIRECTION( '', ( -0.000000000000000, -0.000000000000000, 1.00000000000000 ) );
#306 = DIRECTION( '', ( -1.00000000000000, 0.000000000000000, 0.000000000000000 ) );
#307 = FILL_AREA_STYLE( '', ( #347 ) );
#308 = EDGE_CURVE( '', #348, #348, #349, .T. );
#309 = EDGE_CURVE( '', #350, #350, #351, .T. );
#310 = FILL_AREA_STYLE( '', ( #352 ) );
#311 = EDGE_CURVE( '', #353, #353, #354, .F. );
#312 = EDGE_CURVE( '', #355, #356, #357, .T. );
#313 = EDGE_CURVE( '', #358, #355, #359, .T. );
#314 = EDGE_CURVE( '', #360, #358, #361, .T. );
#315 = EDGE_CURVE( '', #362, #360, #363, .T. );
#316 = EDGE_CURVE( '', #364, #362, #365, .T. );
#317 = EDGE_CURVE( '', #356, #364, #366, .T. );
#318 = FILL_AREA_STYLE( '', ( #367 ) );
#319 = EDGE_CURVE( '', #368, #369, #370, .T. );
#320 = EDGE_CURVE( '', #369, #371, #372, .T. );
#321 = EDGE_CURVE( '', #371, #373, #374, .T. );
#322 = EDGE_CURVE( '', #373, #375, #376, .T. );
#323 = EDGE_CURVE( '', #375, #377, #378, .T. );
#324 = EDGE_CURVE( '', #377, #368, #379, .T. );
#325 = EDGE_CURVE( '', #380, #380, #381, .T. );
#326 = FILL_AREA_STYLE( '', ( #382 ) );
#327 = EDGE_CURVE( '', #383, #383, #384, .F. );
#328 = FILL_AREA_STYLE( '', ( #385 ) );
#329 = EDGE_CURVE( '', #371, #364, #386, .T. );
#330 = EDGE_CURVE( '', #369, #356, #387, .T. );
#331 = FILL_AREA_STYLE( '', ( #388 ) );
#332 = FILL_AREA_STYLE( '', ( #389 ) );
#333 = EDGE_CURVE( '', #375, #360, #390, .T. );
#334 = EDGE_CURVE( '', #373, #362, #391, .T. );
#335 = FILL_AREA_STYLE( '', ( #392 ) );
#336 = EDGE_CURVE( '', #393, #393, #394, .T. );
#337 = FILL_AREA_STYLE( '', ( #395 ) );
#338 = EDGE_CURVE( '', #377, #358, #396, .T. );
#339 = FILL_AREA_STYLE( '', ( #397 ) );
#340 = EDGE_CURVE( '', #368, #355, #398, .T. );
#341 = FILL_AREA_STYLE( '', ( #399 ) );
#342 = FILL_AREA_STYLE( '', ( #400 ) );
#343 = FILL_AREA_STYLE( '', ( #401 ) );
#344 = EDGE_CURVE( '', #402, #402, #403, .F. );
#345 = FILL_AREA_STYLE( '', ( #404 ) );
#346 = FILL_AREA_STYLE( '', ( #405 ) );
#347 = FILL_AREA_STYLE_COLOUR( '', #406 );
#348 = VERTEX_POINT( '', #407 );
#349 = CIRCLE( '', #408, 30.0000000000000 );
#350 = VERTEX_POINT( '', #409 );
#351 = CIRCLE( '', #410, 30.0000000000000 );
#352 = FILL_AREA_STYLE_COLOUR( '', #411 );
#353 = VERTEX_POINT( '', #412 );
#354 = CIRCLE( '', #413, 27.5000000000000 );
#355 = VERTEX_POINT( '', #414 );
#356 = VERTEX_POINT( '', #415 );
#357 = LINE( '', #416, #417 );
#358 = VERTEX_POINT( '', #418 );
#359 = LINE( '', #419, #420 );
#360 = VERTEX_POINT( '', #421 );
#361 = LINE( '', #422, #423 );
#362 = VERTEX_POINT( '', #424 );
#363 = LINE( '', #425, #426 );
#364 = VERTEX_POINT( '', #427 );
#365 = LINE( '', #428, #429 );
#366 = LINE( '', #430, #431 );
#367 = FILL_AREA_STYLE_COLOUR( '', #432 );
#368 = VERTEX_POINT( '', #433 );
#369 = VERTEX_POINT( '', #434 );
#370 = LINE( '', #435, #436 );
#371 = VERTEX_POINT( '', #437 );
#372 = LINE( '', #438, #439 );
#373 = VERTEX_POINT( '', #440 );
#374 = LINE( '', #441, #442 );
#375 = VERTEX_POINT( '', #443 );
#376 = LINE( '', #444, #445 );
#377 = VERTEX_POINT( '', #446 );
#378 = LINE( '', #447, #448 );
#379 = LINE( '', #449, #450 );
#380 = VERTEX_POINT( '', #451 );
#381 = CIRCLE( '', #452, 5.00000000000000 );
#382 = FILL_AREA_STYLE_COLOUR( '', #453 );
#383 = VERTEX_POINT( '', #454 );
#384 = CIRCLE( '', #455, 27.5000000000000 );
#385 = FILL_AREA_STYLE_COLOUR( '', #456 );
#386 = LINE( '', #457, #458 );
#387 = LINE( '', #459, #460 );
#388 = FILL_AREA_STYLE_COLOUR( '', #461 );
#389 = FILL_AREA_STYLE_COLOUR( '', #462 );
#390 = LINE( '', #463, #464 );
#391 = LINE( '', #465, #466 );
#392 = FILL_AREA_STYLE_COLOUR( '', #467 );
#393 = VERTEX_POINT( '', #468 );
#394 = CIRCLE( '', #469, 4.00000000000000 );
#395 = FILL_AREA_STYLE_COLOUR( '', #470 );
#396 = LINE( '', #471, #472 );
#397 = FILL_AREA_STYLE_COLOUR( '', #473 );
#398 = LINE( '', #474, #475 );
#399 = FILL_AREA_STYLE_COLOUR( '', #476 );
#400 = FILL_AREA_STYLE_COLOUR( '', #477 );
#401 = FILL_AREA_STYLE_COLOUR( '', #478 );
#402 = VERTEX_POINT( '', #479 );
#403 = CIRCLE( '', #480, 5.00000000000000 );
#404 = FILL_AREA_STYLE_COLOUR( '', #481 );
#405 = FILL_AREA_STYLE_COLOUR( '', #482 );
#406 = COLOUR_RGB( '', 0.200000002980232, 0.200000002980232, 0.200000002980232 );
#407 = CARTESIAN_POINT( '', ( 30.0000000000000, 0.000000000000000, 2.50000000000000 ) );
#408 = AXIS2_PLACEMENT_3D( '', #483, #484, #485 );
#409 = CARTESIAN_POINT( '', ( -30.0000000000000, 0.000000000000000, 7.50000000000000 ) );
#410 = AXIS2_PLACEMENT_3D( '', #486, #487, #488 );
#411 = COLOUR_RGB( '', 0.200000002980232, 0.200000002980232, 0.200000002980232 );
#412 = CARTESIAN_POINT( '', ( -27.5000000000000, 0.000000000000000, 10.0000000000000 ) );
#413 = AXIS2_PLACEMENT_3D( '', #489, #490, #491 );
#414 = CARTESIAN_POINT( '', ( 4.90747728811183, 8.50000000000000, 10.0000000000000 ) );
#415 = CARTESIAN_POINT( '', ( -4.90747728811182, 8.50000000000000, 10.0000000000000 ) );
#416 = CARTESIAN_POINT( '', ( 4.90747728811183, 8.50000000000000, 10.0000000000000 ) );
#417 = VECTOR( '', #492, 1000.00000000000 );
#418 = CARTESIAN_POINT( '', ( 9.81495457622366, 1.90819582357449E-014, 10.0000000000000 ) );
#419 = CARTESIAN_POINT( '', ( 9.81495457622366, 1.98776211235471E-014, 10.0000000000000 ) );
#420 = VECTOR( '', #493, 999.999999999999 );
#421 = CARTESIAN_POINT( '', ( 4.90747728811183, -8.50000000000000, 10.0000000000000 ) );
#422 = CARTESIAN_POINT( '', ( 4.90747728811183, -8.50000000000000, 10.0000000000000 ) );
#423 = VECTOR( '', #494, 1000.00000000000 );
#424 = CARTESIAN_POINT( '', ( -4.90747728811182, -8.50000000000000, 10.0000000000000 ) );
#425 = CARTESIAN_POINT( '', ( -4.90747728811183, -8.50000000000000, 10.0000000000000 ) );
#426 = VECTOR( '', #495, 1000.00000000000 );
#427 = CARTESIAN_POINT( '', ( -9.81495457622365, 2.08166817117217E-014, 10.0000000000000 ) );
#428 = CARTESIAN_POINT( '', ( -9.81495457622365, 2.10796063941020E-014, 10.0000000000000 ) );
#429 = VECTOR( '', #496, 1000.00000000000 );
#430 = CARTESIAN_POINT( '', ( -4.90747728811182, 8.50000000000000, 10.0000000000000 ) );
#431 = VECTOR( '', #497, 999.999999999999 );
#432 = COLOUR_RGB( '', 0.200000002980232, 0.200000002980232, 0.200000002980232 );
#433 = CARTESIAN_POINT( '', ( 4.90747728811183, 8.50000000000000, 15.0000000000000 ) );
#434 = CARTESIAN_POINT( '', ( -4.90747728811182, 8.50000000000000, 15.0000000000000 ) );
#435 = CARTESIAN_POINT( '', ( 4.90747728811183, 8.50000000000000, 15.0000000000000 ) );
#436 = VECTOR( '', #498, 1000.00000000000 );
#437 = CARTESIAN_POINT( '', ( -9.81495457622365, 2.08166817117217E-014, 15.0000000000000 ) );
#438 = CARTESIAN_POINT( '', ( -4.90747728811182, 8.50000000000000, 15.0000000000000 ) );
#439 = VECTOR( '', #499, 999.999999999999 );
#440 = CARTESIAN_POINT( '', ( -4.90747728811183, -8.50000000000000, 15.0000000000000 ) );
#441 = CARTESIAN_POINT( '', ( -9.81495457622365, 2.10796063941020E-014, 15.0000000000000 ) );
#442 = VECTOR( '', #500, 1000.00000000000 );
#443 = CARTESIAN_POINT( '', ( 4.90747728811183, -8.50000000000000, 15.0000000000000 ) );
#444 = CARTESIAN_POINT( '', ( -4.90747728811183, -8.50000000000000, 15.0000000000000 ) );
#445 = VECTOR( '', #501, 1000.00000000000 );
#446 = CARTESIAN_POINT( '', ( 9.81495457622366, 1.90819582357449E-014, 15.0000000000000 ) );
#447 = CARTESIAN_POINT( '', ( 4.90747728811183, -8.50000000000000, 15.0000000000000 ) );
#448 = VECTOR( '', #502, 1000.00000000000 );
#449 = CARTESIAN_POINT( '', ( 9.81495457622366, 1.98776211235471E-014, 15.0000000000000 ) );
#450 = VECTOR( '', #503, 999.999999999999 );
#451 = CARTESIAN_POINT( '', ( 2.50000000000000, 4.33012701892220, 15.0000000000000 ) );
#452 = AXIS2_PLACEMENT_3D( '', #504, #505, #506 );
#453 = COLOUR_RGB( '', 0.200000002980232, 0.200000002980232, 0.200000002980232 );
#454 = CARTESIAN_POINT( '', ( 27.5000000000000, 0.000000000000000, 0.000000000000000 ) );
#455 = AXIS2_PLACEMENT_3D( '', #507, #508, #509 );
#456 = COLOUR_RGB( '', 0.200000002980232, 0.200000002980232, 0.200000002980232 );
#457 = CARTESIAN_POINT( '', ( -9.81495457622365, 2.08166817117217E-014, 15.0000000000000 ) );
#458 = VECTOR( '', #510, 1000.00000000000 );
#459 = CARTESIAN_POINT( '', ( -4.90747728811182, 8.50000000000000, 15.0000000000000 ) );
#460 = VECTOR( '', #511, 1000.00000000000 );
#461 = COLOUR_RGB( '', 0.200000002980232, 0.200000002980232, 0.200000002980232 );
#462 = COLOUR_RGB( '', 0.200000002980232, 0.200000002980232, 0.200000002980232 );
#463 = CARTESIAN_POINT( '', ( 4.90747728811183, -8.50000000000000, 15.0000000000000 ) );
#464 = VECTOR( '', #512, 1000.00000000000 );
#465 = CARTESIAN_POINT( '', ( -4.90747728811183, -8.50000000000000, 15.0000000000000 ) );
#466 = VECTOR( '', #513, 1000.00000000000 );
#467 = COLOUR_RGB( '', 0.200000002980232, 0.200000002980232, 0.200000002980232 );
#468 = CARTESIAN_POINT( '', ( 4.00000000000000, 4.87212438141176E-017, 60.0000000000000 ) );
#469 = AXIS2_PLACEMENT_3D( '', #514, #515, #516 );
#470 = COLOUR_RGB( '', 0.200000002980232, 0.200000002980232, 0.200000002980232 );
#471 = CARTESIAN_POINT( '', ( 9.81495457622366, 1.90819582357449E-014, 15.0000000000000 ) );
#472 = VECTOR( '', #517, 1000.00000000000 );
#473 = COLOUR_RGB( '', 0.200000002980232, 0.200000002980232, 0.200000002980232 );
#474 = CARTESIAN_POINT( '', ( 4.90747728811183, 8.50000000000000, 15.0000000000000 ) );
#475 = VECTOR( '', #518, 1000.00000000000 );
#476 = COLOUR_RGB( '', 0.200000002980232, 0.200000002980232, 0.200000002980232 );
#477 = COLOUR_RGB( '', 0.200000002980232, 0.200000002980232, 0.200000002980232 );
#478 = COLOUR_RGB( '', 0.200000002980232, 0.200000002980232, 0.200000002980232 );
#479 = CARTESIAN_POINT( '', ( 5.00000000000000, 4.87212438141176E-017, 59.0000000000000 ) );
#480 = AXIS2_PLACEMENT_3D( '', #519, #520, #521 );
#481 = COLOUR_RGB( '', 0.200000002980232, 0.200000002980232, 0.200000002980232 );
#482 = COLOUR_RGB( '', 0.752941191196442, 0.752941191196442, 0.752941191196442 );
#483 = CARTESIAN_POINT( '', ( 0.000000000000000, 0.000000000000000, 2.50000000000000 ) );
#484 = DIRECTION( '', ( 0.000000000000000, 0.000000000000000, 1.00000000000000 ) );
#485 = DIRECTION( '', ( 1.00000000000000, 0.000000000000000, 0.000000000000000 ) );
#486 = CARTESIAN_POINT( '', ( 0.000000000000000, 0.000000000000000, 7.50000000000000 ) );
#487 = DIRECTION( '', ( 0.000000000000000, 0.000000000000000, -1.00000000000000 ) );
#488 = DIRECTION( '', ( -1.00000000000000, 0.000000000000000, 0.000000000000000 ) );
#489 = CARTESIAN_POINT( '', ( 0.000000000000000, 0.000000000000000, 10.0000000000000 ) );
#490 = DIRECTION( '', ( 0.000000000000000, 0.000000000000000, -1.00000000000000 ) );
#491 = DIRECTION( '', ( -1.00000000000000, 0.000000000000000, 0.000000000000000 ) );
#492 = DIRECTION( '', ( -1.00000000000000, 0.000000000000000, 0.000000000000000 ) );
#493 = DIRECTION( '', ( -0.500000000000000, 0.866025403784438, 0.000000000000000 ) );
#494 = DIRECTION( '', ( 0.500000000000000, 0.866025403784439, 0.000000000000000 ) );
#495 = DIRECTION( '', ( 1.00000000000000, -1.23720025778354E-015, 0.000000000000000 ) );
#496 = DIRECTION( '', ( 0.500000000000000, -0.866025403784439, 0.000000000000000 ) );
#497 = DIRECTION( '', ( -0.500000000000000, -0.866025403784438, 0.000000000000000 ) );
#498 = DIRECTION( '', ( -1.00000000000000, 0.000000000000000, 0.000000000000000 ) );
#499 = DIRECTION( '', ( -0.500000000000000, -0.866025403784438, 0.000000000000000 ) );
#500 = DIRECTION( '', ( 0.500000000000000, -0.866025403784439, 0.000000000000000 ) );
#501 = DIRECTION( '', ( 1.00000000000000, -1.23720025778354E-015, 0.000000000000000 ) );
#502 = DIRECTION( '', ( 0.500000000000000, 0.866025403784439, 0.000000000000000 ) );
#503 = DIRECTION( '', ( -0.500000000000000, 0.866025403784438, 0.000000000000000 ) );
#504 = CARTESIAN_POINT( '', ( 2.34736656052699E-017, 4.87212438141176E-017, 15.0000000000000 ) );
#505 = DIRECTION( '', ( 0.000000000000000, -0.000000000000000, 1.00000000000000 ) );
#506 = DIRECTION( '', ( 0.500000000000000, 0.866025403784439, 0.000000000000000 ) );
#507 = CARTESIAN_POINT( '', ( 0.000000000000000, 0.000000000000000, 0.000000000000000 ) );
#508 = DIRECTION( '', ( 0.000000000000000, 0.000000000000000, 1.00000000000000 ) );
#509 = DIRECTION( '', ( 1.00000000000000, 0.000000000000000, 0.000000000000000 ) );
#510 = DIRECTION( '', ( 0.000000000000000, 0.000000000000000, -1.00000000000000 ) );
#511 = DIRECTION( '', ( 0.000000000000000, 0.000000000000000, -1.00000000000000 ) );
#512 = DIRECTION( '', ( 0.000000000000000, 0.000000000000000, -1.00000000000000 ) );
#513 = DIRECTION( '', ( 0.000000000000000, 0.000000000000000, -1.00000000000000 ) );
#514 = CARTESIAN_POINT( '', ( 2.34736656052699E-017, 4.87212438141176E-017, 60.0000000000000 ) );
#515 = DIRECTION( '', ( 0.000000000000000, 0.000000000000000, 1.00000000000000 ) );
#516 = DIRECTION( '', ( 1.00000000000000, 0.000000000000000, 0.000000000000000 ) );
#517 = DIRECTION( '', ( 0.000000000000000, 0.000000000000000, -1.00000000000000 ) );
#518 = DIRECTION( '', ( 0.000000000000000, 0.000000000000000, -1.00000000000000 ) );
#519 = CARTESIAN_POINT( '', ( 2.34736656052699E-017, 4.87212438141176E-017, 59.0000000000000 ) );
#520 = DIRECTION( '', ( 0.000000000000000, 0.000000000000000, 1.00000000000000 ) );
#521 = DIRECTION( '', ( 1.00000000000000, 0.000000000000000, 0.000000000000000 ) );
ENDSEC;
END-ISO-10303-21;
