ISO-10303-21;
HEADER;
FILE_DESCRIPTION( ( 'Unknown' ), '1' );
FILE_NAME( '//SBS2003/HD_Usb/Disegni/08_LIB/Users_3D/PROD_GAMM_3D/PRTB/7322665.stp', 'Unknown', ( 'Unknown' ), ( 'Unknown' ), 'PSStep 14.0', 'Unknown', '  ' );
FILE_SCHEMA( ( 'AUTOMOTIVE_DESIGN { 1 0 10303 214 1 1 1 1 }' ) );
ENDSEC;
DATA;
#1 = MECHANICAL_DESIGN_GEOMETRIC_PRESENTATION_REPRESENTATION( ' ', ( #10, #11, #12, #13, #14, #15, #16, #17, #18, #19, #20 ), #6 );
#2 = PRODUCT_DEFINITION_CONTEXT( '', #21, 'design' );
#3 = APPLICATION_PROTOCOL_DEFINITION( 'international standard', 'automotive_design', 2001, #21 );
#4 = PRODUCT_CATEGORY_RELATIONSHIP( 'NONE', 'NONE', #22, #23 );
#5 = SHAPE_DEFINITION_REPRESENTATION( #24, #25 );
#6 =  ( GEOMETRIC_REPRESENTATION_CONTEXT( 3 )GLOBAL_UNCERTAINTY_ASSIGNED_CONTEXT( ( #28 ) )GLOBAL_UNIT_ASSIGNED_CONTEXT( ( #30, #31, #32 ) )REPRESENTATION_CONTEXT( 'NONE', 'WORKSPACE' ) );
#10 = STYLED_ITEM( '', ( #34 ), #35 );
#11 = STYLED_ITEM( '', ( #36 ), #37 );
#12 = STYLED_ITEM( '', ( #38 ), #39 );
#13 = STYLED_ITEM( '', ( #40 ), #41 );
#14 = STYLED_ITEM( '', ( #42 ), #43 );
#15 = STYLED_ITEM( '', ( #44 ), #45 );
#16 = STYLED_ITEM( '', ( #46 ), #47 );
#17 = STYLED_ITEM( '', ( #48 ), #49 );
#18 = STYLED_ITEM( '', ( #50 ), #51 );
#19 = STYLED_ITEM( '', ( #52 ), #53 );
#20 = STYLED_ITEM( '', ( #54 ), #55 );
#21 = APPLICATION_CONTEXT( 'core data for automotive mechanical design processes' );
#22 = PRODUCT_CATEGORY( 'part', 'NONE' );
#23 = PRODUCT_RELATED_PRODUCT_CATEGORY( 'detail', ' ', ( #56 ) );
#24 = PRODUCT_DEFINITION_SHAPE( 'NONE', 'NONE', #57 );
#25 = ADVANCED_BREP_SHAPE_REPRESENTATION( '1', ( #58, #59 ), #6 );
#28 = UNCERTAINTY_MEASURE_WITH_UNIT( LENGTH_MEASURE( 0.00100000000000000 ), #30, '', '' );
#30 =  ( CONVERSION_BASED_UNIT( 'MILLIMETRE', #62 )LENGTH_UNIT(  )NAMED_UNIT( #65 ) );
#31 =  ( NAMED_UNIT( #67 )PLANE_ANGLE_UNIT(  )SI_UNIT( $, .RADIAN. ) );
#32 =  ( NAMED_UNIT( #67 )SI_UNIT( $, .STERADIAN. )SOLID_ANGLE_UNIT(  ) );
#34 = PRESENTATION_STYLE_ASSIGNMENT( ( #73 ) );
#35 = ADVANCED_FACE( '', ( #74, #75 ), #76, .T. );
#36 = PRESENTATION_STYLE_ASSIGNMENT( ( #77 ) );
#37 = ADVANCED_FACE( '', ( #78, #79 ), #80, .T. );
#38 = PRESENTATION_STYLE_ASSIGNMENT( ( #81 ) );
#39 = ADVANCED_FACE( '', ( #82, #83 ), #84, .T. );
#40 = PRESENTATION_STYLE_ASSIGNMENT( ( #85 ) );
#41 = ADVANCED_FACE( '', ( #86, #87 ), #88, .T. );
#42 = PRESENTATION_STYLE_ASSIGNMENT( ( #89 ) );
#43 = ADVANCED_FACE( '', ( #90, #91 ), #92, .F. );
#44 = PRESENTATION_STYLE_ASSIGNMENT( ( #93 ) );
#45 = ADVANCED_FACE( '', ( #94, #95 ), #96, .T. );
#46 = PRESENTATION_STYLE_ASSIGNMENT( ( #97 ) );
#47 = ADVANCED_FACE( '', ( #98, #99 ), #100, .T. );
#48 = PRESENTATION_STYLE_ASSIGNMENT( ( #101 ) );
#49 = ADVANCED_FACE( '', ( #102, #103 ), #104, .T. );
#50 = PRESENTATION_STYLE_ASSIGNMENT( ( #105 ) );
#51 = ADVANCED_FACE( '', ( #106 ), #107, .F. );
#52 = PRESENTATION_STYLE_ASSIGNMENT( ( #108 ) );
#53 = ADVANCED_FACE( '', ( #109 ), #110, .F. );
#54 = PRESENTATION_STYLE_ASSIGNMENT( ( #111 ) );
#55 = ADVANCED_FACE( '', ( #112, #113 ), #114, .F. );
#56 = PRODUCT( '1', '1', 'PART-1-DESC', ( #115 ) );
#57 = PRODUCT_DEFINITION( 'NONE', 'NONE', #116, #2 );
#58 = MANIFOLD_SOLID_BREP( '1', #117 );
#59 = AXIS2_PLACEMENT_3D( '', #118, #119, #120 );
#62 = LENGTH_MEASURE_WITH_UNIT( LENGTH_MEASURE( 1.00000000000000 ), #121 );
#65 = DIMENSIONAL_EXPONENTS( 1.00000000000000, 0.000000000000000, 0.000000000000000, 0.000000000000000, 0.000000000000000, 0.000000000000000, 0.000000000000000 );
#67 = DIMENSIONAL_EXPONENTS( 0.000000000000000, 0.000000000000000, 0.000000000000000, 0.000000000000000, 0.000000000000000, 0.000000000000000, 0.000000000000000 );
#73 = SURFACE_STYLE_USAGE( .BOTH., #122 );
#74 = FACE_OUTER_BOUND( '', #123, .T. );
#75 = FACE_OUTER_BOUND( '', #124, .T. );
#76 = TOROIDAL_SURFACE( '', #125, 12.5000000000000, 0.500000000000000 );
#77 = SURFACE_STYLE_USAGE( .BOTH., #126 );
#78 = FACE_OUTER_BOUND( '', #127, .T. );
#79 = FACE_BOUND( '', #128, .T. );
#80 = CONICAL_SURFACE( '', #129, 4.00000000000000, 0.785398163397448 );
#81 = SURFACE_STYLE_USAGE( .BOTH., #130 );
#82 = FACE_OUTER_BOUND( '', #131, .T. );
#83 = FACE_OUTER_BOUND( '', #132, .T. );
#84 = TOROIDAL_SURFACE( '', #133, 37.5000000000000, 2.50000000000000 );
#85 = SURFACE_STYLE_USAGE( .BOTH., #134 );
#86 = FACE_OUTER_BOUND( '', #135, .T. );
#87 = FACE_OUTER_BOUND( '', #136, .T. );
#88 = TOROIDAL_SURFACE( '', #137, 37.5000000000000, 2.50000000000000 );
#89 = SURFACE_STYLE_USAGE( .BOTH., #138 );
#90 = FACE_OUTER_BOUND( '', #139, .T. );
#91 = FACE_BOUND( '', #140, .T. );
#92 = PLANE( '', #141 );
#93 = SURFACE_STYLE_USAGE( .BOTH., #142 );
#94 = FACE_OUTER_BOUND( '', #143, .T. );
#95 = FACE_OUTER_BOUND( '', #144, .T. );
#96 = CYLINDRICAL_SURFACE( '', #145, 13.0000000000000 );
#97 = SURFACE_STYLE_USAGE( .BOTH., #146 );
#98 = FACE_OUTER_BOUND( '', #147, .T. );
#99 = FACE_OUTER_BOUND( '', #148, .T. );
#100 = CYLINDRICAL_SURFACE( '', #149, 40.0000000000000 );
#101 = SURFACE_STYLE_USAGE( .BOTH., #150 );
#102 = FACE_OUTER_BOUND( '', #151, .T. );
#103 = FACE_OUTER_BOUND( '', #152, .T. );
#104 = CYLINDRICAL_SURFACE( '', #153, 5.00000000000000 );
#105 = SURFACE_STYLE_USAGE( .BOTH., #154 );
#106 = FACE_OUTER_BOUND( '', #155, .T. );
#107 = PLANE( '', #156 );
#108 = SURFACE_STYLE_USAGE( .BOTH., #157 );
#109 = FACE_OUTER_BOUND( '', #158, .T. );
#110 = PLANE( '', #159 );
#111 = SURFACE_STYLE_USAGE( .BOTH., #160 );
#112 = FACE_OUTER_BOUND( '', #161, .T. );
#113 = FACE_BOUND( '', #162, .T. );
#114 = PLANE( '', #163 );
#115 = PRODUCT_CONTEXT( '', #21, 'mechanical' );
#116 = PRODUCT_DEFINITION_FORMATION_WITH_SPECIFIED_SOURCE( ' ', 'NONE', #56, .NOT_KNOWN. );
#117 = CLOSED_SHELL( '', ( #53, #35, #49, #43, #45, #51, #55, #47, #37, #39, #41 ) );
#118 = CARTESIAN_POINT( '', ( 0.000000000000000, 0.000000000000000, 0.000000000000000 ) );
#119 = DIRECTION( '', ( 0.000000000000000, 0.000000000000000, 1.00000000000000 ) );
#120 = DIRECTION( '', ( 1.00000000000000, 0.000000000000000, 0.000000000000000 ) );
#121 =  ( LENGTH_UNIT(  )NAMED_UNIT( #65 )SI_UNIT( .MILLI., .METRE. ) );
#122 = SURFACE_SIDE_STYLE( '', ( #165 ) );
#123 = EDGE_LOOP( '', ( #166 ) );
#124 = EDGE_LOOP( '', ( #167 ) );
#125 = AXIS2_PLACEMENT_3D( '', #168, #169, #170 );
#126 = SURFACE_SIDE_STYLE( '', ( #171 ) );
#127 = EDGE_LOOP( '', ( #172 ) );
#128 = EDGE_LOOP( '', ( #173 ) );
#129 = AXIS2_PLACEMENT_3D( '', #174, #175, #176 );
#130 = SURFACE_SIDE_STYLE( '', ( #177 ) );
#131 = EDGE_LOOP( '', ( #178 ) );
#132 = EDGE_LOOP( '', ( #179 ) );
#133 = AXIS2_PLACEMENT_3D( '', #180, #181, #182 );
#134 = SURFACE_SIDE_STYLE( '', ( #183 ) );
#135 = EDGE_LOOP( '', ( #184 ) );
#136 = EDGE_LOOP( '', ( #185 ) );
#137 = AXIS2_PLACEMENT_3D( '', #186, #187, #188 );
#138 = SURFACE_SIDE_STYLE( '', ( #189 ) );
#139 = EDGE_LOOP( '', ( #190 ) );
#140 = EDGE_LOOP( '', ( #191 ) );
#141 = AXIS2_PLACEMENT_3D( '', #192, #193, #194 );
#142 = SURFACE_SIDE_STYLE( '', ( #195 ) );
#143 = EDGE_LOOP( '', ( #196 ) );
#144 = EDGE_LOOP( '', ( #197 ) );
#145 = AXIS2_PLACEMENT_3D( '', #198, #199, #200 );
#146 = SURFACE_SIDE_STYLE( '', ( #201 ) );
#147 = EDGE_LOOP( '', ( #202 ) );
#148 = EDGE_LOOP( '', ( #203 ) );
#149 = AXIS2_PLACEMENT_3D( '', #204, #205, #206 );
#150 = SURFACE_SIDE_STYLE( '', ( #207 ) );
#151 = EDGE_LOOP( '', ( #208 ) );
#152 = EDGE_LOOP( '', ( #209 ) );
#153 = AXIS2_PLACEMENT_3D( '', #210, #211, #212 );
#154 = SURFACE_SIDE_STYLE( '', ( #213 ) );
#155 = EDGE_LOOP( '', ( #214 ) );
#156 = AXIS2_PLACEMENT_3D( '', #215, #216, #217 );
#157 = SURFACE_SIDE_STYLE( '', ( #218 ) );
#158 = EDGE_LOOP( '', ( #219 ) );
#159 = AXIS2_PLACEMENT_3D( '', #220, #221, #222 );
#160 = SURFACE_SIDE_STYLE( '', ( #223 ) );
#161 = EDGE_LOOP( '', ( #224 ) );
#162 = EDGE_LOOP( '', ( #225 ) );
#163 = AXIS2_PLACEMENT_3D( '', #226, #227, #228 );
#165 = SURFACE_STYLE_FILL_AREA( #229 );
#166 = ORIENTED_EDGE( '', *, *, #230, .F. );
#167 = ORIENTED_EDGE( '', *, *, #231, .F. );
#168 = CARTESIAN_POINT( '', ( 0.000000000000000, 0.000000000000000, 11.5000000000000 ) );
#169 = DIRECTION( '', ( 0.000000000000000, 0.000000000000000, -1.00000000000000 ) );
#170 = DIRECTION( '', ( -1.00000000000000, 0.000000000000000, 0.000000000000000 ) );
#171 = SURFACE_STYLE_FILL_AREA( #232 );
#172 = ORIENTED_EDGE( '', *, *, #233, .F. );
#173 = ORIENTED_EDGE( '', *, *, #234, .F. );
#174 = CARTESIAN_POINT( '', ( 0.000000000000000, 0.000000000000000, 44.0000000000000 ) );
#175 = DIRECTION( '', ( -0.000000000000000, 0.000000000000000, -1.00000000000000 ) );
#176 = DIRECTION( '', ( -1.00000000000000, 0.000000000000000, 0.000000000000000 ) );
#177 = SURFACE_STYLE_FILL_AREA( #235 );
#178 = ORIENTED_EDGE( '', *, *, #236, .F. );
#179 = ORIENTED_EDGE( '', *, *, #237, .F. );
#180 = CARTESIAN_POINT( '', ( 0.000000000000000, 0.000000000000000, 7.50000000000000 ) );
#181 = DIRECTION( '', ( 0.000000000000000, 0.000000000000000, -1.00000000000000 ) );
#182 = DIRECTION( '', ( -1.00000000000000, 0.000000000000000, 0.000000000000000 ) );
#183 = SURFACE_STYLE_FILL_AREA( #238 );
#184 = ORIENTED_EDGE( '', *, *, #239, .F. );
#185 = ORIENTED_EDGE( '', *, *, #240, .F. );
#186 = CARTESIAN_POINT( '', ( 0.000000000000000, 0.000000000000000, 2.50000000000000 ) );
#187 = DIRECTION( '', ( 0.000000000000000, 0.000000000000000, 1.00000000000000 ) );
#188 = DIRECTION( '', ( 1.00000000000000, 0.000000000000000, 0.000000000000000 ) );
#189 = SURFACE_STYLE_FILL_AREA( #241 );
#190 = ORIENTED_EDGE( '', *, *, #231, .T. );
#191 = ORIENTED_EDGE( '', *, *, #242, .F. );
#192 = CARTESIAN_POINT( '', ( 13.0000000000000, 0.000000000000000, 12.0000000000000 ) );
#193 = DIRECTION( '', ( 0.000000000000000, 0.000000000000000, -1.00000000000000 ) );
#194 = DIRECTION( '', ( -1.00000000000000, 0.000000000000000, 0.000000000000000 ) );
#195 = SURFACE_STYLE_FILL_AREA( #243 );
#196 = ORIENTED_EDGE( '', *, *, #230, .T. );
#197 = ORIENTED_EDGE( '', *, *, #244, .T. );
#198 = CARTESIAN_POINT( '', ( 0.000000000000000, 0.000000000000000, 57.1500000000000 ) );
#199 = DIRECTION( '', ( -0.000000000000000, -0.000000000000000, -1.00000000000000 ) );
#200 = DIRECTION( '', ( 1.00000000000000, 0.000000000000000, 0.000000000000000 ) );
#201 = SURFACE_STYLE_FILL_AREA( #245 );
#202 = ORIENTED_EDGE( '', *, *, #240, .T. );
#203 = ORIENTED_EDGE( '', *, *, #236, .T. );
#204 = CARTESIAN_POINT( '', ( 0.000000000000000, 0.000000000000000, 57.1500000000000 ) );
#205 = DIRECTION( '', ( -0.000000000000000, -0.000000000000000, -1.00000000000000 ) );
#206 = DIRECTION( '', ( 1.00000000000000, 0.000000000000000, 0.000000000000000 ) );
#207 = SURFACE_STYLE_FILL_AREA( #246 );
#208 = ORIENTED_EDGE( '', *, *, #233, .T. );
#209 = ORIENTED_EDGE( '', *, *, #242, .T. );
#210 = CARTESIAN_POINT( '', ( 0.000000000000000, 0.000000000000000, 57.1500000000000 ) );
#211 = DIRECTION( '', ( -0.000000000000000, -0.000000000000000, -1.00000000000000 ) );
#212 = DIRECTION( '', ( 1.00000000000000, 0.000000000000000, 0.000000000000000 ) );
#213 = SURFACE_STYLE_FILL_AREA( #247 );
#214 = ORIENTED_EDGE( '', *, *, #234, .T. );
#215 = CARTESIAN_POINT( '', ( 5.00000000000000, 0.000000000000000, 44.0000000000000 ) );
#216 = DIRECTION( '', ( 0.000000000000000, 0.000000000000000, -1.00000000000000 ) );
#217 = DIRECTION( '', ( -1.00000000000000, 0.000000000000000, 0.000000000000000 ) );
#218 = SURFACE_STYLE_FILL_AREA( #248 );
#219 = ORIENTED_EDGE( '', *, *, #239, .T. );
#220 = CARTESIAN_POINT( '', ( 5.90528783280438E-015, 0.000000000000000, 0.000000000000000 ) );
#221 = DIRECTION( '', ( 0.000000000000000, 0.000000000000000, 1.00000000000000 ) );
#222 = DIRECTION( '', ( 1.00000000000000, 0.000000000000000, 0.000000000000000 ) );
#223 = SURFACE_STYLE_FILL_AREA( #249 );
#224 = ORIENTED_EDGE( '', *, *, #237, .T. );
#225 = ORIENTED_EDGE( '', *, *, #244, .F. );
#226 = CARTESIAN_POINT( '', ( 40.0000000000000, 0.000000000000000, 10.0000000000000 ) );
#227 = DIRECTION( '', ( 0.000000000000000, 0.000000000000000, -1.00000000000000 ) );
#228 = DIRECTION( '', ( -1.00000000000000, 0.000000000000000, 0.000000000000000 ) );
#229 = FILL_AREA_STYLE( '', ( #250 ) );
#230 = EDGE_CURVE( '', #251, #251, #252, .T. );
#231 = EDGE_CURVE( '', #253, #253, #254, .F. );
#232 = FILL_AREA_STYLE( '', ( #255 ) );
#233 = EDGE_CURVE( '', #256, #256, #257, .T. );
#234 = EDGE_CURVE( '', #258, #258, #259, .F. );
#235 = FILL_AREA_STYLE( '', ( #260 ) );
#236 = EDGE_CURVE( '', #261, #261, #262, .T. );
#237 = EDGE_CURVE( '', #263, #263, #264, .F. );
#238 = FILL_AREA_STYLE( '', ( #265 ) );
#239 = EDGE_CURVE( '', #266, #266, #267, .F. );
#240 = EDGE_CURVE( '', #268, #268, #269, .T. );
#241 = FILL_AREA_STYLE( '', ( #270 ) );
#242 = EDGE_CURVE( '', #271, #271, #272, .T. );
#243 = FILL_AREA_STYLE( '', ( #273 ) );
#244 = EDGE_CURVE( '', #274, #274, #275, .T. );
#245 = FILL_AREA_STYLE( '', ( #276 ) );
#246 = FILL_AREA_STYLE( '', ( #277 ) );
#247 = FILL_AREA_STYLE( '', ( #278 ) );
#248 = FILL_AREA_STYLE( '', ( #279 ) );
#249 = FILL_AREA_STYLE( '', ( #280 ) );
#250 = FILL_AREA_STYLE_COLOUR( '', #281 );
#251 = VERTEX_POINT( '', #282 );
#252 = CIRCLE( '', #283, 13.0000000000000 );
#253 = VERTEX_POINT( '', #284 );
#254 = CIRCLE( '', #285, 12.5000000000000 );
#255 = FILL_AREA_STYLE_COLOUR( '', #286 );
#256 = VERTEX_POINT( '', #287 );
#257 = CIRCLE( '', #288, 5.00000000000000 );
#258 = VERTEX_POINT( '', #289 );
#259 = CIRCLE( '', #290, 4.00000000000000 );
#260 = FILL_AREA_STYLE_COLOUR( '', #291 );
#261 = VERTEX_POINT( '', #292 );
#262 = CIRCLE( '', #293, 40.0000000000000 );
#263 = VERTEX_POINT( '', #294 );
#264 = CIRCLE( '', #295, 37.5000000000000 );
#265 = FILL_AREA_STYLE_COLOUR( '', #296 );
#266 = VERTEX_POINT( '', #297 );
#267 = CIRCLE( '', #298, 37.5000000000000 );
#268 = VERTEX_POINT( '', #299 );
#269 = CIRCLE( '', #300, 40.0000000000000 );
#270 = FILL_AREA_STYLE_COLOUR( '', #301 );
#271 = VERTEX_POINT( '', #302 );
#272 = CIRCLE( '', #303, 5.00000000000000 );
#273 = FILL_AREA_STYLE_COLOUR( '', #304 );
#274 = VERTEX_POINT( '', #305 );
#275 = CIRCLE( '', #306, 13.0000000000000 );
#276 = FILL_AREA_STYLE_COLOUR( '', #307 );
#277 = FILL_AREA_STYLE_COLOUR( '', #308 );
#278 = FILL_AREA_STYLE_COLOUR( '', #309 );
#279 = FILL_AREA_STYLE_COLOUR( '', #310 );
#280 = FILL_AREA_STYLE_COLOUR( '', #311 );
#281 = COLOUR_RGB( '', 0.200000002980232, 0.200000002980232, 0.200000002980232 );
#282 = CARTESIAN_POINT( '', ( -13.0000000000000, 0.000000000000000, 11.5000000000000 ) );
#283 = AXIS2_PLACEMENT_3D( '', #312, #313, #314 );
#284 = CARTESIAN_POINT( '', ( -12.5000000000000, 0.000000000000000, 12.0000000000000 ) );
#285 = AXIS2_PLACEMENT_3D( '', #315, #316, #317 );
#286 = COLOUR_RGB( '', 0.200000002980232, 0.200000002980232, 0.200000002980232 );
#287 = CARTESIAN_POINT( '', ( -5.00000000000000, 0.000000000000000, 43.0000000000000 ) );
#288 = AXIS2_PLACEMENT_3D( '', #318, #319, #320 );
#289 = CARTESIAN_POINT( '', ( -4.00000000000000, 0.000000000000000, 44.0000000000000 ) );
#290 = AXIS2_PLACEMENT_3D( '', #321, #322, #323 );
#291 = COLOUR_RGB( '', 0.200000002980232, 0.200000002980232, 0.200000002980232 );
#292 = CARTESIAN_POINT( '', ( -40.0000000000000, 0.000000000000000, 7.50000000000000 ) );
#293 = AXIS2_PLACEMENT_3D( '', #324, #325, #326 );
#294 = CARTESIAN_POINT( '', ( -37.5000000000000, 0.000000000000000, 10.0000000000000 ) );
#295 = AXIS2_PLACEMENT_3D( '', #327, #328, #329 );
#296 = COLOUR_RGB( '', 0.200000002980232, 0.200000002980232, 0.200000002980232 );
#297 = CARTESIAN_POINT( '', ( 37.5000000000000, 0.000000000000000, 0.000000000000000 ) );
#298 = AXIS2_PLACEMENT_3D( '', #330, #331, #332 );
#299 = CARTESIAN_POINT( '', ( 40.0000000000000, 0.000000000000000, 2.50000000000000 ) );
#300 = AXIS2_PLACEMENT_3D( '', #333, #334, #335 );
#301 = COLOUR_RGB( '', 0.200000002980232, 0.200000002980232, 0.200000002980232 );
#302 = CARTESIAN_POINT( '', ( 5.00000000000000, 0.000000000000000, 12.0000000000000 ) );
#303 = AXIS2_PLACEMENT_3D( '', #336, #337, #338 );
#304 = COLOUR_RGB( '', 0.200000002980232, 0.200000002980232, 0.200000002980232 );
#305 = CARTESIAN_POINT( '', ( 13.0000000000000, 0.000000000000000, 10.0000000000000 ) );
#306 = AXIS2_PLACEMENT_3D( '', #339, #340, #341 );
#307 = COLOUR_RGB( '', 0.200000002980232, 0.200000002980232, 0.200000002980232 );
#308 = COLOUR_RGB( '', 0.752941191196442, 0.752941191196442, 0.752941191196442 );
#309 = COLOUR_RGB( '', 0.200000002980232, 0.200000002980232, 0.200000002980232 );
#310 = COLOUR_RGB( '', 0.200000002980232, 0.200000002980232, 0.200000002980232 );
#311 = COLOUR_RGB( '', 0.200000002980232, 0.200000002980232, 0.200000002980232 );
#312 = CARTESIAN_POINT( '', ( 0.000000000000000, 0.000000000000000, 11.5000000000000 ) );
#313 = DIRECTION( '', ( 0.000000000000000, 0.000000000000000, -1.00000000000000 ) );
#314 = DIRECTION( '', ( -1.00000000000000, 0.000000000000000, 0.000000000000000 ) );
#315 = CARTESIAN_POINT( '', ( 0.000000000000000, 0.000000000000000, 12.0000000000000 ) );
#316 = DIRECTION( '', ( 0.000000000000000, 0.000000000000000, -1.00000000000000 ) );
#317 = DIRECTION( '', ( -1.00000000000000, 0.000000000000000, 0.000000000000000 ) );
#318 = CARTESIAN_POINT( '', ( 0.000000000000000, 0.000000000000000, 43.0000000000000 ) );
#319 = DIRECTION( '', ( 0.000000000000000, 0.000000000000000, -1.00000000000000 ) );
#320 = DIRECTION( '', ( -1.00000000000000, 0.000000000000000, 0.000000000000000 ) );
#321 = CARTESIAN_POINT( '', ( 0.000000000000000, 0.000000000000000, 44.0000000000000 ) );
#322 = DIRECTION( '', ( 0.000000000000000, 0.000000000000000, -1.00000000000000 ) );
#323 = DIRECTION( '', ( -1.00000000000000, 0.000000000000000, 0.000000000000000 ) );
#324 = CARTESIAN_POINT( '', ( 0.000000000000000, 0.000000000000000, 7.50000000000000 ) );
#325 = DIRECTION( '', ( 0.000000000000000, 0.000000000000000, -1.00000000000000 ) );
#326 = DIRECTION( '', ( -1.00000000000000, 0.000000000000000, 0.000000000000000 ) );
#327 = CARTESIAN_POINT( '', ( 0.000000000000000, 0.000000000000000, 10.0000000000000 ) );
#328 = DIRECTION( '', ( 0.000000000000000, 0.000000000000000, -1.00000000000000 ) );
#329 = DIRECTION( '', ( -1.00000000000000, 0.000000000000000, 0.000000000000000 ) );
#330 = CARTESIAN_POINT( '', ( 0.000000000000000, 0.000000000000000, 0.000000000000000 ) );
#331 = DIRECTION( '', ( 0.000000000000000, 0.000000000000000, 1.00000000000000 ) );
#332 = DIRECTION( '', ( 1.00000000000000, 0.000000000000000, 0.000000000000000 ) );
#333 = CARTESIAN_POINT( '', ( 0.000000000000000, 0.000000000000000, 2.50000000000000 ) );
#334 = DIRECTION( '', ( 0.000000000000000, 0.000000000000000, 1.00000000000000 ) );
#335 = DIRECTION( '', ( 1.00000000000000, 0.000000000000000, 0.000000000000000 ) );
#336 = CARTESIAN_POINT( '', ( 0.000000000000000, 0.000000000000000, 12.0000000000000 ) );
#337 = DIRECTION( '', ( 0.000000000000000, 0.000000000000000, 1.00000000000000 ) );
#338 = DIRECTION( '', ( 1.00000000000000, 0.000000000000000, 0.000000000000000 ) );
#339 = CARTESIAN_POINT( '', ( 0.000000000000000, 0.000000000000000, 10.0000000000000 ) );
#340 = DIRECTION( '', ( 0.000000000000000, 0.000000000000000, 1.00000000000000 ) );
#341 = DIRECTION( '', ( 1.00000000000000, 0.000000000000000, 0.000000000000000 ) );
ENDSEC;
END-ISO-10303-21;
