ISO-10303-21;
HEADER;
FILE_DESCRIPTION( ( 'Unknown' ), '1' );
FILE_NAME( '//SBS2003/HD_Usb/Disegni/08_LIB/Users_3D/PROD_GAMM_3D/PT_prot_terminali/7370273.stp', 'Unknown', ( 'Unknown' ), ( 'Unknown' ), 'PSStep 14.0', 'Unknown', '  ' );
FILE_SCHEMA( ( 'AUTOMOTIVE_DESIGN { 1 0 10303 214 1 1 1 1 }' ) );
ENDSEC;
DATA;
#1 = MECHANICAL_DESIGN_GEOMETRIC_PRESENTATION_REPRESENTATION( ' ', ( #10, #11, #12, #13, #14, #15, #16, #17, #18 ), #6 );
#2 = PRODUCT_DEFINITION_CONTEXT( '', #19, 'design' );
#3 = APPLICATION_PROTOCOL_DEFINITION( 'international standard', 'automotive_design', 2001, #19 );
#4 = PRODUCT_CATEGORY_RELATIONSHIP( 'NONE', 'NONE', #20, #21 );
#5 = SHAPE_DEFINITION_REPRESENTATION( #22, #23 );
#6 =  ( GEOMETRIC_REPRESENTATION_CONTEXT( 3 )GLOBAL_UNCERTAINTY_ASSIGNED_CONTEXT( ( #26 ) )GLOBAL_UNIT_ASSIGNED_CONTEXT( ( #28, #29, #30 ) )REPRESENTATION_CONTEXT( 'NONE', 'WORKSPACE' ) );
#10 = STYLED_ITEM( '', ( #32 ), #33 );
#11 = STYLED_ITEM( '', ( #34 ), #35 );
#12 = STYLED_ITEM( '', ( #36 ), #37 );
#13 = STYLED_ITEM( '', ( #38 ), #39 );
#14 = STYLED_ITEM( '', ( #40 ), #41 );
#15 = STYLED_ITEM( '', ( #42 ), #43 );
#16 = STYLED_ITEM( '', ( #44 ), #45 );
#17 = STYLED_ITEM( '', ( #46 ), #47 );
#18 = STYLED_ITEM( '', ( #48 ), #49 );
#19 = APPLICATION_CONTEXT( 'core data for automotive mechanical design processes' );
#20 = PRODUCT_CATEGORY( 'part', 'NONE' );
#21 = PRODUCT_RELATED_PRODUCT_CATEGORY( 'detail', ' ', ( #50 ) );
#22 = PRODUCT_DEFINITION_SHAPE( 'NONE', 'NONE', #51 );
#23 = ADVANCED_BREP_SHAPE_REPRESENTATION( '1', ( #52, #53 ), #6 );
#26 = UNCERTAINTY_MEASURE_WITH_UNIT( LENGTH_MEASURE( 0.00100000000000000 ), #28, '', '' );
#28 =  ( CONVERSION_BASED_UNIT( 'MILLIMETRE', #56 )LENGTH_UNIT(  )NAMED_UNIT( #59 ) );
#29 =  ( NAMED_UNIT( #61 )PLANE_ANGLE_UNIT(  )SI_UNIT( $, .RADIAN. ) );
#30 =  ( NAMED_UNIT( #61 )SI_UNIT( $, .STERADIAN. )SOLID_ANGLE_UNIT(  ) );
#32 = PRESENTATION_STYLE_ASSIGNMENT( ( #67 ) );
#33 = ADVANCED_FACE( '', ( #68, #69 ), #70, .T. );
#34 = PRESENTATION_STYLE_ASSIGNMENT( ( #71 ) );
#35 = ADVANCED_FACE( '', ( #72 ), #73, .F. );
#36 = PRESENTATION_STYLE_ASSIGNMENT( ( #74 ) );
#37 = ADVANCED_FACE( '', ( #75, #76 ), #77, .T. );
#38 = PRESENTATION_STYLE_ASSIGNMENT( ( #78 ) );
#39 = ADVANCED_FACE( '', ( #79, #80 ), #81, .T. );
#40 = PRESENTATION_STYLE_ASSIGNMENT( ( #82 ) );
#41 = ADVANCED_FACE( '', ( #83, #84 ), #85, .F. );
#42 = PRESENTATION_STYLE_ASSIGNMENT( ( #86 ) );
#43 = ADVANCED_FACE( '', ( #87, #88 ), #89, .F. );
#44 = PRESENTATION_STYLE_ASSIGNMENT( ( #90 ) );
#45 = ADVANCED_FACE( '', ( #91, #92 ), #93, .F. );
#46 = PRESENTATION_STYLE_ASSIGNMENT( ( #94 ) );
#47 = ADVANCED_FACE( '', ( #95, #96 ), #97, .F. );
#48 = PRESENTATION_STYLE_ASSIGNMENT( ( #98 ) );
#49 = ADVANCED_FACE( '', ( #99 ), #100, .F. );
#50 = PRODUCT( '1', '1', 'PART-1-DESC', ( #101 ) );
#51 = PRODUCT_DEFINITION( 'NONE', 'NONE', #102, #2 );
#52 = MANIFOLD_SOLID_BREP( '1', #103 );
#53 = AXIS2_PLACEMENT_3D( '', #104, #105, #106 );
#56 = LENGTH_MEASURE_WITH_UNIT( LENGTH_MEASURE( 1.00000000000000 ), #107 );
#59 = DIMENSIONAL_EXPONENTS( 1.00000000000000, 0.000000000000000, 0.000000000000000, 0.000000000000000, 0.000000000000000, 0.000000000000000, 0.000000000000000 );
#61 = DIMENSIONAL_EXPONENTS( 0.000000000000000, 0.000000000000000, 0.000000000000000, 0.000000000000000, 0.000000000000000, 0.000000000000000, 0.000000000000000 );
#67 = SURFACE_STYLE_USAGE( .BOTH., #108 );
#68 = FACE_OUTER_BOUND( '', #109, .T. );
#69 = FACE_OUTER_BOUND( '', #110, .T. );
#70 = TOROIDAL_SURFACE( '', #111, 558.800000000000, 1.00000000000000 );
#71 = SURFACE_STYLE_USAGE( .BOTH., #112 );
#72 = FACE_OUTER_BOUND( '', #113, .T. );
#73 = PLANE( '', #114 );
#74 = SURFACE_STYLE_USAGE( .BOTH., #115 );
#75 = FACE_OUTER_BOUND( '', #116, .T. );
#76 = FACE_OUTER_BOUND( '', #117, .T. );
#77 = CYLINDRICAL_SURFACE( '', #118, 563.800000000000 );
#78 = SURFACE_STYLE_USAGE( .BOTH., #119 );
#79 = FACE_OUTER_BOUND( '', #120, .T. );
#80 = FACE_OUTER_BOUND( '', #121, .T. );
#81 = TOROIDAL_SURFACE( '', #122, 558.800000000000, 1.00000000000000 );
#82 = SURFACE_STYLE_USAGE( .BOTH., #123 );
#83 = FACE_OUTER_BOUND( '', #124, .T. );
#84 = FACE_OUTER_BOUND( '', #125, .T. );
#85 = CYLINDRICAL_SURFACE( '', #126, 558.800000000000 );
#86 = SURFACE_STYLE_USAGE( .BOTH., #127 );
#87 = FACE_OUTER_BOUND( '', #128, .T. );
#88 = FACE_BOUND( '', #129, .T. );
#89 = PLANE( '', #130 );
#90 = SURFACE_STYLE_USAGE( .BOTH., #131 );
#91 = FACE_OUTER_BOUND( '', #132, .T. );
#92 = FACE_OUTER_BOUND( '', #133, .T. );
#93 = CYLINDRICAL_SURFACE( '', #134, 558.800000000000 );
#94 = SURFACE_STYLE_USAGE( .BOTH., #135 );
#95 = FACE_OUTER_BOUND( '', #136, .T. );
#96 = FACE_OUTER_BOUND( '', #137, .T. );
#97 = CYLINDRICAL_SURFACE( '', #138, 558.800000000000 );
#98 = SURFACE_STYLE_USAGE( .BOTH., #139 );
#99 = FACE_OUTER_BOUND( '', #140, .T. );
#100 = PLANE( '', #141 );
#101 = PRODUCT_CONTEXT( '', #19, 'mechanical' );
#102 = PRODUCT_DEFINITION_FORMATION_WITH_SPECIFIED_SOURCE( ' ', 'NONE', #50, .NOT_KNOWN. );
#103 = CLOSED_SHELL( '', ( #35, #37, #43, #41, #33, #47, #39, #45, #49 ) );
#104 = CARTESIAN_POINT( '', ( 0.000000000000000, 0.000000000000000, 0.000000000000000 ) );
#105 = DIRECTION( '', ( 0.000000000000000, 0.000000000000000, 1.00000000000000 ) );
#106 = DIRECTION( '', ( 1.00000000000000, 0.000000000000000, 0.000000000000000 ) );
#107 =  ( LENGTH_UNIT(  )NAMED_UNIT( #59 )SI_UNIT( .MILLI., .METRE. ) );
#108 = SURFACE_SIDE_STYLE( '', ( #143 ) );
#109 = EDGE_LOOP( '', ( #144 ) );
#110 = EDGE_LOOP( '', ( #145 ) );
#111 = AXIS2_PLACEMENT_3D( '', #146, #147, #148 );
#112 = SURFACE_SIDE_STYLE( '', ( #149 ) );
#113 = EDGE_LOOP( '', ( #150 ) );
#114 = AXIS2_PLACEMENT_3D( '', #151, #152, #153 );
#115 = SURFACE_SIDE_STYLE( '', ( #154 ) );
#116 = EDGE_LOOP( '', ( #155 ) );
#117 = EDGE_LOOP( '', ( #156 ) );
#118 = AXIS2_PLACEMENT_3D( '', #157, #158, #159 );
#119 = SURFACE_SIDE_STYLE( '', ( #160 ) );
#120 = EDGE_LOOP( '', ( #161 ) );
#121 = EDGE_LOOP( '', ( #162 ) );
#122 = AXIS2_PLACEMENT_3D( '', #163, #164, #165 );
#123 = SURFACE_SIDE_STYLE( '', ( #166 ) );
#124 = EDGE_LOOP( '', ( #167 ) );
#125 = EDGE_LOOP( '', ( #168 ) );
#126 = AXIS2_PLACEMENT_3D( '', #169, #170, #171 );
#127 = SURFACE_SIDE_STYLE( '', ( #172 ) );
#128 = EDGE_LOOP( '', ( #173 ) );
#129 = EDGE_LOOP( '', ( #174 ) );
#130 = AXIS2_PLACEMENT_3D( '', #175, #176, #177 );
#131 = SURFACE_SIDE_STYLE( '', ( #178 ) );
#132 = EDGE_LOOP( '', ( #179 ) );
#133 = EDGE_LOOP( '', ( #180 ) );
#134 = AXIS2_PLACEMENT_3D( '', #181, #182, #183 );
#135 = SURFACE_SIDE_STYLE( '', ( #184 ) );
#136 = EDGE_LOOP( '', ( #185 ) );
#137 = EDGE_LOOP( '', ( #186 ) );
#138 = AXIS2_PLACEMENT_3D( '', #187, #188, #189 );
#139 = SURFACE_SIDE_STYLE( '', ( #190 ) );
#140 = EDGE_LOOP( '', ( #191 ) );
#141 = AXIS2_PLACEMENT_3D( '', #192, #193, #194 );
#143 = SURFACE_STYLE_FILL_AREA( #195 );
#144 = ORIENTED_EDGE( '', *, *, #196, .F. );
#145 = ORIENTED_EDGE( '', *, *, #197, .T. );
#146 = CARTESIAN_POINT( '', ( 0.000000000000000, 0.000000000000000, 41.6666666666667 ) );
#147 = DIRECTION( '', ( 0.000000000000000, 0.000000000000000, 1.00000000000000 ) );
#148 = DIRECTION( '', ( 1.00000000000000, 0.000000000000000, 0.000000000000000 ) );
#149 = SURFACE_STYLE_FILL_AREA( #198 );
#150 = ORIENTED_EDGE( '', *, *, #199, .T. );
#151 = CARTESIAN_POINT( '', ( -1.22464679914735E-015, 0.000000000000000, 130.000000000000 ) );
#152 = DIRECTION( '', ( 0.000000000000000, 0.000000000000000, -1.00000000000000 ) );
#153 = DIRECTION( '', ( -1.00000000000000, 0.000000000000000, 0.000000000000000 ) );
#154 = SURFACE_STYLE_FILL_AREA( #200 );
#155 = ORIENTED_EDGE( '', *, *, #199, .F. );
#156 = ORIENTED_EDGE( '', *, *, #201, .T. );
#157 = CARTESIAN_POINT( '', ( 0.000000000000000, 0.000000000000000, 57.1500000000000 ) );
#158 = DIRECTION( '', ( -0.000000000000000, -0.000000000000000, -1.00000000000000 ) );
#159 = DIRECTION( '', ( 1.00000000000000, 0.000000000000000, 0.000000000000000 ) );
#160 = SURFACE_STYLE_FILL_AREA( #202 );
#161 = ORIENTED_EDGE( '', *, *, #203, .F. );
#162 = ORIENTED_EDGE( '', *, *, #204, .T. );
#163 = CARTESIAN_POINT( '', ( 0.000000000000000, 0.000000000000000, 83.3333333333333 ) );
#164 = DIRECTION( '', ( 0.000000000000000, 0.000000000000000, 1.00000000000000 ) );
#165 = DIRECTION( '', ( 1.00000000000000, 0.000000000000000, 0.000000000000000 ) );
#166 = SURFACE_STYLE_FILL_AREA( #205 );
#167 = ORIENTED_EDGE( '', *, *, #206, .F. );
#168 = ORIENTED_EDGE( '', *, *, #196, .T. );
#169 = CARTESIAN_POINT( '', ( 0.000000000000000, 0.000000000000000, 57.1500000000000 ) );
#170 = DIRECTION( '', ( -0.000000000000000, -0.000000000000000, -1.00000000000000 ) );
#171 = DIRECTION( '', ( 1.00000000000000, 0.000000000000000, 0.000000000000000 ) );
#172 = SURFACE_STYLE_FILL_AREA( #207 );
#173 = ORIENTED_EDGE( '', *, *, #201, .F. );
#174 = ORIENTED_EDGE( '', *, *, #206, .T. );
#175 = CARTESIAN_POINT( '', ( 558.800000000000, 0.000000000000000, 0.000000000000000 ) );
#176 = DIRECTION( '', ( 0.000000000000000, 0.000000000000000, 1.00000000000000 ) );
#177 = DIRECTION( '', ( 1.00000000000000, 0.000000000000000, 0.000000000000000 ) );
#178 = SURFACE_STYLE_FILL_AREA( #208 );
#179 = ORIENTED_EDGE( '', *, *, #204, .F. );
#180 = ORIENTED_EDGE( '', *, *, #209, .T. );
#181 = CARTESIAN_POINT( '', ( 0.000000000000000, 0.000000000000000, 57.1500000000000 ) );
#182 = DIRECTION( '', ( -0.000000000000000, -0.000000000000000, -1.00000000000000 ) );
#183 = DIRECTION( '', ( 1.00000000000000, 0.000000000000000, 0.000000000000000 ) );
#184 = SURFACE_STYLE_FILL_AREA( #210 );
#185 = ORIENTED_EDGE( '', *, *, #197, .F. );
#186 = ORIENTED_EDGE( '', *, *, #203, .T. );
#187 = CARTESIAN_POINT( '', ( 0.000000000000000, 0.000000000000000, 57.1500000000000 ) );
#188 = DIRECTION( '', ( -0.000000000000000, -0.000000000000000, -1.00000000000000 ) );
#189 = DIRECTION( '', ( 1.00000000000000, 0.000000000000000, 0.000000000000000 ) );
#190 = SURFACE_STYLE_FILL_AREA( #211 );
#191 = ORIENTED_EDGE( '', *, *, #209, .F. );
#192 = CARTESIAN_POINT( '', ( -6.12323399573675E-016, 0.000000000000000, 125.000000000000 ) );
#193 = DIRECTION( '', ( 0.000000000000000, 0.000000000000000, 1.00000000000000 ) );
#194 = DIRECTION( '', ( 1.00000000000000, 0.000000000000000, 0.000000000000000 ) );
#195 = FILL_AREA_STYLE( '', ( #212 ) );
#196 = EDGE_CURVE( '', #213, #213, #214, .T. );
#197 = EDGE_CURVE( '', #215, #215, #216, .T. );
#198 = FILL_AREA_STYLE( '', ( #217 ) );
#199 = EDGE_CURVE( '', #218, #218, #219, .T. );
#200 = FILL_AREA_STYLE( '', ( #220 ) );
#201 = EDGE_CURVE( '', #221, #221, #222, .T. );
#202 = FILL_AREA_STYLE( '', ( #223 ) );
#203 = EDGE_CURVE( '', #224, #224, #225, .T. );
#204 = EDGE_CURVE( '', #226, #226, #227, .T. );
#205 = FILL_AREA_STYLE( '', ( #228 ) );
#206 = EDGE_CURVE( '', #229, #229, #230, .T. );
#207 = FILL_AREA_STYLE( '', ( #231 ) );
#208 = FILL_AREA_STYLE( '', ( #232 ) );
#209 = EDGE_CURVE( '', #233, #233, #234, .T. );
#210 = FILL_AREA_STYLE( '', ( #235 ) );
#211 = FILL_AREA_STYLE( '', ( #236 ) );
#212 = FILL_AREA_STYLE_COLOUR( '', #237 );
#213 = VERTEX_POINT( '', #238 );
#214 = CIRCLE( '', #239, 558.800000000000 );
#215 = VERTEX_POINT( '', #240 );
#216 = CIRCLE( '', #241, 558.800000000000 );
#217 = FILL_AREA_STYLE_COLOUR( '', #242 );
#218 = VERTEX_POINT( '', #243 );
#219 = CIRCLE( '', #244, 563.800000000000 );
#220 = FILL_AREA_STYLE_COLOUR( '', #245 );
#221 = VERTEX_POINT( '', #246 );
#222 = CIRCLE( '', #247, 563.800000000000 );
#223 = FILL_AREA_STYLE_COLOUR( '', #248 );
#224 = VERTEX_POINT( '', #249 );
#225 = CIRCLE( '', #250, 558.800000000000 );
#226 = VERTEX_POINT( '', #251 );
#227 = CIRCLE( '', #252, 558.800000000000 );
#228 = FILL_AREA_STYLE_COLOUR( '', #253 );
#229 = VERTEX_POINT( '', #254 );
#230 = CIRCLE( '', #255, 558.800000000000 );
#231 = FILL_AREA_STYLE_COLOUR( '', #256 );
#232 = FILL_AREA_STYLE_COLOUR( '', #257 );
#233 = VERTEX_POINT( '', #258 );
#234 = CIRCLE( '', #259, 558.800000000000 );
#235 = FILL_AREA_STYLE_COLOUR( '', #260 );
#236 = FILL_AREA_STYLE_COLOUR( '', #261 );
#237 = COLOUR_RGB( '', 1.00000000000000, 1.00000000000000, 1.00000000000000 );
#238 = CARTESIAN_POINT( '', ( 558.800000000000, 0.000000000000000, 40.6666666666667 ) );
#239 = AXIS2_PLACEMENT_3D( '', #262, #263, #264 );
#240 = CARTESIAN_POINT( '', ( 558.800000000000, 0.000000000000000, 42.6666666666667 ) );
#241 = AXIS2_PLACEMENT_3D( '', #265, #266, #267 );
#242 = COLOUR_RGB( '', 1.00000000000000, 1.00000000000000, 1.00000000000000 );
#243 = CARTESIAN_POINT( '', ( 563.800000000000, 0.000000000000000, 130.000000000000 ) );
#244 = AXIS2_PLACEMENT_3D( '', #268, #269, #270 );
#245 = COLOUR_RGB( '', 1.00000000000000, 1.00000000000000, 1.00000000000000 );
#246 = CARTESIAN_POINT( '', ( 563.800000000000, 0.000000000000000, 0.000000000000000 ) );
#247 = AXIS2_PLACEMENT_3D( '', #271, #272, #273 );
#248 = COLOUR_RGB( '', 1.00000000000000, 1.00000000000000, 1.00000000000000 );
#249 = CARTESIAN_POINT( '', ( 558.800000000000, 0.000000000000000, 82.3333333333333 ) );
#250 = AXIS2_PLACEMENT_3D( '', #274, #275, #276 );
#251 = CARTESIAN_POINT( '', ( 558.800000000000, 0.000000000000000, 84.3333333333333 ) );
#252 = AXIS2_PLACEMENT_3D( '', #277, #278, #279 );
#253 = COLOUR_RGB( '', 1.00000000000000, 1.00000000000000, 1.00000000000000 );
#254 = CARTESIAN_POINT( '', ( 558.800000000000, 0.000000000000000, 0.000000000000000 ) );
#255 = AXIS2_PLACEMENT_3D( '', #280, #281, #282 );
#256 = COLOUR_RGB( '', 1.00000000000000, 1.00000000000000, 1.00000000000000 );
#257 = COLOUR_RGB( '', 1.00000000000000, 1.00000000000000, 1.00000000000000 );
#258 = CARTESIAN_POINT( '', ( 558.800000000000, 0.000000000000000, 125.000000000000 ) );
#259 = AXIS2_PLACEMENT_3D( '', #283, #284, #285 );
#260 = COLOUR_RGB( '', 1.00000000000000, 1.00000000000000, 1.00000000000000 );
#261 = COLOUR_RGB( '', 1.00000000000000, 1.00000000000000, 1.00000000000000 );
#262 = CARTESIAN_POINT( '', ( 0.000000000000000, 0.000000000000000, 40.6666666666667 ) );
#263 = DIRECTION( '', ( 0.000000000000000, 0.000000000000000, 1.00000000000000 ) );
#264 = DIRECTION( '', ( 1.00000000000000, 0.000000000000000, 0.000000000000000 ) );
#265 = CARTESIAN_POINT( '', ( 0.000000000000000, 0.000000000000000, 42.6666666666667 ) );
#266 = DIRECTION( '', ( 0.000000000000000, 0.000000000000000, 1.00000000000000 ) );
#267 = DIRECTION( '', ( 1.00000000000000, 0.000000000000000, 0.000000000000000 ) );
#268 = CARTESIAN_POINT( '', ( 0.000000000000000, 0.000000000000000, 130.000000000000 ) );
#269 = DIRECTION( '', ( 0.000000000000000, 0.000000000000000, 1.00000000000000 ) );
#270 = DIRECTION( '', ( 1.00000000000000, 0.000000000000000, 0.000000000000000 ) );
#271 = CARTESIAN_POINT( '', ( 0.000000000000000, 0.000000000000000, 0.000000000000000 ) );
#272 = DIRECTION( '', ( 0.000000000000000, 0.000000000000000, 1.00000000000000 ) );
#273 = DIRECTION( '', ( 1.00000000000000, 0.000000000000000, 0.000000000000000 ) );
#274 = CARTESIAN_POINT( '', ( 0.000000000000000, 0.000000000000000, 82.3333333333333 ) );
#275 = DIRECTION( '', ( 0.000000000000000, 0.000000000000000, 1.00000000000000 ) );
#276 = DIRECTION( '', ( 1.00000000000000, 0.000000000000000, 0.000000000000000 ) );
#277 = CARTESIAN_POINT( '', ( 0.000000000000000, 0.000000000000000, 84.3333333333333 ) );
#278 = DIRECTION( '', ( 0.000000000000000, 0.000000000000000, 1.00000000000000 ) );
#279 = DIRECTION( '', ( 1.00000000000000, 0.000000000000000, 0.000000000000000 ) );
#280 = CARTESIAN_POINT( '', ( 0.000000000000000, 0.000000000000000, 0.000000000000000 ) );
#281 = DIRECTION( '', ( 0.000000000000000, 0.000000000000000, 1.00000000000000 ) );
#282 = DIRECTION( '', ( 1.00000000000000, 0.000000000000000, 0.000000000000000 ) );
#283 = CARTESIAN_POINT( '', ( 0.000000000000000, 0.000000000000000, 125.000000000000 ) );
#284 = DIRECTION( '', ( 0.000000000000000, 0.000000000000000, 1.00000000000000 ) );
#285 = DIRECTION( '', ( 1.00000000000000, 0.000000000000000, 0.000000000000000 ) );
ENDSEC;
END-ISO-10303-21;
