ISO-10303-21;
HEADER;
FILE_DESCRIPTION( ( 'Unknown' ), '1' );
FILE_NAME( '//SBS2003/HD_Usb/Disegni/08_LIB/Users_3D/PROD_GAMM_3D/TT/7371333.stp', 'Unknown', ( 'Unknown' ), ( 'Unknown' ), 'PSStep 14.0', 'Unknown', '  ' );
FILE_SCHEMA( ( 'AUTOMOTIVE_DESIGN { 1 0 10303 214 1 1 1 1 }' ) );
ENDSEC;
DATA;
#1 = MECHANICAL_DESIGN_GEOMETRIC_PRESENTATION_REPRESENTATION( ' ', ( #10, #11, #12, #13, #14, #15, #16, #17, #18, #19, #20, #21, #22, #23, #24, #25, #26 ), #6 );
#2 = PRODUCT_DEFINITION_CONTEXT( '', #27, 'design' );
#3 = APPLICATION_PROTOCOL_DEFINITION( 'international standard', 'automotive_design', 2001, #27 );
#4 = PRODUCT_CATEGORY_RELATIONSHIP( 'NONE', 'NONE', #28, #29 );
#5 = SHAPE_DEFINITION_REPRESENTATION( #30, #31 );
#6 =  ( GEOMETRIC_REPRESENTATION_CONTEXT( 3 )GLOBAL_UNCERTAINTY_ASSIGNED_CONTEXT( ( #34 ) )GLOBAL_UNIT_ASSIGNED_CONTEXT( ( #36, #37, #38 ) )REPRESENTATION_CONTEXT( 'NONE', 'WORKSPACE' ) );
#10 = STYLED_ITEM( '', ( #40 ), #41 );
#11 = STYLED_ITEM( '', ( #42 ), #43 );
#12 = STYLED_ITEM( '', ( #44 ), #45 );
#13 = STYLED_ITEM( '', ( #46 ), #47 );
#14 = STYLED_ITEM( '', ( #48 ), #49 );
#15 = STYLED_ITEM( '', ( #50 ), #51 );
#16 = STYLED_ITEM( '', ( #52 ), #53 );
#17 = STYLED_ITEM( '', ( #54 ), #55 );
#18 = STYLED_ITEM( '', ( #56 ), #57 );
#19 = STYLED_ITEM( '', ( #58 ), #59 );
#20 = STYLED_ITEM( '', ( #60 ), #61 );
#21 = STYLED_ITEM( '', ( #62 ), #63 );
#22 = STYLED_ITEM( '', ( #64 ), #65 );
#23 = STYLED_ITEM( '', ( #66 ), #67 );
#24 = STYLED_ITEM( '', ( #68 ), #69 );
#25 = STYLED_ITEM( '', ( #70 ), #71 );
#26 = STYLED_ITEM( '', ( #72 ), #73 );
#27 = APPLICATION_CONTEXT( 'core data for automotive mechanical design processes' );
#28 = PRODUCT_CATEGORY( 'part', 'NONE' );
#29 = PRODUCT_RELATED_PRODUCT_CATEGORY( 'detail', ' ', ( #74 ) );
#30 = PRODUCT_DEFINITION_SHAPE( 'NONE', 'NONE', #75 );
#31 = ADVANCED_BREP_SHAPE_REPRESENTATION( '1', ( #76, #77 ), #6 );
#34 = UNCERTAINTY_MEASURE_WITH_UNIT( LENGTH_MEASURE( 0.00100000000000000 ), #36, '', '' );
#36 =  ( CONVERSION_BASED_UNIT( 'MILLIMETRE', #80 )LENGTH_UNIT(  )NAMED_UNIT( #83 ) );
#37 =  ( NAMED_UNIT( #85 )PLANE_ANGLE_UNIT(  )SI_UNIT( $, .RADIAN. ) );
#38 =  ( NAMED_UNIT( #85 )SI_UNIT( $, .STERADIAN. )SOLID_ANGLE_UNIT(  ) );
#40 = PRESENTATION_STYLE_ASSIGNMENT( ( #91 ) );
#41 = ADVANCED_FACE( '', ( #92, #93 ), #94, .F. );
#42 = PRESENTATION_STYLE_ASSIGNMENT( ( #95 ) );
#43 = ADVANCED_FACE( '', ( #96, #97 ), #98, .T. );
#44 = PRESENTATION_STYLE_ASSIGNMENT( ( #99 ) );
#45 = ADVANCED_FACE( '', ( #100, #101 ), #102, .T. );
#46 = PRESENTATION_STYLE_ASSIGNMENT( ( #103 ) );
#47 = ADVANCED_FACE( '', ( #104, #105 ), #106, .T. );
#48 = PRESENTATION_STYLE_ASSIGNMENT( ( #107 ) );
#49 = ADVANCED_FACE( '', ( #108, #109 ), #110, .T. );
#50 = PRESENTATION_STYLE_ASSIGNMENT( ( #111 ) );
#51 = ADVANCED_FACE( '', ( #112, #113 ), #114, .T. );
#52 = PRESENTATION_STYLE_ASSIGNMENT( ( #115 ) );
#53 = ADVANCED_FACE( '', ( #116, #117 ), #118, .T. );
#54 = PRESENTATION_STYLE_ASSIGNMENT( ( #119 ) );
#55 = ADVANCED_FACE( '', ( #120, #121 ), #122, .T. );
#56 = PRESENTATION_STYLE_ASSIGNMENT( ( #123 ) );
#57 = ADVANCED_FACE( '', ( #124, #125 ), #126, .T. );
#58 = PRESENTATION_STYLE_ASSIGNMENT( ( #127 ) );
#59 = ADVANCED_FACE( '', ( #128, #129 ), #130, .F. );
#60 = PRESENTATION_STYLE_ASSIGNMENT( ( #131 ) );
#61 = ADVANCED_FACE( '', ( #132, #133 ), #134, .F. );
#62 = PRESENTATION_STYLE_ASSIGNMENT( ( #135 ) );
#63 = ADVANCED_FACE( '', ( #136, #137 ), #138, .T. );
#64 = PRESENTATION_STYLE_ASSIGNMENT( ( #139 ) );
#65 = ADVANCED_FACE( '', ( #140 ), #141, .F. );
#66 = PRESENTATION_STYLE_ASSIGNMENT( ( #142 ) );
#67 = ADVANCED_FACE( '', ( #143, #144 ), #145, .T. );
#68 = PRESENTATION_STYLE_ASSIGNMENT( ( #146 ) );
#69 = ADVANCED_FACE( '', ( #147 ), #148, .F. );
#70 = PRESENTATION_STYLE_ASSIGNMENT( ( #149 ) );
#71 = ADVANCED_FACE( '', ( #150, #151 ), #152, .T. );
#72 = PRESENTATION_STYLE_ASSIGNMENT( ( #153 ) );
#73 = ADVANCED_FACE( '', ( #154, #155 ), #156, .T. );
#74 = PRODUCT( '1', '1', 'PART-1-DESC', ( #157 ) );
#75 = PRODUCT_DEFINITION( 'NONE', 'NONE', #158, #2 );
#76 = MANIFOLD_SOLID_BREP( '1', #159 );
#77 = AXIS2_PLACEMENT_3D( '', #160, #161, #162 );
#80 = LENGTH_MEASURE_WITH_UNIT( LENGTH_MEASURE( 1.00000000000000 ), #163 );
#83 = DIMENSIONAL_EXPONENTS( 1.00000000000000, 0.000000000000000, 0.000000000000000, 0.000000000000000, 0.000000000000000, 0.000000000000000, 0.000000000000000 );
#85 = DIMENSIONAL_EXPONENTS( 0.000000000000000, 0.000000000000000, 0.000000000000000, 0.000000000000000, 0.000000000000000, 0.000000000000000, 0.000000000000000 );
#91 = SURFACE_STYLE_USAGE( .BOTH., #164 );
#92 = FACE_OUTER_BOUND( '', #165, .T. );
#93 = FACE_BOUND( '', #166, .T. );
#94 = PLANE( '', #167 );
#95 = SURFACE_STYLE_USAGE( .BOTH., #168 );
#96 = FACE_OUTER_BOUND( '', #169, .T. );
#97 = FACE_OUTER_BOUND( '', #170, .T. );
#98 = CYLINDRICAL_SURFACE( '', #171, 15.5000000000000 );
#99 = SURFACE_STYLE_USAGE( .BOTH., #172 );
#100 = FACE_OUTER_BOUND( '', #173, .T. );
#101 = FACE_BOUND( '', #174, .T. );
#102 = PLANE( '', #175 );
#103 = SURFACE_STYLE_USAGE( .BOTH., #176 );
#104 = FACE_BOUND( '', #177, .T. );
#105 = FACE_OUTER_BOUND( '', #178, .T. );
#106 = CONICAL_SURFACE( '', #179, 17.0000000000000, 0.982793723247329 );
#107 = SURFACE_STYLE_USAGE( .BOTH., #180 );
#108 = FACE_OUTER_BOUND( '', #181, .T. );
#109 = FACE_OUTER_BOUND( '', #182, .T. );
#110 = CYLINDRICAL_SURFACE( '', #183, 15.5000000000000 );
#111 = SURFACE_STYLE_USAGE( .BOTH., #184 );
#112 = FACE_OUTER_BOUND( '', #185, .T. );
#113 = FACE_BOUND( '', #186, .T. );
#114 = PLANE( '', #187 );
#115 = SURFACE_STYLE_USAGE( .BOTH., #188 );
#116 = FACE_OUTER_BOUND( '', #189, .T. );
#117 = FACE_OUTER_BOUND( '', #190, .T. );
#118 = CYLINDRICAL_SURFACE( '', #191, 18.0000000000000 );
#119 = SURFACE_STYLE_USAGE( .BOTH., #192 );
#120 = FACE_OUTER_BOUND( '', #193, .T. );
#121 = FACE_OUTER_BOUND( '', #194, .T. );
#122 = TOROIDAL_SURFACE( '', #195, 17.0000000000000, 1.00000000000000 );
#123 = SURFACE_STYLE_USAGE( .BOTH., #196 );
#124 = FACE_BOUND( '', #197, .T. );
#125 = FACE_OUTER_BOUND( '', #198, .T. );
#126 = CONICAL_SURFACE( '', #199, 17.0000000000000, 0.982793723247329 );
#127 = SURFACE_STYLE_USAGE( .BOTH., #200 );
#128 = FACE_OUTER_BOUND( '', #201, .T. );
#129 = FACE_OUTER_BOUND( '', #202, .T. );
#130 = CYLINDRICAL_SURFACE( '', #203, 14.5000000000000 );
#131 = SURFACE_STYLE_USAGE( .BOTH., #204 );
#132 = FACE_OUTER_BOUND( '', #205, .T. );
#133 = FACE_BOUND( '', #206, .T. );
#134 = PLANE( '', #207 );
#135 = SURFACE_STYLE_USAGE( .BOTH., #208 );
#136 = FACE_OUTER_BOUND( '', #209, .T. );
#137 = FACE_OUTER_BOUND( '', #210, .T. );
#138 = CYLINDRICAL_SURFACE( '', #211, 15.5000000000000 );
#139 = SURFACE_STYLE_USAGE( .BOTH., #212 );
#140 = FACE_OUTER_BOUND( '', #213, .T. );
#141 = PLANE( '', #214 );
#142 = SURFACE_STYLE_USAGE( .BOTH., #215 );
#143 = FACE_OUTER_BOUND( '', #216, .T. );
#144 = FACE_OUTER_BOUND( '', #217, .T. );
#145 = CYLINDRICAL_SURFACE( '', #218, 15.5000000000000 );
#146 = SURFACE_STYLE_USAGE( .BOTH., #219 );
#147 = FACE_OUTER_BOUND( '', #220, .T. );
#148 = PLANE( '', #221 );
#149 = SURFACE_STYLE_USAGE( .BOTH., #222 );
#150 = FACE_OUTER_BOUND( '', #223, .T. );
#151 = FACE_BOUND( '', #224, .T. );
#152 = PLANE( '', #225 );
#153 = SURFACE_STYLE_USAGE( .BOTH., #226 );
#154 = FACE_BOUND( '', #227, .T. );
#155 = FACE_OUTER_BOUND( '', #228, .T. );
#156 = CONICAL_SURFACE( '', #229, 17.0000000000000, 0.982793723247329 );
#157 = PRODUCT_CONTEXT( '', #27, 'mechanical' );
#158 = PRODUCT_DEFINITION_FORMATION_WITH_SPECIFIED_SOURCE( ' ', 'NONE', #74, .NOT_KNOWN. );
#159 = CLOSED_SHELL( '', ( #63, #55, #57, #67, #61, #49, #59, #65, #51, #43, #41, #53, #69, #45, #47, #71, #73 ) );
#160 = CARTESIAN_POINT( '', ( 0.000000000000000, 0.000000000000000, 0.000000000000000 ) );
#161 = DIRECTION( '', ( 0.000000000000000, 0.000000000000000, 1.00000000000000 ) );
#162 = DIRECTION( '', ( 1.00000000000000, 0.000000000000000, 0.000000000000000 ) );
#163 =  ( LENGTH_UNIT(  )NAMED_UNIT( #83 )SI_UNIT( .MILLI., .METRE. ) );
#164 = SURFACE_SIDE_STYLE( '', ( #231 ) );
#165 = EDGE_LOOP( '', ( #232 ) );
#166 = EDGE_LOOP( '', ( #233 ) );
#167 = AXIS2_PLACEMENT_3D( '', #234, #235, #236 );
#168 = SURFACE_SIDE_STYLE( '', ( #237 ) );
#169 = EDGE_LOOP( '', ( #238 ) );
#170 = EDGE_LOOP( '', ( #239 ) );
#171 = AXIS2_PLACEMENT_3D( '', #240, #241, #242 );
#172 = SURFACE_SIDE_STYLE( '', ( #243 ) );
#173 = EDGE_LOOP( '', ( #244 ) );
#174 = EDGE_LOOP( '', ( #245 ) );
#175 = AXIS2_PLACEMENT_3D( '', #246, #247, #248 );
#176 = SURFACE_SIDE_STYLE( '', ( #249 ) );
#177 = EDGE_LOOP( '', ( #250 ) );
#178 = EDGE_LOOP( '', ( #251 ) );
#179 = AXIS2_PLACEMENT_3D( '', #252, #253, #254 );
#180 = SURFACE_SIDE_STYLE( '', ( #255 ) );
#181 = EDGE_LOOP( '', ( #256 ) );
#182 = EDGE_LOOP( '', ( #257 ) );
#183 = AXIS2_PLACEMENT_3D( '', #258, #259, #260 );
#184 = SURFACE_SIDE_STYLE( '', ( #261 ) );
#185 = EDGE_LOOP( '', ( #262 ) );
#186 = EDGE_LOOP( '', ( #263 ) );
#187 = AXIS2_PLACEMENT_3D( '', #264, #265, #266 );
#188 = SURFACE_SIDE_STYLE( '', ( #267 ) );
#189 = EDGE_LOOP( '', ( #268 ) );
#190 = EDGE_LOOP( '', ( #269 ) );
#191 = AXIS2_PLACEMENT_3D( '', #270, #271, #272 );
#192 = SURFACE_SIDE_STYLE( '', ( #273 ) );
#193 = EDGE_LOOP( '', ( #274 ) );
#194 = EDGE_LOOP( '', ( #275 ) );
#195 = AXIS2_PLACEMENT_3D( '', #276, #277, #278 );
#196 = SURFACE_SIDE_STYLE( '', ( #279 ) );
#197 = EDGE_LOOP( '', ( #280 ) );
#198 = EDGE_LOOP( '', ( #281 ) );
#199 = AXIS2_PLACEMENT_3D( '', #282, #283, #284 );
#200 = SURFACE_SIDE_STYLE( '', ( #285 ) );
#201 = EDGE_LOOP( '', ( #286 ) );
#202 = EDGE_LOOP( '', ( #287 ) );
#203 = AXIS2_PLACEMENT_3D( '', #288, #289, #290 );
#204 = SURFACE_SIDE_STYLE( '', ( #291 ) );
#205 = EDGE_LOOP( '', ( #292 ) );
#206 = EDGE_LOOP( '', ( #293 ) );
#207 = AXIS2_PLACEMENT_3D( '', #294, #295, #296 );
#208 = SURFACE_SIDE_STYLE( '', ( #297 ) );
#209 = EDGE_LOOP( '', ( #298 ) );
#210 = EDGE_LOOP( '', ( #299 ) );
#211 = AXIS2_PLACEMENT_3D( '', #300, #301, #302 );
#212 = SURFACE_SIDE_STYLE( '', ( #303 ) );
#213 = EDGE_LOOP( '', ( #304 ) );
#214 = AXIS2_PLACEMENT_3D( '', #305, #306, #307 );
#215 = SURFACE_SIDE_STYLE( '', ( #308 ) );
#216 = EDGE_LOOP( '', ( #309 ) );
#217 = EDGE_LOOP( '', ( #310 ) );
#218 = AXIS2_PLACEMENT_3D( '', #311, #312, #313 );
#219 = SURFACE_SIDE_STYLE( '', ( #314 ) );
#220 = EDGE_LOOP( '', ( #315 ) );
#221 = AXIS2_PLACEMENT_3D( '', #316, #317, #318 );
#222 = SURFACE_SIDE_STYLE( '', ( #319 ) );
#223 = EDGE_LOOP( '', ( #320 ) );
#224 = EDGE_LOOP( '', ( #321 ) );
#225 = AXIS2_PLACEMENT_3D( '', #322, #323, #324 );
#226 = SURFACE_SIDE_STYLE( '', ( #325 ) );
#227 = EDGE_LOOP( '', ( #326 ) );
#228 = EDGE_LOOP( '', ( #327 ) );
#229 = AXIS2_PLACEMENT_3D( '', #328, #329, #330 );
#231 = SURFACE_STYLE_FILL_AREA( #331 );
#232 = ORIENTED_EDGE( '', *, *, #332, .F. );
#233 = ORIENTED_EDGE( '', *, *, #333, .T. );
#234 = CARTESIAN_POINT( '', ( 15.5000000000000, 0.000000000000000, 11.5000000000000 ) );
#235 = DIRECTION( '', ( -3.61400724161835E-017, 0.000000000000000, 1.00000000000000 ) );
#236 = DIRECTION( '', ( 1.00000000000000, 0.000000000000000, 3.61400724161835E-017 ) );
#237 = SURFACE_STYLE_FILL_AREA( #334 );
#238 = ORIENTED_EDGE( '', *, *, #335, .T. );
#239 = ORIENTED_EDGE( '', *, *, #336, .F. );
#240 = CARTESIAN_POINT( '', ( -5.42101086242752E-017, 0.000000000000000, 16.4000000000000 ) );
#241 = DIRECTION( '', ( 3.61400724161835E-017, -0.000000000000000, -1.00000000000000 ) );
#242 = DIRECTION( '', ( 1.00000000000000, 0.000000000000000, 3.61400724161835E-017 ) );
#243 = SURFACE_STYLE_FILL_AREA( #337 );
#244 = ORIENTED_EDGE( '', *, *, #338, .T. );
#245 = ORIENTED_EDGE( '', *, *, #339, .F. );
#246 = CARTESIAN_POINT( '', ( 15.5000000000000, 0.000000000000000, 9.00000000000000 ) );
#247 = DIRECTION( '', ( 0.000000000000000, 0.000000000000000, 1.00000000000000 ) );
#248 = DIRECTION( '', ( 1.00000000000000, 0.000000000000000, 0.000000000000000 ) );
#249 = SURFACE_STYLE_FILL_AREA( #340 );
#250 = ORIENTED_EDGE( '', *, *, #336, .T. );
#251 = ORIENTED_EDGE( '', *, *, #338, .F. );
#252 = CARTESIAN_POINT( '', ( 0.000000000000000, 0.000000000000000, 9.00000000000000 ) );
#253 = DIRECTION( '', ( -0.000000000000000, -0.000000000000000, 1.00000000000000 ) );
#254 = DIRECTION( '', ( 1.00000000000000, 0.000000000000000, 0.000000000000000 ) );
#255 = SURFACE_STYLE_FILL_AREA( #341 );
#256 = ORIENTED_EDGE( '', *, *, #339, .T. );
#257 = ORIENTED_EDGE( '', *, *, #333, .F. );
#258 = CARTESIAN_POINT( '', ( -5.42101086242752E-017, 0.000000000000000, 16.4000000000000 ) );
#259 = DIRECTION( '', ( 3.61400724161835E-017, -0.000000000000000, -1.00000000000000 ) );
#260 = DIRECTION( '', ( 1.00000000000000, 0.000000000000000, 3.61400724161835E-017 ) );
#261 = SURFACE_STYLE_FILL_AREA( #342 );
#262 = ORIENTED_EDGE( '', *, *, #343, .T. );
#263 = ORIENTED_EDGE( '', *, *, #344, .F. );
#264 = CARTESIAN_POINT( '', ( 15.5000000000000, 0.000000000000000, 3.00000000000000 ) );
#265 = DIRECTION( '', ( 0.000000000000000, 0.000000000000000, 1.00000000000000 ) );
#266 = DIRECTION( '', ( 1.00000000000000, 0.000000000000000, 0.000000000000000 ) );
#267 = SURFACE_STYLE_FILL_AREA( #345 );
#268 = ORIENTED_EDGE( '', *, *, #346, .T. );
#269 = ORIENTED_EDGE( '', *, *, #332, .T. );
#270 = CARTESIAN_POINT( '', ( -5.42101086242752E-017, 0.000000000000000, 16.4000000000000 ) );
#271 = DIRECTION( '', ( 3.61400724161835E-017, -0.000000000000000, -1.00000000000000 ) );
#272 = DIRECTION( '', ( 1.00000000000000, 0.000000000000000, 3.61400724161835E-017 ) );
#273 = SURFACE_STYLE_FILL_AREA( #347 );
#274 = ORIENTED_EDGE( '', *, *, #346, .F. );
#275 = ORIENTED_EDGE( '', *, *, #348, .F. );
#276 = CARTESIAN_POINT( '', ( -2.16840434497099E-017, 0.000000000000000, 15.5000000000000 ) );
#277 = DIRECTION( '', ( 3.61400724161835E-017, 0.000000000000000, -1.00000000000000 ) );
#278 = DIRECTION( '', ( -1.00000000000000, 0.000000000000000, -3.61400724161835E-017 ) );
#279 = SURFACE_STYLE_FILL_AREA( #349 );
#280 = ORIENTED_EDGE( '', *, *, #350, .T. );
#281 = ORIENTED_EDGE( '', *, *, #343, .F. );
#282 = CARTESIAN_POINT( '', ( 0.000000000000000, 0.000000000000000, 3.00000000000000 ) );
#283 = DIRECTION( '', ( -0.000000000000000, -0.000000000000000, 1.00000000000000 ) );
#284 = DIRECTION( '', ( 1.00000000000000, 0.000000000000000, 0.000000000000000 ) );
#285 = SURFACE_STYLE_FILL_AREA( #351 );
#286 = ORIENTED_EDGE( '', *, *, #352, .F. );
#287 = ORIENTED_EDGE( '', *, *, #353, .T. );
#288 = CARTESIAN_POINT( '', ( -5.42101086242752E-017, 0.000000000000000, 16.4000000000000 ) );
#289 = DIRECTION( '', ( 3.61400724161835E-017, -0.000000000000000, -1.00000000000000 ) );
#290 = DIRECTION( '', ( 1.00000000000000, 0.000000000000000, 3.61400724161835E-017 ) );
#291 = SURFACE_STYLE_FILL_AREA( #354 );
#292 = ORIENTED_EDGE( '', *, *, #355, .F. );
#293 = ORIENTED_EDGE( '', *, *, #352, .T. );
#294 = CARTESIAN_POINT( '', ( 14.5000000000000, 0.000000000000000, -1.80700362080918E-017 ) );
#295 = DIRECTION( '', ( -3.61400724161835E-017, 0.000000000000000, 1.00000000000000 ) );
#296 = DIRECTION( '', ( 1.00000000000000, 0.000000000000000, 3.61400724161835E-017 ) );
#297 = SURFACE_STYLE_FILL_AREA( #356 );
#298 = ORIENTED_EDGE( '', *, *, #344, .T. );
#299 = ORIENTED_EDGE( '', *, *, #357, .F. );
#300 = CARTESIAN_POINT( '', ( -5.42101086242752E-017, 0.000000000000000, 16.4000000000000 ) );
#301 = DIRECTION( '', ( 3.61400724161835E-017, -0.000000000000000, -1.00000000000000 ) );
#302 = DIRECTION( '', ( 1.00000000000000, 0.000000000000000, 3.61400724161835E-017 ) );
#303 = SURFACE_STYLE_FILL_AREA( #358 );
#304 = ORIENTED_EDGE( '', *, *, #353, .F. );
#305 = CARTESIAN_POINT( '', ( 14.5000000000000, 0.000000000000000, 13.5000000000000 ) );
#306 = DIRECTION( '', ( -3.61400724161835E-017, 0.000000000000000, 1.00000000000000 ) );
#307 = DIRECTION( '', ( 1.00000000000000, 0.000000000000000, 3.61400724161835E-017 ) );
#308 = SURFACE_STYLE_FILL_AREA( #359 );
#309 = ORIENTED_EDGE( '', *, *, #350, .F. );
#310 = ORIENTED_EDGE( '', *, *, #355, .T. );
#311 = CARTESIAN_POINT( '', ( -5.42101086242752E-017, 0.000000000000000, 16.4000000000000 ) );
#312 = DIRECTION( '', ( 3.61400724161835E-017, -0.000000000000000, -1.00000000000000 ) );
#313 = DIRECTION( '', ( 1.00000000000000, 0.000000000000000, 3.61400724161835E-017 ) );
#314 = SURFACE_STYLE_FILL_AREA( #360 );
#315 = ORIENTED_EDGE( '', *, *, #348, .T. );
#316 = CARTESIAN_POINT( '', ( 18.0000000000000, 0.000000000000000, 16.5000000000000 ) );
#317 = DIRECTION( '', ( 3.61400724161835E-017, 0.000000000000000, -1.00000000000000 ) );
#318 = DIRECTION( '', ( -1.00000000000000, 0.000000000000000, -3.61400724161835E-017 ) );
#319 = SURFACE_STYLE_FILL_AREA( #361 );
#320 = ORIENTED_EDGE( '', *, *, #362, .T. );
#321 = ORIENTED_EDGE( '', *, *, #335, .F. );
#322 = CARTESIAN_POINT( '', ( 15.5000000000000, 0.000000000000000, 6.00000000000000 ) );
#323 = DIRECTION( '', ( 0.000000000000000, 0.000000000000000, 1.00000000000000 ) );
#324 = DIRECTION( '', ( 1.00000000000000, 0.000000000000000, 0.000000000000000 ) );
#325 = SURFACE_STYLE_FILL_AREA( #363 );
#326 = ORIENTED_EDGE( '', *, *, #357, .T. );
#327 = ORIENTED_EDGE( '', *, *, #362, .F. );
#328 = CARTESIAN_POINT( '', ( 0.000000000000000, 0.000000000000000, 6.00000000000000 ) );
#329 = DIRECTION( '', ( -0.000000000000000, -0.000000000000000, 1.00000000000000 ) );
#330 = DIRECTION( '', ( 1.00000000000000, 0.000000000000000, 0.000000000000000 ) );
#331 = FILL_AREA_STYLE( '', ( #364 ) );
#332 = EDGE_CURVE( '', #365, #365, #366, .T. );
#333 = EDGE_CURVE( '', #367, #367, #368, .T. );
#334 = FILL_AREA_STYLE( '', ( #369 ) );
#335 = EDGE_CURVE( '', #370, #370, #371, .T. );
#336 = EDGE_CURVE( '', #372, #372, #373, .T. );
#337 = FILL_AREA_STYLE( '', ( #374 ) );
#338 = EDGE_CURVE( '', #375, #375, #376, .T. );
#339 = EDGE_CURVE( '', #377, #377, #378, .T. );
#340 = FILL_AREA_STYLE( '', ( #379 ) );
#341 = FILL_AREA_STYLE( '', ( #380 ) );
#342 = FILL_AREA_STYLE( '', ( #381 ) );
#343 = EDGE_CURVE( '', #382, #382, #383, .T. );
#344 = EDGE_CURVE( '', #384, #384, #385, .T. );
#345 = FILL_AREA_STYLE( '', ( #386 ) );
#346 = EDGE_CURVE( '', #387, #387, #388, .T. );
#347 = FILL_AREA_STYLE( '', ( #389 ) );
#348 = EDGE_CURVE( '', #390, #390, #391, .F. );
#349 = FILL_AREA_STYLE( '', ( #392 ) );
#350 = EDGE_CURVE( '', #393, #393, #394, .T. );
#351 = FILL_AREA_STYLE( '', ( #395 ) );
#352 = EDGE_CURVE( '', #396, #396, #397, .T. );
#353 = EDGE_CURVE( '', #398, #398, #399, .T. );
#354 = FILL_AREA_STYLE( '', ( #400 ) );
#355 = EDGE_CURVE( '', #401, #401, #402, .T. );
#356 = FILL_AREA_STYLE( '', ( #403 ) );
#357 = EDGE_CURVE( '', #404, #404, #405, .T. );
#358 = FILL_AREA_STYLE( '', ( #406 ) );
#359 = FILL_AREA_STYLE( '', ( #407 ) );
#360 = FILL_AREA_STYLE( '', ( #408 ) );
#361 = FILL_AREA_STYLE( '', ( #409 ) );
#362 = EDGE_CURVE( '', #410, #410, #411, .T. );
#363 = FILL_AREA_STYLE( '', ( #412 ) );
#364 = FILL_AREA_STYLE_COLOUR( '', #413 );
#365 = VERTEX_POINT( '', #414 );
#366 = CIRCLE( '', #415, 18.0000000000000 );
#367 = VERTEX_POINT( '', #416 );
#368 = CIRCLE( '', #417, 15.5000000000000 );
#369 = FILL_AREA_STYLE_COLOUR( '', #418 );
#370 = VERTEX_POINT( '', #419 );
#371 = CIRCLE( '', #420, 15.5000000000000 );
#372 = VERTEX_POINT( '', #421 );
#373 = CIRCLE( '', #422, 15.5000000000000 );
#374 = FILL_AREA_STYLE_COLOUR( '', #423 );
#375 = VERTEX_POINT( '', #424 );
#376 = CIRCLE( '', #425, 17.0000000000000 );
#377 = VERTEX_POINT( '', #426 );
#378 = CIRCLE( '', #427, 15.5000000000000 );
#379 = FILL_AREA_STYLE_COLOUR( '', #428 );
#380 = FILL_AREA_STYLE_COLOUR( '', #429 );
#381 = FILL_AREA_STYLE_COLOUR( '', #430 );
#382 = VERTEX_POINT( '', #431 );
#383 = CIRCLE( '', #432, 17.0000000000000 );
#384 = VERTEX_POINT( '', #433 );
#385 = CIRCLE( '', #434, 15.5000000000000 );
#386 = FILL_AREA_STYLE_COLOUR( '', #435 );
#387 = VERTEX_POINT( '', #436 );
#388 = CIRCLE( '', #437, 18.0000000000000 );
#389 = FILL_AREA_STYLE_COLOUR( '', #438 );
#390 = VERTEX_POINT( '', #439 );
#391 = CIRCLE( '', #440, 17.0000000000000 );
#392 = FILL_AREA_STYLE_COLOUR( '', #441 );
#393 = VERTEX_POINT( '', #442 );
#394 = CIRCLE( '', #443, 15.5000000000000 );
#395 = FILL_AREA_STYLE_COLOUR( '', #444 );
#396 = VERTEX_POINT( '', #445 );
#397 = CIRCLE( '', #446, 14.5000000000000 );
#398 = VERTEX_POINT( '', #447 );
#399 = CIRCLE( '', #448, 14.5000000000000 );
#400 = FILL_AREA_STYLE_COLOUR( '', #449 );
#401 = VERTEX_POINT( '', #450 );
#402 = CIRCLE( '', #451, 15.5000000000000 );
#403 = FILL_AREA_STYLE_COLOUR( '', #452 );
#404 = VERTEX_POINT( '', #453 );
#405 = CIRCLE( '', #454, 15.5000000000000 );
#406 = FILL_AREA_STYLE_COLOUR( '', #455 );
#407 = FILL_AREA_STYLE_COLOUR( '', #456 );
#408 = FILL_AREA_STYLE_COLOUR( '', #457 );
#409 = FILL_AREA_STYLE_COLOUR( '', #458 );
#410 = VERTEX_POINT( '', #459 );
#411 = CIRCLE( '', #460, 17.0000000000000 );
#412 = FILL_AREA_STYLE_COLOUR( '', #461 );
#413 = COLOUR_RGB( '', 0.200000002980232, 0.200000002980232, 0.200000002980232 );
#414 = CARTESIAN_POINT( '', ( 18.0000000000000, 0.000000000000000, 11.5000000000000 ) );
#415 = AXIS2_PLACEMENT_3D( '', #462, #463, #464 );
#416 = CARTESIAN_POINT( '', ( 15.5000000000000, 0.000000000000000, 11.5000000000000 ) );
#417 = AXIS2_PLACEMENT_3D( '', #465, #466, #467 );
#418 = COLOUR_RGB( '', 0.200000002980232, 0.200000002980232, 0.200000002980232 );
#419 = CARTESIAN_POINT( '', ( 15.5000000000000, 0.000000000000000, 6.00000000000000 ) );
#420 = AXIS2_PLACEMENT_3D( '', #468, #469, #470 );
#421 = CARTESIAN_POINT( '', ( 15.5000000000000, 0.000000000000000, 8.00000000000000 ) );
#422 = AXIS2_PLACEMENT_3D( '', #471, #472, #473 );
#423 = COLOUR_RGB( '', 0.200000002980232, 0.200000002980232, 0.200000002980232 );
#424 = CARTESIAN_POINT( '', ( 17.0000000000000, 0.000000000000000, 9.00000000000000 ) );
#425 = AXIS2_PLACEMENT_3D( '', #474, #475, #476 );
#426 = CARTESIAN_POINT( '', ( 15.5000000000000, 0.000000000000000, 9.00000000000000 ) );
#427 = AXIS2_PLACEMENT_3D( '', #477, #478, #479 );
#428 = COLOUR_RGB( '', 0.200000002980232, 0.200000002980232, 0.200000002980232 );
#429 = COLOUR_RGB( '', 0.200000002980232, 0.200000002980232, 0.200000002980232 );
#430 = COLOUR_RGB( '', 0.200000002980232, 0.200000002980232, 0.200000002980232 );
#431 = CARTESIAN_POINT( '', ( 17.0000000000000, 0.000000000000000, 3.00000000000000 ) );
#432 = AXIS2_PLACEMENT_3D( '', #480, #481, #482 );
#433 = CARTESIAN_POINT( '', ( 15.5000000000000, 0.000000000000000, 3.00000000000000 ) );
#434 = AXIS2_PLACEMENT_3D( '', #483, #484, #485 );
#435 = COLOUR_RGB( '', 0.200000002980232, 0.200000002980232, 0.200000002980232 );
#436 = CARTESIAN_POINT( '', ( -18.0000000000000, 0.000000000000000, 15.5000000000000 ) );
#437 = AXIS2_PLACEMENT_3D( '', #486, #487, #488 );
#438 = COLOUR_RGB( '', 0.200000002980232, 0.200000002980232, 0.200000002980232 );
#439 = CARTESIAN_POINT( '', ( -17.0000000000000, 0.000000000000000, 16.5000000000000 ) );
#440 = AXIS2_PLACEMENT_3D( '', #489, #490, #491 );
#441 = COLOUR_RGB( '', 0.200000002980232, 0.200000002980232, 0.200000002980232 );
#442 = CARTESIAN_POINT( '', ( 15.5000000000000, 0.000000000000000, 2.00000000000000 ) );
#443 = AXIS2_PLACEMENT_3D( '', #492, #493, #494 );
#444 = COLOUR_RGB( '', 0.200000002980232, 0.200000002980232, 0.200000002980232 );
#445 = CARTESIAN_POINT( '', ( 14.5000000000000, 0.000000000000000, 5.24031050034661E-016 ) );
#446 = AXIS2_PLACEMENT_3D( '', #495, #496, #497 );
#447 = CARTESIAN_POINT( '', ( 14.5000000000000, 0.000000000000000, 13.5000000000000 ) );
#448 = AXIS2_PLACEMENT_3D( '', #498, #499, #500 );
#449 = COLOUR_RGB( '', 0.200000002980232, 0.200000002980232, 0.200000002980232 );
#450 = CARTESIAN_POINT( '', ( 15.5000000000000, 0.000000000000000, 5.60171122450844E-016 ) );
#451 = AXIS2_PLACEMENT_3D( '', #501, #502, #503 );
#452 = COLOUR_RGB( '', 0.200000002980232, 0.200000002980232, 0.200000002980232 );
#453 = CARTESIAN_POINT( '', ( 15.5000000000000, 0.000000000000000, 5.00000000000000 ) );
#454 = AXIS2_PLACEMENT_3D( '', #504, #505, #506 );
#455 = COLOUR_RGB( '', 0.200000002980232, 0.200000002980232, 0.200000002980232 );
#456 = COLOUR_RGB( '', 0.200000002980232, 0.200000002980232, 0.200000002980232 );
#457 = COLOUR_RGB( '', 0.200000002980232, 0.200000002980232, 0.200000002980232 );
#458 = COLOUR_RGB( '', 0.200000002980232, 0.200000002980232, 0.200000002980232 );
#459 = CARTESIAN_POINT( '', ( 17.0000000000000, 0.000000000000000, 6.00000000000000 ) );
#460 = AXIS2_PLACEMENT_3D( '', #507, #508, #509 );
#461 = COLOUR_RGB( '', 0.200000002980232, 0.200000002980232, 0.200000002980232 );
#462 = CARTESIAN_POINT( '', ( 1.22876246215024E-016, 0.000000000000000, 11.5000000000000 ) );
#463 = DIRECTION( '', ( -3.61400724161835E-017, 0.000000000000000, 1.00000000000000 ) );
#464 = DIRECTION( '', ( 1.00000000000000, 0.000000000000000, 3.61400724161835E-017 ) );
#465 = CARTESIAN_POINT( '', ( 1.22876246215024E-016, 0.000000000000000, 11.5000000000000 ) );
#466 = DIRECTION( '', ( -3.61400724161835E-017, 0.000000000000000, 1.00000000000000 ) );
#467 = DIRECTION( '', ( 1.00000000000000, 0.000000000000000, 3.61400724161835E-017 ) );
#468 = CARTESIAN_POINT( '', ( 0.000000000000000, 0.000000000000000, 6.00000000000000 ) );
#469 = DIRECTION( '', ( 0.000000000000000, 0.000000000000000, 1.00000000000000 ) );
#470 = DIRECTION( '', ( 1.00000000000000, 0.000000000000000, 0.000000000000000 ) );
#471 = CARTESIAN_POINT( '', ( 0.000000000000000, 0.000000000000000, 8.00000000000000 ) );
#472 = DIRECTION( '', ( 0.000000000000000, 0.000000000000000, 1.00000000000000 ) );
#473 = DIRECTION( '', ( 1.00000000000000, 0.000000000000000, 0.000000000000000 ) );
#474 = CARTESIAN_POINT( '', ( 0.000000000000000, 0.000000000000000, 9.00000000000000 ) );
#475 = DIRECTION( '', ( 0.000000000000000, 0.000000000000000, 1.00000000000000 ) );
#476 = DIRECTION( '', ( 1.00000000000000, 0.000000000000000, 0.000000000000000 ) );
#477 = CARTESIAN_POINT( '', ( 0.000000000000000, 0.000000000000000, 9.00000000000000 ) );
#478 = DIRECTION( '', ( 0.000000000000000, 0.000000000000000, 1.00000000000000 ) );
#479 = DIRECTION( '', ( 1.00000000000000, 0.000000000000000, 0.000000000000000 ) );
#480 = CARTESIAN_POINT( '', ( 0.000000000000000, 0.000000000000000, 3.00000000000000 ) );
#481 = DIRECTION( '', ( 0.000000000000000, 0.000000000000000, 1.00000000000000 ) );
#482 = DIRECTION( '', ( 1.00000000000000, 0.000000000000000, 0.000000000000000 ) );
#483 = CARTESIAN_POINT( '', ( 0.000000000000000, 0.000000000000000, 3.00000000000000 ) );
#484 = DIRECTION( '', ( 0.000000000000000, 0.000000000000000, 1.00000000000000 ) );
#485 = DIRECTION( '', ( 1.00000000000000, 0.000000000000000, 0.000000000000000 ) );
#486 = CARTESIAN_POINT( '', ( -2.16840434497099E-017, 0.000000000000000, 15.5000000000000 ) );
#487 = DIRECTION( '', ( 3.61400724161835E-017, 0.000000000000000, -1.00000000000000 ) );
#488 = DIRECTION( '', ( -1.00000000000000, 0.000000000000000, -3.61400724161835E-017 ) );
#489 = CARTESIAN_POINT( '', ( -5.78241158658934E-017, 0.000000000000000, 16.5000000000000 ) );
#490 = DIRECTION( '', ( 3.61400724161835E-017, 0.000000000000000, -1.00000000000000 ) );
#491 = DIRECTION( '', ( -1.00000000000000, 0.000000000000000, -3.61400724161835E-017 ) );
#492 = CARTESIAN_POINT( '', ( 0.000000000000000, 0.000000000000000, 2.00000000000000 ) );
#493 = DIRECTION( '', ( 0.000000000000000, 0.000000000000000, 1.00000000000000 ) );
#494 = DIRECTION( '', ( 1.00000000000000, 0.000000000000000, 0.000000000000000 ) );
#495 = CARTESIAN_POINT( '', ( 5.38487079001134E-016, 0.000000000000000, 0.000000000000000 ) );
#496 = DIRECTION( '', ( -3.61400724161835E-017, 0.000000000000000, 1.00000000000000 ) );
#497 = DIRECTION( '', ( 1.00000000000000, 0.000000000000000, 3.61400724161835E-017 ) );
#498 = CARTESIAN_POINT( '', ( 5.05961013826571E-017, 0.000000000000000, 13.5000000000000 ) );
#499 = DIRECTION( '', ( -3.61400724161835E-017, 0.000000000000000, 1.00000000000000 ) );
#500 = DIRECTION( '', ( 1.00000000000000, 0.000000000000000, 3.61400724161835E-017 ) );
#501 = CARTESIAN_POINT( '', ( 5.38487079001134E-016, 0.000000000000000, 0.000000000000000 ) );
#502 = DIRECTION( '', ( -3.61400724161835E-017, 0.000000000000000, 1.00000000000000 ) );
#503 = DIRECTION( '', ( 1.00000000000000, 0.000000000000000, 3.61400724161835E-017 ) );
#504 = CARTESIAN_POINT( '', ( 0.000000000000000, 0.000000000000000, 5.00000000000000 ) );
#505 = DIRECTION( '', ( 0.000000000000000, 0.000000000000000, 1.00000000000000 ) );
#506 = DIRECTION( '', ( 1.00000000000000, 0.000000000000000, 0.000000000000000 ) );
#507 = CARTESIAN_POINT( '', ( 0.000000000000000, 0.000000000000000, 6.00000000000000 ) );
#508 = DIRECTION( '', ( 0.000000000000000, 0.000000000000000, 1.00000000000000 ) );
#509 = DIRECTION( '', ( 1.00000000000000, 0.000000000000000, 0.000000000000000 ) );
ENDSEC;
END-ISO-10303-21;
