ISO-10303-21;
HEADER;
FILE_DESCRIPTION( ( 'Unknown' ), '1' );
FILE_NAME( '//SBS2003/HD_Usb/Disegni/08_LIB/Users_3D/PROD_GAMM_3D/TT/7371363.stp', 'Unknown', ( 'Unknown' ), ( 'Unknown' ), 'PSStep 14.0', 'Unknown', '  ' );
FILE_SCHEMA( ( 'AUTOMOTIVE_DESIGN { 1 0 10303 214 1 1 1 1 }' ) );
ENDSEC;
DATA;
#1 = MECHANICAL_DESIGN_GEOMETRIC_PRESENTATION_REPRESENTATION( ' ', ( #10, #11, #12, #13, #14, #15, #16, #17, #18, #19, #20, #21, #22, #23, #24, #25, #26 ), #6 );
#2 = PRODUCT_DEFINITION_CONTEXT( '', #27, 'design' );
#3 = APPLICATION_PROTOCOL_DEFINITION( 'international standard', 'automotive_design', 2001, #27 );
#4 = PRODUCT_CATEGORY_RELATIONSHIP( 'NONE', 'NONE', #28, #29 );
#5 = SHAPE_DEFINITION_REPRESENTATION( #30, #31 );
#6 =  ( GEOMETRIC_REPRESENTATION_CONTEXT( 3 )GLOBAL_UNCERTAINTY_ASSIGNED_CONTEXT( ( #34 ) )GLOBAL_UNIT_ASSIGNED_CONTEXT( ( #36, #37, #38 ) )REPRESENTATION_CONTEXT( 'NONE', 'WORKSPACE' ) );
#10 = STYLED_ITEM( '', ( #40 ), #41 );
#11 = STYLED_ITEM( '', ( #42 ), #43 );
#12 = STYLED_ITEM( '', ( #44 ), #45 );
#13 = STYLED_ITEM( '', ( #46 ), #47 );
#14 = STYLED_ITEM( '', ( #48 ), #49 );
#15 = STYLED_ITEM( '', ( #50 ), #51 );
#16 = STYLED_ITEM( '', ( #52 ), #53 );
#17 = STYLED_ITEM( '', ( #54 ), #55 );
#18 = STYLED_ITEM( '', ( #56 ), #57 );
#19 = STYLED_ITEM( '', ( #58 ), #59 );
#20 = STYLED_ITEM( '', ( #60 ), #61 );
#21 = STYLED_ITEM( '', ( #62 ), #63 );
#22 = STYLED_ITEM( '', ( #64 ), #65 );
#23 = STYLED_ITEM( '', ( #66 ), #67 );
#24 = STYLED_ITEM( '', ( #68 ), #69 );
#25 = STYLED_ITEM( '', ( #70 ), #71 );
#26 = STYLED_ITEM( '', ( #72 ), #73 );
#27 = APPLICATION_CONTEXT( 'core data for automotive mechanical design processes' );
#28 = PRODUCT_CATEGORY( 'part', 'NONE' );
#29 = PRODUCT_RELATED_PRODUCT_CATEGORY( 'detail', ' ', ( #74 ) );
#30 = PRODUCT_DEFINITION_SHAPE( 'NONE', 'NONE', #75 );
#31 = ADVANCED_BREP_SHAPE_REPRESENTATION( '1', ( #76, #77 ), #6 );
#34 = UNCERTAINTY_MEASURE_WITH_UNIT( LENGTH_MEASURE( 0.00100000000000000 ), #36, '', '' );
#36 =  ( CONVERSION_BASED_UNIT( 'MILLIMETRE', #80 )LENGTH_UNIT(  )NAMED_UNIT( #83 ) );
#37 =  ( NAMED_UNIT( #85 )PLANE_ANGLE_UNIT(  )SI_UNIT( $, .RADIAN. ) );
#38 =  ( NAMED_UNIT( #85 )SI_UNIT( $, .STERADIAN. )SOLID_ANGLE_UNIT(  ) );
#40 = PRESENTATION_STYLE_ASSIGNMENT( ( #91 ) );
#41 = ADVANCED_FACE( '', ( #92, #93 ), #94, .F. );
#42 = PRESENTATION_STYLE_ASSIGNMENT( ( #95 ) );
#43 = ADVANCED_FACE( '', ( #96 ), #97, .F. );
#44 = PRESENTATION_STYLE_ASSIGNMENT( ( #98 ) );
#45 = ADVANCED_FACE( '', ( #99, #100 ), #101, .T. );
#46 = PRESENTATION_STYLE_ASSIGNMENT( ( #102 ) );
#47 = ADVANCED_FACE( '', ( #103, #104 ), #105, .F. );
#48 = PRESENTATION_STYLE_ASSIGNMENT( ( #106 ) );
#49 = ADVANCED_FACE( '', ( #107, #108 ), #109, .F. );
#50 = PRESENTATION_STYLE_ASSIGNMENT( ( #110 ) );
#51 = ADVANCED_FACE( '', ( #111, #112 ), #113, .T. );
#52 = PRESENTATION_STYLE_ASSIGNMENT( ( #114 ) );
#53 = ADVANCED_FACE( '', ( #115, #116 ), #117, .T. );
#54 = PRESENTATION_STYLE_ASSIGNMENT( ( #118 ) );
#55 = ADVANCED_FACE( '', ( #119, #120 ), #121, .T. );
#56 = PRESENTATION_STYLE_ASSIGNMENT( ( #122 ) );
#57 = ADVANCED_FACE( '', ( #123, #124 ), #125, .T. );
#58 = PRESENTATION_STYLE_ASSIGNMENT( ( #126 ) );
#59 = ADVANCED_FACE( '', ( #127, #128 ), #129, .T. );
#60 = PRESENTATION_STYLE_ASSIGNMENT( ( #130 ) );
#61 = ADVANCED_FACE( '', ( #131, #132 ), #133, .T. );
#62 = PRESENTATION_STYLE_ASSIGNMENT( ( #134 ) );
#63 = ADVANCED_FACE( '', ( #135, #136 ), #137, .T. );
#64 = PRESENTATION_STYLE_ASSIGNMENT( ( #138 ) );
#65 = ADVANCED_FACE( '', ( #139 ), #140, .F. );
#66 = PRESENTATION_STYLE_ASSIGNMENT( ( #141 ) );
#67 = ADVANCED_FACE( '', ( #142, #143 ), #144, .T. );
#68 = PRESENTATION_STYLE_ASSIGNMENT( ( #145 ) );
#69 = ADVANCED_FACE( '', ( #146, #147 ), #148, .T. );
#70 = PRESENTATION_STYLE_ASSIGNMENT( ( #149 ) );
#71 = ADVANCED_FACE( '', ( #150, #151 ), #152, .T. );
#72 = PRESENTATION_STYLE_ASSIGNMENT( ( #153 ) );
#73 = ADVANCED_FACE( '', ( #154, #155 ), #156, .T. );
#74 = PRODUCT( '1', '1', 'PART-1-DESC', ( #157 ) );
#75 = PRODUCT_DEFINITION( 'NONE', 'NONE', #158, #2 );
#76 = MANIFOLD_SOLID_BREP( '1', #159 );
#77 = AXIS2_PLACEMENT_3D( '', #160, #161, #162 );
#80 = LENGTH_MEASURE_WITH_UNIT( LENGTH_MEASURE( 1.00000000000000 ), #163 );
#83 = DIMENSIONAL_EXPONENTS( 1.00000000000000, 0.000000000000000, 0.000000000000000, 0.000000000000000, 0.000000000000000, 0.000000000000000, 0.000000000000000 );
#85 = DIMENSIONAL_EXPONENTS( 0.000000000000000, 0.000000000000000, 0.000000000000000, 0.000000000000000, 0.000000000000000, 0.000000000000000, 0.000000000000000 );
#91 = SURFACE_STYLE_USAGE( .BOTH., #164 );
#92 = FACE_OUTER_BOUND( '', #165, .T. );
#93 = FACE_BOUND( '', #166, .T. );
#94 = PLANE( '', #167 );
#95 = SURFACE_STYLE_USAGE( .BOTH., #168 );
#96 = FACE_OUTER_BOUND( '', #169, .T. );
#97 = PLANE( '', #170 );
#98 = SURFACE_STYLE_USAGE( .BOTH., #171 );
#99 = FACE_OUTER_BOUND( '', #172, .T. );
#100 = FACE_OUTER_BOUND( '', #173, .T. );
#101 = CYLINDRICAL_SURFACE( '', #174, 52.5000000000000 );
#102 = SURFACE_STYLE_USAGE( .BOTH., #175 );
#103 = FACE_OUTER_BOUND( '', #176, .T. );
#104 = FACE_BOUND( '', #177, .T. );
#105 = PLANE( '', #178 );
#106 = SURFACE_STYLE_USAGE( .BOTH., #179 );
#107 = FACE_OUTER_BOUND( '', #180, .T. );
#108 = FACE_OUTER_BOUND( '', #181, .T. );
#109 = CYLINDRICAL_SURFACE( '', #182, 45.5000000000000 );
#110 = SURFACE_STYLE_USAGE( .BOTH., #183 );
#111 = FACE_OUTER_BOUND( '', #184, .T. );
#112 = FACE_BOUND( '', #185, .T. );
#113 = PLANE( '', #186 );
#114 = SURFACE_STYLE_USAGE( .BOTH., #187 );
#115 = FACE_OUTER_BOUND( '', #188, .T. );
#116 = FACE_OUTER_BOUND( '', #189, .T. );
#117 = TOROIDAL_SURFACE( '', #190, 50.5000000000000, 2.00000000000000 );
#118 = SURFACE_STYLE_USAGE( .BOTH., #191 );
#119 = FACE_BOUND( '', #192, .T. );
#120 = FACE_OUTER_BOUND( '', #193, .T. );
#121 = CONICAL_SURFACE( '', #194, 50.5000000000000, 0.982793723247329 );
#122 = SURFACE_STYLE_USAGE( .BOTH., #195 );
#123 = FACE_BOUND( '', #196, .T. );
#124 = FACE_OUTER_BOUND( '', #197, .T. );
#125 = CONICAL_SURFACE( '', #198, 50.5000000000000, 0.982793723247330 );
#126 = SURFACE_STYLE_USAGE( .BOTH., #199 );
#127 = FACE_OUTER_BOUND( '', #200, .T. );
#128 = FACE_OUTER_BOUND( '', #201, .T. );
#129 = CYLINDRICAL_SURFACE( '', #202, 47.5000000000000 );
#130 = SURFACE_STYLE_USAGE( .BOTH., #203 );
#131 = FACE_OUTER_BOUND( '', #204, .T. );
#132 = FACE_OUTER_BOUND( '', #205, .T. );
#133 = CYLINDRICAL_SURFACE( '', #206, 47.5000000000000 );
#134 = SURFACE_STYLE_USAGE( .BOTH., #207 );
#135 = FACE_OUTER_BOUND( '', #208, .T. );
#136 = FACE_BOUND( '', #209, .T. );
#137 = PLANE( '', #210 );
#138 = SURFACE_STYLE_USAGE( .BOTH., #211 );
#139 = FACE_OUTER_BOUND( '', #212, .T. );
#140 = PLANE( '', #213 );
#141 = SURFACE_STYLE_USAGE( .BOTH., #214 );
#142 = FACE_OUTER_BOUND( '', #215, .T. );
#143 = FACE_OUTER_BOUND( '', #216, .T. );
#144 = CYLINDRICAL_SURFACE( '', #217, 47.5000000000000 );
#145 = SURFACE_STYLE_USAGE( .BOTH., #218 );
#146 = FACE_OUTER_BOUND( '', #219, .T. );
#147 = FACE_BOUND( '', #220, .T. );
#148 = PLANE( '', #221 );
#149 = SURFACE_STYLE_USAGE( .BOTH., #222 );
#150 = FACE_OUTER_BOUND( '', #223, .T. );
#151 = FACE_OUTER_BOUND( '', #224, .T. );
#152 = CYLINDRICAL_SURFACE( '', #225, 47.5000000000000 );
#153 = SURFACE_STYLE_USAGE( .BOTH., #226 );
#154 = FACE_BOUND( '', #227, .T. );
#155 = FACE_OUTER_BOUND( '', #228, .T. );
#156 = CONICAL_SURFACE( '', #229, 50.5000000000000, 0.982793723247329 );
#157 = PRODUCT_CONTEXT( '', #27, 'mechanical' );
#158 = PRODUCT_DEFINITION_FORMATION_WITH_SPECIFIED_SOURCE( ' ', 'NONE', #74, .NOT_KNOWN. );
#159 = CLOSED_SHELL( '', ( #59, #53, #57, #67, #47, #61, #49, #65, #63, #71, #41, #45, #43, #51, #55, #69, #73 ) );
#160 = CARTESIAN_POINT( '', ( 0.000000000000000, 0.000000000000000, 0.000000000000000 ) );
#161 = DIRECTION( '', ( 0.000000000000000, 0.000000000000000, 1.00000000000000 ) );
#162 = DIRECTION( '', ( 1.00000000000000, 0.000000000000000, 0.000000000000000 ) );
#163 =  ( LENGTH_UNIT(  )NAMED_UNIT( #83 )SI_UNIT( .MILLI., .METRE. ) );
#164 = SURFACE_SIDE_STYLE( '', ( #231 ) );
#165 = EDGE_LOOP( '', ( #232 ) );
#166 = EDGE_LOOP( '', ( #233 ) );
#167 = AXIS2_PLACEMENT_3D( '', #234, #235, #236 );
#168 = SURFACE_SIDE_STYLE( '', ( #237 ) );
#169 = EDGE_LOOP( '', ( #238 ) );
#170 = AXIS2_PLACEMENT_3D( '', #239, #240, #241 );
#171 = SURFACE_SIDE_STYLE( '', ( #242 ) );
#172 = EDGE_LOOP( '', ( #243 ) );
#173 = EDGE_LOOP( '', ( #244 ) );
#174 = AXIS2_PLACEMENT_3D( '', #245, #246, #247 );
#175 = SURFACE_SIDE_STYLE( '', ( #248 ) );
#176 = EDGE_LOOP( '', ( #249 ) );
#177 = EDGE_LOOP( '', ( #250 ) );
#178 = AXIS2_PLACEMENT_3D( '', #251, #252, #253 );
#179 = SURFACE_SIDE_STYLE( '', ( #254 ) );
#180 = EDGE_LOOP( '', ( #255 ) );
#181 = EDGE_LOOP( '', ( #256 ) );
#182 = AXIS2_PLACEMENT_3D( '', #257, #258, #259 );
#183 = SURFACE_SIDE_STYLE( '', ( #260 ) );
#184 = EDGE_LOOP( '', ( #261 ) );
#185 = EDGE_LOOP( '', ( #262 ) );
#186 = AXIS2_PLACEMENT_3D( '', #263, #264, #265 );
#187 = SURFACE_SIDE_STYLE( '', ( #266 ) );
#188 = EDGE_LOOP( '', ( #267 ) );
#189 = EDGE_LOOP( '', ( #268 ) );
#190 = AXIS2_PLACEMENT_3D( '', #269, #270, #271 );
#191 = SURFACE_SIDE_STYLE( '', ( #272 ) );
#192 = EDGE_LOOP( '', ( #273 ) );
#193 = EDGE_LOOP( '', ( #274 ) );
#194 = AXIS2_PLACEMENT_3D( '', #275, #276, #277 );
#195 = SURFACE_SIDE_STYLE( '', ( #278 ) );
#196 = EDGE_LOOP( '', ( #279 ) );
#197 = EDGE_LOOP( '', ( #280 ) );
#198 = AXIS2_PLACEMENT_3D( '', #281, #282, #283 );
#199 = SURFACE_SIDE_STYLE( '', ( #284 ) );
#200 = EDGE_LOOP( '', ( #285 ) );
#201 = EDGE_LOOP( '', ( #286 ) );
#202 = AXIS2_PLACEMENT_3D( '', #287, #288, #289 );
#203 = SURFACE_SIDE_STYLE( '', ( #290 ) );
#204 = EDGE_LOOP( '', ( #291 ) );
#205 = EDGE_LOOP( '', ( #292 ) );
#206 = AXIS2_PLACEMENT_3D( '', #293, #294, #295 );
#207 = SURFACE_SIDE_STYLE( '', ( #296 ) );
#208 = EDGE_LOOP( '', ( #297 ) );
#209 = EDGE_LOOP( '', ( #298 ) );
#210 = AXIS2_PLACEMENT_3D( '', #299, #300, #301 );
#211 = SURFACE_SIDE_STYLE( '', ( #302 ) );
#212 = EDGE_LOOP( '', ( #303 ) );
#213 = AXIS2_PLACEMENT_3D( '', #304, #305, #306 );
#214 = SURFACE_SIDE_STYLE( '', ( #307 ) );
#215 = EDGE_LOOP( '', ( #308 ) );
#216 = EDGE_LOOP( '', ( #309 ) );
#217 = AXIS2_PLACEMENT_3D( '', #310, #311, #312 );
#218 = SURFACE_SIDE_STYLE( '', ( #313 ) );
#219 = EDGE_LOOP( '', ( #314 ) );
#220 = EDGE_LOOP( '', ( #315 ) );
#221 = AXIS2_PLACEMENT_3D( '', #316, #317, #318 );
#222 = SURFACE_SIDE_STYLE( '', ( #319 ) );
#223 = EDGE_LOOP( '', ( #320 ) );
#224 = EDGE_LOOP( '', ( #321 ) );
#225 = AXIS2_PLACEMENT_3D( '', #322, #323, #324 );
#226 = SURFACE_SIDE_STYLE( '', ( #325 ) );
#227 = EDGE_LOOP( '', ( #326 ) );
#228 = EDGE_LOOP( '', ( #327 ) );
#229 = AXIS2_PLACEMENT_3D( '', #328, #329, #330 );
#231 = SURFACE_STYLE_FILL_AREA( #331 );
#232 = ORIENTED_EDGE( '', *, *, #332, .F. );
#233 = ORIENTED_EDGE( '', *, *, #333, .T. );
#234 = CARTESIAN_POINT( '', ( 47.5000000000000, 0.000000000000000, 29.0000000000000 ) );
#235 = DIRECTION( '', ( -3.61400724161835E-017, 0.000000000000000, 1.00000000000000 ) );
#236 = DIRECTION( '', ( 1.00000000000000, 0.000000000000000, 3.61400724161835E-017 ) );
#237 = SURFACE_STYLE_FILL_AREA( #334 );
#238 = ORIENTED_EDGE( '', *, *, #335, .T. );
#239 = CARTESIAN_POINT( '', ( 52.5000000000000, 0.000000000000000, 34.0000000000000 ) );
#240 = DIRECTION( '', ( 3.61400724161835E-017, 0.000000000000000, -1.00000000000000 ) );
#241 = DIRECTION( '', ( -1.00000000000000, 0.000000000000000, -3.61400724161835E-017 ) );
#242 = SURFACE_STYLE_FILL_AREA( #336 );
#243 = ORIENTED_EDGE( '', *, *, #337, .T. );
#244 = ORIENTED_EDGE( '', *, *, #332, .T. );
#245 = CARTESIAN_POINT( '', ( -5.42101086242752E-017, 0.000000000000000, 16.4000000000000 ) );
#246 = DIRECTION( '', ( 3.61400724161835E-017, -0.000000000000000, -1.00000000000000 ) );
#247 = DIRECTION( '', ( 1.00000000000000, 0.000000000000000, 3.61400724161835E-017 ) );
#248 = SURFACE_STYLE_FILL_AREA( #338 );
#249 = ORIENTED_EDGE( '', *, *, #339, .F. );
#250 = ORIENTED_EDGE( '', *, *, #340, .T. );
#251 = CARTESIAN_POINT( '', ( 45.5000000000000, 0.000000000000000, -3.61400724161835E-017 ) );
#252 = DIRECTION( '', ( -3.61400724161835E-017, 0.000000000000000, 1.00000000000000 ) );
#253 = DIRECTION( '', ( 1.00000000000000, 0.000000000000000, 3.61400724161835E-017 ) );
#254 = SURFACE_STYLE_FILL_AREA( #341 );
#255 = ORIENTED_EDGE( '', *, *, #340, .F. );
#256 = ORIENTED_EDGE( '', *, *, #342, .T. );
#257 = CARTESIAN_POINT( '', ( -5.42101086242752E-017, 0.000000000000000, 16.4000000000000 ) );
#258 = DIRECTION( '', ( 3.61400724161835E-017, -0.000000000000000, -1.00000000000000 ) );
#259 = DIRECTION( '', ( 1.00000000000000, 0.000000000000000, 3.61400724161835E-017 ) );
#260 = SURFACE_STYLE_FILL_AREA( #343 );
#261 = ORIENTED_EDGE( '', *, *, #344, .T. );
#262 = ORIENTED_EDGE( '', *, *, #345, .F. );
#263 = CARTESIAN_POINT( '', ( 47.5000000000000, 0.000000000000000, 22.0000000000000 ) );
#264 = DIRECTION( '', ( 0.000000000000000, 0.000000000000000, 1.00000000000000 ) );
#265 = DIRECTION( '', ( 1.00000000000000, 0.000000000000000, 0.000000000000000 ) );
#266 = SURFACE_STYLE_FILL_AREA( #346 );
#267 = ORIENTED_EDGE( '', *, *, #337, .F. );
#268 = ORIENTED_EDGE( '', *, *, #335, .F. );
#269 = CARTESIAN_POINT( '', ( -6.17995238316737E-016, 0.000000000000000, 32.0000000000000 ) );
#270 = DIRECTION( '', ( 3.61400724161835E-017, 0.000000000000000, -1.00000000000000 ) );
#271 = DIRECTION( '', ( -1.00000000000000, 0.000000000000000, -3.61400724161835E-017 ) );
#272 = SURFACE_STYLE_FILL_AREA( #347 );
#273 = ORIENTED_EDGE( '', *, *, #348, .T. );
#274 = ORIENTED_EDGE( '', *, *, #344, .F. );
#275 = CARTESIAN_POINT( '', ( 0.000000000000000, 0.000000000000000, 22.0000000000000 ) );
#276 = DIRECTION( '', ( -0.000000000000000, -0.000000000000000, 1.00000000000000 ) );
#277 = DIRECTION( '', ( 1.00000000000000, 0.000000000000000, 0.000000000000000 ) );
#278 = SURFACE_STYLE_FILL_AREA( #349 );
#279 = ORIENTED_EDGE( '', *, *, #350, .T. );
#280 = ORIENTED_EDGE( '', *, *, #351, .F. );
#281 = CARTESIAN_POINT( '', ( 0.000000000000000, 0.000000000000000, 9.00000000000000 ) );
#282 = DIRECTION( '', ( -0.000000000000000, -0.000000000000000, 1.00000000000000 ) );
#283 = DIRECTION( '', ( 1.00000000000000, 0.000000000000000, 0.000000000000000 ) );
#284 = SURFACE_STYLE_FILL_AREA( #352 );
#285 = ORIENTED_EDGE( '', *, *, #353, .T. );
#286 = ORIENTED_EDGE( '', *, *, #354, .F. );
#287 = CARTESIAN_POINT( '', ( -5.42101086242752E-017, 0.000000000000000, 16.4000000000000 ) );
#288 = DIRECTION( '', ( 3.61400724161835E-017, -0.000000000000000, -1.00000000000000 ) );
#289 = DIRECTION( '', ( 1.00000000000000, 0.000000000000000, 3.61400724161835E-017 ) );
#290 = SURFACE_STYLE_FILL_AREA( #355 );
#291 = ORIENTED_EDGE( '', *, *, #345, .T. );
#292 = ORIENTED_EDGE( '', *, *, #333, .F. );
#293 = CARTESIAN_POINT( '', ( -5.42101086242752E-017, 0.000000000000000, 16.4000000000000 ) );
#294 = DIRECTION( '', ( 3.61400724161835E-017, -0.000000000000000, -1.00000000000000 ) );
#295 = DIRECTION( '', ( 1.00000000000000, 0.000000000000000, 3.61400724161835E-017 ) );
#296 = SURFACE_STYLE_FILL_AREA( #356 );
#297 = ORIENTED_EDGE( '', *, *, #351, .T. );
#298 = ORIENTED_EDGE( '', *, *, #353, .F. );
#299 = CARTESIAN_POINT( '', ( 47.5000000000000, 0.000000000000000, 9.00000000000000 ) );
#300 = DIRECTION( '', ( 0.000000000000000, 0.000000000000000, 1.00000000000000 ) );
#301 = DIRECTION( '', ( 1.00000000000000, 0.000000000000000, 0.000000000000000 ) );
#302 = SURFACE_STYLE_FILL_AREA( #357 );
#303 = ORIENTED_EDGE( '', *, *, #342, .F. );
#304 = CARTESIAN_POINT( '', ( 45.5000000000000, 0.000000000000000, 31.0000000000000 ) );
#305 = DIRECTION( '', ( -3.61400724161835E-017, 0.000000000000000, 1.00000000000000 ) );
#306 = DIRECTION( '', ( 1.00000000000000, 0.000000000000000, 3.61400724161835E-017 ) );
#307 = SURFACE_STYLE_FILL_AREA( #358 );
#308 = ORIENTED_EDGE( '', *, *, #350, .F. );
#309 = ORIENTED_EDGE( '', *, *, #339, .T. );
#310 = CARTESIAN_POINT( '', ( -5.42101086242752E-017, 0.000000000000000, 16.4000000000000 ) );
#311 = DIRECTION( '', ( 3.61400724161835E-017, -0.000000000000000, -1.00000000000000 ) );
#312 = DIRECTION( '', ( 1.00000000000000, 0.000000000000000, 3.61400724161835E-017 ) );
#313 = SURFACE_STYLE_FILL_AREA( #359 );
#314 = ORIENTED_EDGE( '', *, *, #360, .T. );
#315 = ORIENTED_EDGE( '', *, *, #361, .F. );
#316 = CARTESIAN_POINT( '', ( 47.5000000000000, 0.000000000000000, 15.5000000000000 ) );
#317 = DIRECTION( '', ( 0.000000000000000, 0.000000000000000, 1.00000000000000 ) );
#318 = DIRECTION( '', ( 1.00000000000000, 0.000000000000000, 0.000000000000000 ) );
#319 = SURFACE_STYLE_FILL_AREA( #362 );
#320 = ORIENTED_EDGE( '', *, *, #361, .T. );
#321 = ORIENTED_EDGE( '', *, *, #348, .F. );
#322 = CARTESIAN_POINT( '', ( -5.42101086242752E-017, 0.000000000000000, 16.4000000000000 ) );
#323 = DIRECTION( '', ( 3.61400724161835E-017, -0.000000000000000, -1.00000000000000 ) );
#324 = DIRECTION( '', ( 1.00000000000000, 0.000000000000000, 3.61400724161835E-017 ) );
#325 = SURFACE_STYLE_FILL_AREA( #363 );
#326 = ORIENTED_EDGE( '', *, *, #354, .T. );
#327 = ORIENTED_EDGE( '', *, *, #360, .F. );
#328 = CARTESIAN_POINT( '', ( 0.000000000000000, 0.000000000000000, 15.5000000000000 ) );
#329 = DIRECTION( '', ( -0.000000000000000, -0.000000000000000, 1.00000000000000 ) );
#330 = DIRECTION( '', ( 1.00000000000000, 0.000000000000000, 0.000000000000000 ) );
#331 = FILL_AREA_STYLE( '', ( #364 ) );
#332 = EDGE_CURVE( '', #365, #365, #366, .T. );
#333 = EDGE_CURVE( '', #367, #367, #368, .T. );
#334 = FILL_AREA_STYLE( '', ( #369 ) );
#335 = EDGE_CURVE( '', #370, #370, #371, .F. );
#336 = FILL_AREA_STYLE( '', ( #372 ) );
#337 = EDGE_CURVE( '', #373, #373, #374, .T. );
#338 = FILL_AREA_STYLE( '', ( #375 ) );
#339 = EDGE_CURVE( '', #376, #376, #377, .T. );
#340 = EDGE_CURVE( '', #378, #378, #379, .T. );
#341 = FILL_AREA_STYLE( '', ( #380 ) );
#342 = EDGE_CURVE( '', #381, #381, #382, .T. );
#343 = FILL_AREA_STYLE( '', ( #383 ) );
#344 = EDGE_CURVE( '', #384, #384, #385, .T. );
#345 = EDGE_CURVE( '', #386, #386, #387, .T. );
#346 = FILL_AREA_STYLE( '', ( #388 ) );
#347 = FILL_AREA_STYLE( '', ( #389 ) );
#348 = EDGE_CURVE( '', #390, #390, #391, .T. );
#349 = FILL_AREA_STYLE( '', ( #392 ) );
#350 = EDGE_CURVE( '', #393, #393, #394, .T. );
#351 = EDGE_CURVE( '', #395, #395, #396, .T. );
#352 = FILL_AREA_STYLE( '', ( #397 ) );
#353 = EDGE_CURVE( '', #398, #398, #399, .T. );
#354 = EDGE_CURVE( '', #400, #400, #401, .T. );
#355 = FILL_AREA_STYLE( '', ( #402 ) );
#356 = FILL_AREA_STYLE( '', ( #403 ) );
#357 = FILL_AREA_STYLE( '', ( #404 ) );
#358 = FILL_AREA_STYLE( '', ( #405 ) );
#359 = FILL_AREA_STYLE( '', ( #406 ) );
#360 = EDGE_CURVE( '', #407, #407, #408, .T. );
#361 = EDGE_CURVE( '', #409, #409, #410, .T. );
#362 = FILL_AREA_STYLE( '', ( #411 ) );
#363 = FILL_AREA_STYLE( '', ( #412 ) );
#364 = FILL_AREA_STYLE_COLOUR( '', #413 );
#365 = VERTEX_POINT( '', #414 );
#366 = CIRCLE( '', #415, 52.5000000000000 );
#367 = VERTEX_POINT( '', #416 );
#368 = CIRCLE( '', #417, 47.5000000000000 );
#369 = FILL_AREA_STYLE_COLOUR( '', #418 );
#370 = VERTEX_POINT( '', #419 );
#371 = CIRCLE( '', #420, 50.5000000000000 );
#372 = FILL_AREA_STYLE_COLOUR( '', #421 );
#373 = VERTEX_POINT( '', #422 );
#374 = CIRCLE( '', #423, 52.5000000000000 );
#375 = FILL_AREA_STYLE_COLOUR( '', #424 );
#376 = VERTEX_POINT( '', #425 );
#377 = CIRCLE( '', #426, 47.5000000000000 );
#378 = VERTEX_POINT( '', #427 );
#379 = CIRCLE( '', #428, 45.5000000000000 );
#380 = FILL_AREA_STYLE_COLOUR( '', #429 );
#381 = VERTEX_POINT( '', #430 );
#382 = CIRCLE( '', #431, 45.5000000000000 );
#383 = FILL_AREA_STYLE_COLOUR( '', #432 );
#384 = VERTEX_POINT( '', #433 );
#385 = CIRCLE( '', #434, 50.5000000000000 );
#386 = VERTEX_POINT( '', #435 );
#387 = CIRCLE( '', #436, 47.5000000000000 );
#388 = FILL_AREA_STYLE_COLOUR( '', #437 );
#389 = FILL_AREA_STYLE_COLOUR( '', #438 );
#390 = VERTEX_POINT( '', #439 );
#391 = CIRCLE( '', #440, 47.5000000000000 );
#392 = FILL_AREA_STYLE_COLOUR( '', #441 );
#393 = VERTEX_POINT( '', #442 );
#394 = CIRCLE( '', #443, 47.5000000000000 );
#395 = VERTEX_POINT( '', #444 );
#396 = CIRCLE( '', #445, 50.5000000000000 );
#397 = FILL_AREA_STYLE_COLOUR( '', #446 );
#398 = VERTEX_POINT( '', #447 );
#399 = CIRCLE( '', #448, 47.5000000000000 );
#400 = VERTEX_POINT( '', #449 );
#401 = CIRCLE( '', #450, 47.5000000000000 );
#402 = FILL_AREA_STYLE_COLOUR( '', #451 );
#403 = FILL_AREA_STYLE_COLOUR( '', #452 );
#404 = FILL_AREA_STYLE_COLOUR( '', #453 );
#405 = FILL_AREA_STYLE_COLOUR( '', #454 );
#406 = FILL_AREA_STYLE_COLOUR( '', #455 );
#407 = VERTEX_POINT( '', #456 );
#408 = CIRCLE( '', #457, 50.5000000000000 );
#409 = VERTEX_POINT( '', #458 );
#410 = CIRCLE( '', #459, 47.5000000000000 );
#411 = FILL_AREA_STYLE_COLOUR( '', #460 );
#412 = FILL_AREA_STYLE_COLOUR( '', #461 );
#413 = COLOUR_RGB( '', 0.200000002980232, 0.200000002980232, 0.200000002980232 );
#414 = CARTESIAN_POINT( '', ( 52.5000000000000, 0.000000000000000, 29.0000000000000 ) );
#415 = AXIS2_PLACEMENT_3D( '', #462, #463, #464 );
#416 = CARTESIAN_POINT( '', ( 47.5000000000000, 0.000000000000000, 29.0000000000000 ) );
#417 = AXIS2_PLACEMENT_3D( '', #465, #466, #467 );
#418 = COLOUR_RGB( '', 0.200000002980232, 0.200000002980232, 0.200000002980232 );
#419 = CARTESIAN_POINT( '', ( -50.5000000000000, 0.000000000000000, 34.0000000000000 ) );
#420 = AXIS2_PLACEMENT_3D( '', #468, #469, #470 );
#421 = COLOUR_RGB( '', 0.200000002980232, 0.200000002980232, 0.200000002980232 );
#422 = CARTESIAN_POINT( '', ( -52.5000000000000, 0.000000000000000, 32.0000000000000 ) );
#423 = AXIS2_PLACEMENT_3D( '', #471, #472, #473 );
#424 = COLOUR_RGB( '', 0.200000002980232, 0.200000002980232, 0.200000002980232 );
#425 = CARTESIAN_POINT( '', ( 47.5000000000000, 0.000000000000000, 1.71665343976872E-015 ) );
#426 = AXIS2_PLACEMENT_3D( '', #474, #475, #476 );
#427 = CARTESIAN_POINT( '', ( 45.5000000000000, 0.000000000000000, 1.64437329493635E-015 ) );
#428 = AXIS2_PLACEMENT_3D( '', #477, #478, #479 );
#429 = COLOUR_RGB( '', 0.200000002980232, 0.200000002980232, 0.200000002980232 );
#430 = CARTESIAN_POINT( '', ( 45.5000000000000, 0.000000000000000, 31.0000000000000 ) );
#431 = AXIS2_PLACEMENT_3D( '', #480, #481, #482 );
#432 = COLOUR_RGB( '', 0.200000002980232, 0.200000002980232, 0.200000002980232 );
#433 = CARTESIAN_POINT( '', ( 50.5000000000000, 0.000000000000000, 22.0000000000000 ) );
#434 = AXIS2_PLACEMENT_3D( '', #483, #484, #485 );
#435 = CARTESIAN_POINT( '', ( 47.5000000000000, 0.000000000000000, 22.0000000000000 ) );
#436 = AXIS2_PLACEMENT_3D( '', #486, #487, #488 );
#437 = COLOUR_RGB( '', 0.200000002980232, 0.200000002980232, 0.200000002980232 );
#438 = COLOUR_RGB( '', 0.200000002980232, 0.200000002980232, 0.200000002980232 );
#439 = CARTESIAN_POINT( '', ( 47.5000000000000, 0.000000000000000, 20.0000000000000 ) );
#440 = AXIS2_PLACEMENT_3D( '', #489, #490, #491 );
#441 = COLOUR_RGB( '', 0.200000002980232, 0.200000002980232, 0.200000002980232 );
#442 = CARTESIAN_POINT( '', ( 47.5000000000000, 0.000000000000000, 7.00000000000000 ) );
#443 = AXIS2_PLACEMENT_3D( '', #492, #493, #494 );
#444 = CARTESIAN_POINT( '', ( 50.5000000000000, 0.000000000000000, 9.00000000000000 ) );
#445 = AXIS2_PLACEMENT_3D( '', #495, #496, #497 );
#446 = COLOUR_RGB( '', 0.200000002980232, 0.200000002980232, 0.200000002980232 );
#447 = CARTESIAN_POINT( '', ( 47.5000000000000, 0.000000000000000, 9.00000000000000 ) );
#448 = AXIS2_PLACEMENT_3D( '', #498, #499, #500 );
#449 = CARTESIAN_POINT( '', ( 47.5000000000000, 0.000000000000000, 13.5000000000000 ) );
#450 = AXIS2_PLACEMENT_3D( '', #501, #502, #503 );
#451 = COLOUR_RGB( '', 0.200000002980232, 0.200000002980232, 0.200000002980232 );
#452 = COLOUR_RGB( '', 0.200000002980232, 0.200000002980232, 0.200000002980232 );
#453 = COLOUR_RGB( '', 0.200000002980232, 0.200000002980232, 0.200000002980232 );
#454 = COLOUR_RGB( '', 0.200000002980232, 0.200000002980232, 0.200000002980232 );
#455 = COLOUR_RGB( '', 0.200000002980232, 0.200000002980232, 0.200000002980232 );
#456 = CARTESIAN_POINT( '', ( 50.5000000000000, 0.000000000000000, 15.5000000000000 ) );
#457 = AXIS2_PLACEMENT_3D( '', #504, #505, #506 );
#458 = CARTESIAN_POINT( '', ( 47.5000000000000, 0.000000000000000, 15.5000000000000 ) );
#459 = AXIS2_PLACEMENT_3D( '', #507, #508, #509 );
#460 = COLOUR_RGB( '', 0.200000002980232, 0.200000002980232, 0.200000002980232 );
#461 = COLOUR_RGB( '', 0.200000002980232, 0.200000002980232, 0.200000002980232 );
#462 = CARTESIAN_POINT( '', ( -5.09575021068187E-016, 0.000000000000000, 29.0000000000000 ) );
#463 = DIRECTION( '', ( -3.61400724161835E-017, 0.000000000000000, 1.00000000000000 ) );
#464 = DIRECTION( '', ( 1.00000000000000, 0.000000000000000, 3.61400724161835E-017 ) );
#465 = CARTESIAN_POINT( '', ( -5.09575021068187E-016, 0.000000000000000, 29.0000000000000 ) );
#466 = DIRECTION( '', ( -3.61400724161835E-017, 0.000000000000000, 1.00000000000000 ) );
#467 = DIRECTION( '', ( 1.00000000000000, 0.000000000000000, 3.61400724161835E-017 ) );
#468 = CARTESIAN_POINT( '', ( -6.90275383149104E-016, 0.000000000000000, 34.0000000000000 ) );
#469 = DIRECTION( '', ( 3.61400724161835E-017, 0.000000000000000, -1.00000000000000 ) );
#470 = DIRECTION( '', ( -1.00000000000000, 0.000000000000000, -3.61400724161835E-017 ) );
#471 = CARTESIAN_POINT( '', ( -6.17995238316737E-016, 0.000000000000000, 32.0000000000000 ) );
#472 = DIRECTION( '', ( 3.61400724161835E-017, 0.000000000000000, -1.00000000000000 ) );
#473 = DIRECTION( '', ( -1.00000000000000, 0.000000000000000, -3.61400724161835E-017 ) );
#474 = CARTESIAN_POINT( '', ( 5.38487079001134E-016, 0.000000000000000, 0.000000000000000 ) );
#475 = DIRECTION( '', ( -3.61400724161835E-017, 0.000000000000000, 1.00000000000000 ) );
#476 = DIRECTION( '', ( 1.00000000000000, 0.000000000000000, 3.61400724161835E-017 ) );
#477 = CARTESIAN_POINT( '', ( 5.38487079001134E-016, 0.000000000000000, 0.000000000000000 ) );
#478 = DIRECTION( '', ( -3.61400724161835E-017, 0.000000000000000, 1.00000000000000 ) );
#479 = DIRECTION( '', ( 1.00000000000000, 0.000000000000000, 3.61400724161835E-017 ) );
#480 = CARTESIAN_POINT( '', ( -5.81855165900554E-016, 0.000000000000000, 31.0000000000000 ) );
#481 = DIRECTION( '', ( -3.61400724161835E-017, 0.000000000000000, 1.00000000000000 ) );
#482 = DIRECTION( '', ( 1.00000000000000, 0.000000000000000, 3.61400724161835E-017 ) );
#483 = CARTESIAN_POINT( '', ( 0.000000000000000, 0.000000000000000, 22.0000000000000 ) );
#484 = DIRECTION( '', ( 0.000000000000000, 0.000000000000000, 1.00000000000000 ) );
#485 = DIRECTION( '', ( 1.00000000000000, 0.000000000000000, 0.000000000000000 ) );
#486 = CARTESIAN_POINT( '', ( 0.000000000000000, 0.000000000000000, 22.0000000000000 ) );
#487 = DIRECTION( '', ( 0.000000000000000, 0.000000000000000, 1.00000000000000 ) );
#488 = DIRECTION( '', ( 1.00000000000000, 0.000000000000000, 0.000000000000000 ) );
#489 = CARTESIAN_POINT( '', ( 0.000000000000000, 0.000000000000000, 20.0000000000000 ) );
#490 = DIRECTION( '', ( 0.000000000000000, 0.000000000000000, 1.00000000000000 ) );
#491 = DIRECTION( '', ( 1.00000000000000, 0.000000000000000, 0.000000000000000 ) );
#492 = CARTESIAN_POINT( '', ( 0.000000000000000, 0.000000000000000, 7.00000000000000 ) );
#493 = DIRECTION( '', ( 0.000000000000000, 0.000000000000000, 1.00000000000000 ) );
#494 = DIRECTION( '', ( 1.00000000000000, 0.000000000000000, 0.000000000000000 ) );
#495 = CARTESIAN_POINT( '', ( 0.000000000000000, 0.000000000000000, 9.00000000000000 ) );
#496 = DIRECTION( '', ( 0.000000000000000, 0.000000000000000, 1.00000000000000 ) );
#497 = DIRECTION( '', ( 1.00000000000000, 0.000000000000000, 0.000000000000000 ) );
#498 = CARTESIAN_POINT( '', ( 0.000000000000000, 0.000000000000000, 9.00000000000000 ) );
#499 = DIRECTION( '', ( 0.000000000000000, 0.000000000000000, 1.00000000000000 ) );
#500 = DIRECTION( '', ( 1.00000000000000, 0.000000000000000, 0.000000000000000 ) );
#501 = CARTESIAN_POINT( '', ( 0.000000000000000, 0.000000000000000, 13.5000000000000 ) );
#502 = DIRECTION( '', ( 0.000000000000000, 0.000000000000000, 1.00000000000000 ) );
#503 = DIRECTION( '', ( 1.00000000000000, 0.000000000000000, 0.000000000000000 ) );
#504 = CARTESIAN_POINT( '', ( 0.000000000000000, 0.000000000000000, 15.5000000000000 ) );
#505 = DIRECTION( '', ( 0.000000000000000, 0.000000000000000, 1.00000000000000 ) );
#506 = DIRECTION( '', ( 1.00000000000000, 0.000000000000000, 0.000000000000000 ) );
#507 = CARTESIAN_POINT( '', ( 0.000000000000000, 0.000000000000000, 15.5000000000000 ) );
#508 = DIRECTION( '', ( 0.000000000000000, 0.000000000000000, 1.00000000000000 ) );
#509 = DIRECTION( '', ( 1.00000000000000, 0.000000000000000, 0.000000000000000 ) );
ENDSEC;
END-ISO-10303-21;
