ISO-10303-21;
HEADER;
FILE_DESCRIPTION( ( 'Unknown' ), '1' );
FILE_NAME( '//SBS2003/HD_Usb/Disegni/08_LIB/Users_3D/PROD_GAMM_3D/TT/7371368.stp', 'Unknown', ( 'Unknown' ), ( 'Unknown' ), 'PSStep 14.0', 'Unknown', '  ' );
FILE_SCHEMA( ( 'AUTOMOTIVE_DESIGN { 1 0 10303 214 1 1 1 1 }' ) );
ENDSEC;
DATA;
#1 = MECHANICAL_DESIGN_GEOMETRIC_PRESENTATION_REPRESENTATION( ' ', ( #10, #11, #12, #13, #14, #15, #16, #17, #18, #19, #20, #21, #22, #23, #24, #25, #26 ), #6 );
#2 = PRODUCT_DEFINITION_CONTEXT( '', #27, 'design' );
#3 = APPLICATION_PROTOCOL_DEFINITION( 'international standard', 'automotive_design', 2001, #27 );
#4 = PRODUCT_CATEGORY_RELATIONSHIP( 'NONE', 'NONE', #28, #29 );
#5 = SHAPE_DEFINITION_REPRESENTATION( #30, #31 );
#6 =  ( GEOMETRIC_REPRESENTATION_CONTEXT( 3 )GLOBAL_UNCERTAINTY_ASSIGNED_CONTEXT( ( #34 ) )GLOBAL_UNIT_ASSIGNED_CONTEXT( ( #36, #37, #38 ) )REPRESENTATION_CONTEXT( 'NONE', 'WORKSPACE' ) );
#10 = STYLED_ITEM( '', ( #40 ), #41 );
#11 = STYLED_ITEM( '', ( #42 ), #43 );
#12 = STYLED_ITEM( '', ( #44 ), #45 );
#13 = STYLED_ITEM( '', ( #46 ), #47 );
#14 = STYLED_ITEM( '', ( #48 ), #49 );
#15 = STYLED_ITEM( '', ( #50 ), #51 );
#16 = STYLED_ITEM( '', ( #52 ), #53 );
#17 = STYLED_ITEM( '', ( #54 ), #55 );
#18 = STYLED_ITEM( '', ( #56 ), #57 );
#19 = STYLED_ITEM( '', ( #58 ), #59 );
#20 = STYLED_ITEM( '', ( #60 ), #61 );
#21 = STYLED_ITEM( '', ( #62 ), #63 );
#22 = STYLED_ITEM( '', ( #64 ), #65 );
#23 = STYLED_ITEM( '', ( #66 ), #67 );
#24 = STYLED_ITEM( '', ( #68 ), #69 );
#25 = STYLED_ITEM( '', ( #70 ), #71 );
#26 = STYLED_ITEM( '', ( #72 ), #73 );
#27 = APPLICATION_CONTEXT( 'core data for automotive mechanical design processes' );
#28 = PRODUCT_CATEGORY( 'part', 'NONE' );
#29 = PRODUCT_RELATED_PRODUCT_CATEGORY( 'detail', ' ', ( #74 ) );
#30 = PRODUCT_DEFINITION_SHAPE( 'NONE', 'NONE', #75 );
#31 = ADVANCED_BREP_SHAPE_REPRESENTATION( '1', ( #76, #77 ), #6 );
#34 = UNCERTAINTY_MEASURE_WITH_UNIT( LENGTH_MEASURE( 0.00100000000000000 ), #36, '', '' );
#36 =  ( CONVERSION_BASED_UNIT( 'MILLIMETRE', #80 )LENGTH_UNIT(  )NAMED_UNIT( #83 ) );
#37 =  ( NAMED_UNIT( #85 )PLANE_ANGLE_UNIT(  )SI_UNIT( $, .RADIAN. ) );
#38 =  ( NAMED_UNIT( #85 )SI_UNIT( $, .STERADIAN. )SOLID_ANGLE_UNIT(  ) );
#40 = PRESENTATION_STYLE_ASSIGNMENT( ( #91 ) );
#41 = ADVANCED_FACE( '', ( #92, #93 ), #94, .F. );
#42 = PRESENTATION_STYLE_ASSIGNMENT( ( #95 ) );
#43 = ADVANCED_FACE( '', ( #96, #97 ), #98, .T. );
#44 = PRESENTATION_STYLE_ASSIGNMENT( ( #99 ) );
#45 = ADVANCED_FACE( '', ( #100, #101 ), #102, .T. );
#46 = PRESENTATION_STYLE_ASSIGNMENT( ( #103 ) );
#47 = ADVANCED_FACE( '', ( #104, #105 ), #106, .T. );
#48 = PRESENTATION_STYLE_ASSIGNMENT( ( #107 ) );
#49 = ADVANCED_FACE( '', ( #108, #109 ), #110, .F. );
#50 = PRESENTATION_STYLE_ASSIGNMENT( ( #111 ) );
#51 = ADVANCED_FACE( '', ( #112, #113 ), #114, .T. );
#52 = PRESENTATION_STYLE_ASSIGNMENT( ( #115 ) );
#53 = ADVANCED_FACE( '', ( #116 ), #117, .F. );
#54 = PRESENTATION_STYLE_ASSIGNMENT( ( #118 ) );
#55 = ADVANCED_FACE( '', ( #119 ), #120, .F. );
#56 = PRESENTATION_STYLE_ASSIGNMENT( ( #121 ) );
#57 = ADVANCED_FACE( '', ( #122, #123 ), #124, .T. );
#58 = PRESENTATION_STYLE_ASSIGNMENT( ( #125 ) );
#59 = ADVANCED_FACE( '', ( #126, #127 ), #128, .T. );
#60 = PRESENTATION_STYLE_ASSIGNMENT( ( #129 ) );
#61 = ADVANCED_FACE( '', ( #130, #131 ), #132, .T. );
#62 = PRESENTATION_STYLE_ASSIGNMENT( ( #133 ) );
#63 = ADVANCED_FACE( '', ( #134, #135 ), #136, .T. );
#64 = PRESENTATION_STYLE_ASSIGNMENT( ( #137 ) );
#65 = ADVANCED_FACE( '', ( #138, #139 ), #140, .T. );
#66 = PRESENTATION_STYLE_ASSIGNMENT( ( #141 ) );
#67 = ADVANCED_FACE( '', ( #142, #143 ), #144, .F. );
#68 = PRESENTATION_STYLE_ASSIGNMENT( ( #145 ) );
#69 = ADVANCED_FACE( '', ( #146, #147 ), #148, .T. );
#70 = PRESENTATION_STYLE_ASSIGNMENT( ( #149 ) );
#71 = ADVANCED_FACE( '', ( #150, #151 ), #152, .T. );
#72 = PRESENTATION_STYLE_ASSIGNMENT( ( #153 ) );
#73 = ADVANCED_FACE( '', ( #154, #155 ), #156, .T. );
#74 = PRODUCT( '1', '1', 'PART-1-DESC', ( #157 ) );
#75 = PRODUCT_DEFINITION( 'NONE', 'NONE', #158, #2 );
#76 = MANIFOLD_SOLID_BREP( '1', #159 );
#77 = AXIS2_PLACEMENT_3D( '', #160, #161, #162 );
#80 = LENGTH_MEASURE_WITH_UNIT( LENGTH_MEASURE( 1.00000000000000 ), #163 );
#83 = DIMENSIONAL_EXPONENTS( 1.00000000000000, 0.000000000000000, 0.000000000000000, 0.000000000000000, 0.000000000000000, 0.000000000000000, 0.000000000000000 );
#85 = DIMENSIONAL_EXPONENTS( 0.000000000000000, 0.000000000000000, 0.000000000000000, 0.000000000000000, 0.000000000000000, 0.000000000000000, 0.000000000000000 );
#91 = SURFACE_STYLE_USAGE( .BOTH., #164 );
#92 = FACE_OUTER_BOUND( '', #165, .T. );
#93 = FACE_BOUND( '', #166, .T. );
#94 = PLANE( '', #167 );
#95 = SURFACE_STYLE_USAGE( .BOTH., #168 );
#96 = FACE_OUTER_BOUND( '', #169, .T. );
#97 = FACE_BOUND( '', #170, .T. );
#98 = PLANE( '', #171 );
#99 = SURFACE_STYLE_USAGE( .BOTH., #172 );
#100 = FACE_OUTER_BOUND( '', #173, .T. );
#101 = FACE_OUTER_BOUND( '', #174, .T. );
#102 = CYLINDRICAL_SURFACE( '', #175, 39.0000000000000 );
#103 = SURFACE_STYLE_USAGE( .BOTH., #176 );
#104 = FACE_BOUND( '', #177, .T. );
#105 = FACE_OUTER_BOUND( '', #178, .T. );
#106 = CONICAL_SURFACE( '', #179, 42.0000000000000, 0.982793723247331 );
#107 = SURFACE_STYLE_USAGE( .BOTH., #180 );
#108 = FACE_OUTER_BOUND( '', #181, .T. );
#109 = FACE_OUTER_BOUND( '', #182, .T. );
#110 = CYLINDRICAL_SURFACE( '', #183, 37.5000000000000 );
#111 = SURFACE_STYLE_USAGE( .BOTH., #184 );
#112 = FACE_OUTER_BOUND( '', #185, .T. );
#113 = FACE_OUTER_BOUND( '', #186, .T. );
#114 = TOROIDAL_SURFACE( '', #187, 42.0000000000000, 2.00000000000000 );
#115 = SURFACE_STYLE_USAGE( .BOTH., #188 );
#116 = FACE_OUTER_BOUND( '', #189, .T. );
#117 = PLANE( '', #190 );
#118 = SURFACE_STYLE_USAGE( .BOTH., #191 );
#119 = FACE_OUTER_BOUND( '', #192, .T. );
#120 = PLANE( '', #193 );
#121 = SURFACE_STYLE_USAGE( .BOTH., #194 );
#122 = FACE_OUTER_BOUND( '', #195, .T. );
#123 = FACE_BOUND( '', #196, .T. );
#124 = PLANE( '', #197 );
#125 = SURFACE_STYLE_USAGE( .BOTH., #198 );
#126 = FACE_OUTER_BOUND( '', #199, .T. );
#127 = FACE_OUTER_BOUND( '', #200, .T. );
#128 = CYLINDRICAL_SURFACE( '', #201, 39.0000000000000 );
#129 = SURFACE_STYLE_USAGE( .BOTH., #202 );
#130 = FACE_OUTER_BOUND( '', #203, .T. );
#131 = FACE_OUTER_BOUND( '', #204, .T. );
#132 = CYLINDRICAL_SURFACE( '', #205, 39.0000000000000 );
#133 = SURFACE_STYLE_USAGE( .BOTH., #206 );
#134 = FACE_BOUND( '', #207, .T. );
#135 = FACE_OUTER_BOUND( '', #208, .T. );
#136 = CONICAL_SURFACE( '', #209, 42.0000000000000, 0.982793723247329 );
#137 = SURFACE_STYLE_USAGE( .BOTH., #210 );
#138 = FACE_OUTER_BOUND( '', #211, .T. );
#139 = FACE_OUTER_BOUND( '', #212, .T. );
#140 = CYLINDRICAL_SURFACE( '', #213, 39.0000000000000 );
#141 = SURFACE_STYLE_USAGE( .BOTH., #214 );
#142 = FACE_OUTER_BOUND( '', #215, .T. );
#143 = FACE_BOUND( '', #216, .T. );
#144 = PLANE( '', #217 );
#145 = SURFACE_STYLE_USAGE( .BOTH., #218 );
#146 = FACE_OUTER_BOUND( '', #219, .T. );
#147 = FACE_OUTER_BOUND( '', #220, .T. );
#148 = CYLINDRICAL_SURFACE( '', #221, 44.0000000000000 );
#149 = SURFACE_STYLE_USAGE( .BOTH., #222 );
#150 = FACE_BOUND( '', #223, .T. );
#151 = FACE_OUTER_BOUND( '', #224, .T. );
#152 = CONICAL_SURFACE( '', #225, 42.0000000000000, 0.982793723247329 );
#153 = SURFACE_STYLE_USAGE( .BOTH., #226 );
#154 = FACE_OUTER_BOUND( '', #227, .T. );
#155 = FACE_BOUND( '', #228, .T. );
#156 = PLANE( '', #229 );
#157 = PRODUCT_CONTEXT( '', #27, 'mechanical' );
#158 = PRODUCT_DEFINITION_FORMATION_WITH_SPECIFIED_SOURCE( ' ', 'NONE', #74, .NOT_KNOWN. );
#159 = CLOSED_SHELL( '', ( #59, #51, #63, #65, #41, #45, #49, #55, #73, #61, #67, #69, #53, #43, #71, #57, #47 ) );
#160 = CARTESIAN_POINT( '', ( 0.000000000000000, 0.000000000000000, 0.000000000000000 ) );
#161 = DIRECTION( '', ( 0.000000000000000, 0.000000000000000, 1.00000000000000 ) );
#162 = DIRECTION( '', ( 1.00000000000000, 0.000000000000000, 0.000000000000000 ) );
#163 =  ( LENGTH_UNIT(  )NAMED_UNIT( #83 )SI_UNIT( .MILLI., .METRE. ) );
#164 = SURFACE_SIDE_STYLE( '', ( #231 ) );
#165 = EDGE_LOOP( '', ( #232 ) );
#166 = EDGE_LOOP( '', ( #233 ) );
#167 = AXIS2_PLACEMENT_3D( '', #234, #235, #236 );
#168 = SURFACE_SIDE_STYLE( '', ( #237 ) );
#169 = EDGE_LOOP( '', ( #238 ) );
#170 = EDGE_LOOP( '', ( #239 ) );
#171 = AXIS2_PLACEMENT_3D( '', #240, #241, #242 );
#172 = SURFACE_SIDE_STYLE( '', ( #243 ) );
#173 = EDGE_LOOP( '', ( #244 ) );
#174 = EDGE_LOOP( '', ( #245 ) );
#175 = AXIS2_PLACEMENT_3D( '', #246, #247, #248 );
#176 = SURFACE_SIDE_STYLE( '', ( #249 ) );
#177 = EDGE_LOOP( '', ( #250 ) );
#178 = EDGE_LOOP( '', ( #251 ) );
#179 = AXIS2_PLACEMENT_3D( '', #252, #253, #254 );
#180 = SURFACE_SIDE_STYLE( '', ( #255 ) );
#181 = EDGE_LOOP( '', ( #256 ) );
#182 = EDGE_LOOP( '', ( #257 ) );
#183 = AXIS2_PLACEMENT_3D( '', #258, #259, #260 );
#184 = SURFACE_SIDE_STYLE( '', ( #261 ) );
#185 = EDGE_LOOP( '', ( #262 ) );
#186 = EDGE_LOOP( '', ( #263 ) );
#187 = AXIS2_PLACEMENT_3D( '', #264, #265, #266 );
#188 = SURFACE_SIDE_STYLE( '', ( #267 ) );
#189 = EDGE_LOOP( '', ( #268 ) );
#190 = AXIS2_PLACEMENT_3D( '', #269, #270, #271 );
#191 = SURFACE_SIDE_STYLE( '', ( #272 ) );
#192 = EDGE_LOOP( '', ( #273 ) );
#193 = AXIS2_PLACEMENT_3D( '', #274, #275, #276 );
#194 = SURFACE_SIDE_STYLE( '', ( #277 ) );
#195 = EDGE_LOOP( '', ( #278 ) );
#196 = EDGE_LOOP( '', ( #279 ) );
#197 = AXIS2_PLACEMENT_3D( '', #280, #281, #282 );
#198 = SURFACE_SIDE_STYLE( '', ( #283 ) );
#199 = EDGE_LOOP( '', ( #284 ) );
#200 = EDGE_LOOP( '', ( #285 ) );
#201 = AXIS2_PLACEMENT_3D( '', #286, #287, #288 );
#202 = SURFACE_SIDE_STYLE( '', ( #289 ) );
#203 = EDGE_LOOP( '', ( #290 ) );
#204 = EDGE_LOOP( '', ( #291 ) );
#205 = AXIS2_PLACEMENT_3D( '', #292, #293, #294 );
#206 = SURFACE_SIDE_STYLE( '', ( #295 ) );
#207 = EDGE_LOOP( '', ( #296 ) );
#208 = EDGE_LOOP( '', ( #297 ) );
#209 = AXIS2_PLACEMENT_3D( '', #298, #299, #300 );
#210 = SURFACE_SIDE_STYLE( '', ( #301 ) );
#211 = EDGE_LOOP( '', ( #302 ) );
#212 = EDGE_LOOP( '', ( #303 ) );
#213 = AXIS2_PLACEMENT_3D( '', #304, #305, #306 );
#214 = SURFACE_SIDE_STYLE( '', ( #307 ) );
#215 = EDGE_LOOP( '', ( #308 ) );
#216 = EDGE_LOOP( '', ( #309 ) );
#217 = AXIS2_PLACEMENT_3D( '', #310, #311, #312 );
#218 = SURFACE_SIDE_STYLE( '', ( #313 ) );
#219 = EDGE_LOOP( '', ( #314 ) );
#220 = EDGE_LOOP( '', ( #315 ) );
#221 = AXIS2_PLACEMENT_3D( '', #316, #317, #318 );
#222 = SURFACE_SIDE_STYLE( '', ( #319 ) );
#223 = EDGE_LOOP( '', ( #320 ) );
#224 = EDGE_LOOP( '', ( #321 ) );
#225 = AXIS2_PLACEMENT_3D( '', #322, #323, #324 );
#226 = SURFACE_SIDE_STYLE( '', ( #325 ) );
#227 = EDGE_LOOP( '', ( #326 ) );
#228 = EDGE_LOOP( '', ( #327 ) );
#229 = AXIS2_PLACEMENT_3D( '', #328, #329, #330 );
#231 = SURFACE_STYLE_FILL_AREA( #331 );
#232 = ORIENTED_EDGE( '', *, *, #332, .F. );
#233 = ORIENTED_EDGE( '', *, *, #333, .T. );
#234 = CARTESIAN_POINT( '', ( 37.5000000000000, 0.000000000000000, -2.71050543121377E-017 ) );
#235 = DIRECTION( '', ( -3.61400724161835E-017, 0.000000000000000, 1.00000000000000 ) );
#236 = DIRECTION( '', ( 1.00000000000000, 0.000000000000000, 3.61400724161835E-017 ) );
#237 = SURFACE_STYLE_FILL_AREA( #334 );
#238 = ORIENTED_EDGE( '', *, *, #335, .T. );
#239 = ORIENTED_EDGE( '', *, *, #336, .F. );
#240 = CARTESIAN_POINT( '', ( 39.0000000000000, 0.000000000000000, 18.0000000000000 ) );
#241 = DIRECTION( '', ( 0.000000000000000, 0.000000000000000, 1.00000000000000 ) );
#242 = DIRECTION( '', ( 1.00000000000000, 0.000000000000000, 0.000000000000000 ) );
#243 = SURFACE_STYLE_FILL_AREA( #337 );
#244 = ORIENTED_EDGE( '', *, *, #336, .T. );
#245 = ORIENTED_EDGE( '', *, *, #338, .F. );
#246 = CARTESIAN_POINT( '', ( -5.42101086242752E-017, 0.000000000000000, 16.4000000000000 ) );
#247 = DIRECTION( '', ( 3.61400724161835E-017, -0.000000000000000, -1.00000000000000 ) );
#248 = DIRECTION( '', ( 1.00000000000000, 0.000000000000000, 3.61400724161835E-017 ) );
#249 = SURFACE_STYLE_FILL_AREA( #339 );
#250 = ORIENTED_EDGE( '', *, *, #340, .T. );
#251 = ORIENTED_EDGE( '', *, *, #341, .F. );
#252 = CARTESIAN_POINT( '', ( 0.000000000000000, 0.000000000000000, 12.0000000000000 ) );
#253 = DIRECTION( '', ( -0.000000000000000, -0.000000000000000, 1.00000000000000 ) );
#254 = DIRECTION( '', ( 1.00000000000000, 0.000000000000000, 0.000000000000000 ) );
#255 = SURFACE_STYLE_FILL_AREA( #342 );
#256 = ORIENTED_EDGE( '', *, *, #333, .F. );
#257 = ORIENTED_EDGE( '', *, *, #343, .T. );
#258 = CARTESIAN_POINT( '', ( -5.42101086242752E-017, 0.000000000000000, 16.4000000000000 ) );
#259 = DIRECTION( '', ( 3.61400724161835E-017, -0.000000000000000, -1.00000000000000 ) );
#260 = DIRECTION( '', ( 1.00000000000000, 0.000000000000000, 3.61400724161835E-017 ) );
#261 = SURFACE_STYLE_FILL_AREA( #344 );
#262 = ORIENTED_EDGE( '', *, *, #345, .F. );
#263 = ORIENTED_EDGE( '', *, *, #346, .F. );
#264 = CARTESIAN_POINT( '', ( -3.46944695195362E-016, 0.000000000000000, 24.5000000000000 ) );
#265 = DIRECTION( '', ( 3.61400724161835E-017, 0.000000000000000, -1.00000000000000 ) );
#266 = DIRECTION( '', ( -1.00000000000000, 0.000000000000000, -3.61400724161835E-017 ) );
#267 = SURFACE_STYLE_FILL_AREA( #347 );
#268 = ORIENTED_EDGE( '', *, *, #346, .T. );
#269 = CARTESIAN_POINT( '', ( 44.0000000000000, 0.000000000000000, 26.5000000000000 ) );
#270 = DIRECTION( '', ( 3.61400724161835E-017, 0.000000000000000, -1.00000000000000 ) );
#271 = DIRECTION( '', ( -1.00000000000000, 0.000000000000000, -3.61400724161835E-017 ) );
#272 = SURFACE_STYLE_FILL_AREA( #348 );
#273 = ORIENTED_EDGE( '', *, *, #343, .F. );
#274 = CARTESIAN_POINT( '', ( 37.5000000000000, 0.000000000000000, 23.5000000000000 ) );
#275 = DIRECTION( '', ( -3.61400724161835E-017, 0.000000000000000, 1.00000000000000 ) );
#276 = DIRECTION( '', ( 1.00000000000000, 0.000000000000000, 3.61400724161835E-017 ) );
#277 = SURFACE_STYLE_FILL_AREA( #349 );
#278 = ORIENTED_EDGE( '', *, *, #341, .T. );
#279 = ORIENTED_EDGE( '', *, *, #350, .F. );
#280 = CARTESIAN_POINT( '', ( 39.0000000000000, 0.000000000000000, 12.0000000000000 ) );
#281 = DIRECTION( '', ( 0.000000000000000, 0.000000000000000, 1.00000000000000 ) );
#282 = DIRECTION( '', ( 1.00000000000000, 0.000000000000000, 0.000000000000000 ) );
#283 = SURFACE_STYLE_FILL_AREA( #351 );
#284 = ORIENTED_EDGE( '', *, *, #352, .T. );
#285 = ORIENTED_EDGE( '', *, *, #340, .F. );
#286 = CARTESIAN_POINT( '', ( -5.42101086242752E-017, 0.000000000000000, 16.4000000000000 ) );
#287 = DIRECTION( '', ( 3.61400724161835E-017, -0.000000000000000, -1.00000000000000 ) );
#288 = DIRECTION( '', ( 1.00000000000000, 0.000000000000000, 3.61400724161835E-017 ) );
#289 = SURFACE_STYLE_FILL_AREA( #353 );
#290 = ORIENTED_EDGE( '', *, *, #350, .T. );
#291 = ORIENTED_EDGE( '', *, *, #354, .F. );
#292 = CARTESIAN_POINT( '', ( -5.42101086242752E-017, 0.000000000000000, 16.4000000000000 ) );
#293 = DIRECTION( '', ( 3.61400724161835E-017, -0.000000000000000, -1.00000000000000 ) );
#294 = DIRECTION( '', ( 1.00000000000000, 0.000000000000000, 3.61400724161835E-017 ) );
#295 = SURFACE_STYLE_FILL_AREA( #355 );
#296 = ORIENTED_EDGE( '', *, *, #356, .T. );
#297 = ORIENTED_EDGE( '', *, *, #357, .F. );
#298 = CARTESIAN_POINT( '', ( 0.000000000000000, 0.000000000000000, 6.00000000000000 ) );
#299 = DIRECTION( '', ( -0.000000000000000, -0.000000000000000, 1.00000000000000 ) );
#300 = DIRECTION( '', ( 1.00000000000000, 0.000000000000000, 0.000000000000000 ) );
#301 = SURFACE_STYLE_FILL_AREA( #358 );
#302 = ORIENTED_EDGE( '', *, *, #356, .F. );
#303 = ORIENTED_EDGE( '', *, *, #332, .T. );
#304 = CARTESIAN_POINT( '', ( -5.42101086242752E-017, 0.000000000000000, 16.4000000000000 ) );
#305 = DIRECTION( '', ( 3.61400724161835E-017, -0.000000000000000, -1.00000000000000 ) );
#306 = DIRECTION( '', ( 1.00000000000000, 0.000000000000000, 3.61400724161835E-017 ) );
#307 = SURFACE_STYLE_FILL_AREA( #359 );
#308 = ORIENTED_EDGE( '', *, *, #360, .F. );
#309 = ORIENTED_EDGE( '', *, *, #338, .T. );
#310 = CARTESIAN_POINT( '', ( 39.0000000000000, 0.000000000000000, 21.5000000000000 ) );
#311 = DIRECTION( '', ( -3.61400724161835E-017, 0.000000000000000, 1.00000000000000 ) );
#312 = DIRECTION( '', ( 1.00000000000000, 0.000000000000000, 3.61400724161835E-017 ) );
#313 = SURFACE_STYLE_FILL_AREA( #361 );
#314 = ORIENTED_EDGE( '', *, *, #345, .T. );
#315 = ORIENTED_EDGE( '', *, *, #360, .T. );
#316 = CARTESIAN_POINT( '', ( -5.42101086242752E-017, 0.000000000000000, 16.4000000000000 ) );
#317 = DIRECTION( '', ( 3.61400724161835E-017, -0.000000000000000, -1.00000000000000 ) );
#318 = DIRECTION( '', ( 1.00000000000000, 0.000000000000000, 3.61400724161835E-017 ) );
#319 = SURFACE_STYLE_FILL_AREA( #362 );
#320 = ORIENTED_EDGE( '', *, *, #354, .T. );
#321 = ORIENTED_EDGE( '', *, *, #335, .F. );
#322 = CARTESIAN_POINT( '', ( 0.000000000000000, 0.000000000000000, 18.0000000000000 ) );
#323 = DIRECTION( '', ( -0.000000000000000, -0.000000000000000, 1.00000000000000 ) );
#324 = DIRECTION( '', ( 1.00000000000000, 0.000000000000000, 0.000000000000000 ) );
#325 = SURFACE_STYLE_FILL_AREA( #363 );
#326 = ORIENTED_EDGE( '', *, *, #357, .T. );
#327 = ORIENTED_EDGE( '', *, *, #352, .F. );
#328 = CARTESIAN_POINT( '', ( 39.0000000000000, 0.000000000000000, 6.00000000000000 ) );
#329 = DIRECTION( '', ( 0.000000000000000, 0.000000000000000, 1.00000000000000 ) );
#330 = DIRECTION( '', ( 1.00000000000000, 0.000000000000000, 0.000000000000000 ) );
#331 = FILL_AREA_STYLE( '', ( #364 ) );
#332 = EDGE_CURVE( '', #365, #365, #366, .T. );
#333 = EDGE_CURVE( '', #367, #367, #368, .T. );
#334 = FILL_AREA_STYLE( '', ( #369 ) );
#335 = EDGE_CURVE( '', #370, #370, #371, .T. );
#336 = EDGE_CURVE( '', #372, #372, #373, .T. );
#337 = FILL_AREA_STYLE( '', ( #374 ) );
#338 = EDGE_CURVE( '', #375, #375, #376, .T. );
#339 = FILL_AREA_STYLE( '', ( #377 ) );
#340 = EDGE_CURVE( '', #378, #378, #379, .T. );
#341 = EDGE_CURVE( '', #380, #380, #381, .T. );
#342 = FILL_AREA_STYLE( '', ( #382 ) );
#343 = EDGE_CURVE( '', #383, #383, #384, .T. );
#344 = FILL_AREA_STYLE( '', ( #385 ) );
#345 = EDGE_CURVE( '', #386, #386, #387, .T. );
#346 = EDGE_CURVE( '', #388, #388, #389, .F. );
#347 = FILL_AREA_STYLE( '', ( #390 ) );
#348 = FILL_AREA_STYLE( '', ( #391 ) );
#349 = FILL_AREA_STYLE( '', ( #392 ) );
#350 = EDGE_CURVE( '', #393, #393, #394, .T. );
#351 = FILL_AREA_STYLE( '', ( #395 ) );
#352 = EDGE_CURVE( '', #396, #396, #397, .T. );
#353 = FILL_AREA_STYLE( '', ( #398 ) );
#354 = EDGE_CURVE( '', #399, #399, #400, .T. );
#355 = FILL_AREA_STYLE( '', ( #401 ) );
#356 = EDGE_CURVE( '', #402, #402, #403, .T. );
#357 = EDGE_CURVE( '', #404, #404, #405, .T. );
#358 = FILL_AREA_STYLE( '', ( #406 ) );
#359 = FILL_AREA_STYLE( '', ( #407 ) );
#360 = EDGE_CURVE( '', #408, #408, #409, .T. );
#361 = FILL_AREA_STYLE( '', ( #410 ) );
#362 = FILL_AREA_STYLE( '', ( #411 ) );
#363 = FILL_AREA_STYLE( '', ( #412 ) );
#364 = FILL_AREA_STYLE_COLOUR( '', #413 );
#365 = VERTEX_POINT( '', #414 );
#366 = CIRCLE( '', #415, 39.0000000000000 );
#367 = VERTEX_POINT( '', #416 );
#368 = CIRCLE( '', #417, 37.5000000000000 );
#369 = FILL_AREA_STYLE_COLOUR( '', #418 );
#370 = VERTEX_POINT( '', #419 );
#371 = CIRCLE( '', #420, 42.0000000000000 );
#372 = VERTEX_POINT( '', #421 );
#373 = CIRCLE( '', #422, 39.0000000000000 );
#374 = FILL_AREA_STYLE_COLOUR( '', #423 );
#375 = VERTEX_POINT( '', #424 );
#376 = CIRCLE( '', #425, 39.0000000000000 );
#377 = FILL_AREA_STYLE_COLOUR( '', #426 );
#378 = VERTEX_POINT( '', #427 );
#379 = CIRCLE( '', #428, 39.0000000000000 );
#380 = VERTEX_POINT( '', #429 );
#381 = CIRCLE( '', #430, 42.0000000000000 );
#382 = FILL_AREA_STYLE_COLOUR( '', #431 );
#383 = VERTEX_POINT( '', #432 );
#384 = CIRCLE( '', #433, 37.5000000000000 );
#385 = FILL_AREA_STYLE_COLOUR( '', #434 );
#386 = VERTEX_POINT( '', #435 );
#387 = CIRCLE( '', #436, 44.0000000000000 );
#388 = VERTEX_POINT( '', #437 );
#389 = CIRCLE( '', #438, 42.0000000000000 );
#390 = FILL_AREA_STYLE_COLOUR( '', #439 );
#391 = FILL_AREA_STYLE_COLOUR( '', #440 );
#392 = FILL_AREA_STYLE_COLOUR( '', #441 );
#393 = VERTEX_POINT( '', #442 );
#394 = CIRCLE( '', #443, 39.0000000000000 );
#395 = FILL_AREA_STYLE_COLOUR( '', #444 );
#396 = VERTEX_POINT( '', #445 );
#397 = CIRCLE( '', #446, 39.0000000000000 );
#398 = FILL_AREA_STYLE_COLOUR( '', #447 );
#399 = VERTEX_POINT( '', #448 );
#400 = CIRCLE( '', #449, 39.0000000000000 );
#401 = FILL_AREA_STYLE_COLOUR( '', #450 );
#402 = VERTEX_POINT( '', #451 );
#403 = CIRCLE( '', #452, 39.0000000000000 );
#404 = VERTEX_POINT( '', #453 );
#405 = CIRCLE( '', #454, 42.0000000000000 );
#406 = FILL_AREA_STYLE_COLOUR( '', #455 );
#407 = FILL_AREA_STYLE_COLOUR( '', #456 );
#408 = VERTEX_POINT( '', #457 );
#409 = CIRCLE( '', #458, 44.0000000000000 );
#410 = FILL_AREA_STYLE_COLOUR( '', #459 );
#411 = FILL_AREA_STYLE_COLOUR( '', #460 );
#412 = FILL_AREA_STYLE_COLOUR( '', #461 );
#413 = COLOUR_RGB( '', 0.200000002980232, 0.200000002980232, 0.200000002980232 );
#414 = CARTESIAN_POINT( '', ( 39.0000000000000, 0.000000000000000, 1.40946282423116E-015 ) );
#415 = AXIS2_PLACEMENT_3D( '', #462, #463, #464 );
#416 = CARTESIAN_POINT( '', ( 37.5000000000000, 0.000000000000000, 1.35525271560688E-015 ) );
#417 = AXIS2_PLACEMENT_3D( '', #465, #466, #467 );
#418 = COLOUR_RGB( '', 0.200000002980232, 0.200000002980232, 0.200000002980232 );
#419 = CARTESIAN_POINT( '', ( 42.0000000000000, 0.000000000000000, 18.0000000000000 ) );
#420 = AXIS2_PLACEMENT_3D( '', #468, #469, #470 );
#421 = CARTESIAN_POINT( '', ( 39.0000000000000, 0.000000000000000, 18.0000000000000 ) );
#422 = AXIS2_PLACEMENT_3D( '', #471, #472, #473 );
#423 = COLOUR_RGB( '', 0.200000002980232, 0.200000002980232, 0.200000002980232 );
#424 = CARTESIAN_POINT( '', ( 39.0000000000000, 0.000000000000000, 21.5000000000000 ) );
#425 = AXIS2_PLACEMENT_3D( '', #474, #475, #476 );
#426 = COLOUR_RGB( '', 0.200000002980232, 0.200000002980232, 0.200000002980232 );
#427 = CARTESIAN_POINT( '', ( 39.0000000000000, 0.000000000000000, 10.0000000000000 ) );
#428 = AXIS2_PLACEMENT_3D( '', #477, #478, #479 );
#429 = CARTESIAN_POINT( '', ( 42.0000000000000, 0.000000000000000, 12.0000000000000 ) );
#430 = AXIS2_PLACEMENT_3D( '', #480, #481, #482 );
#431 = COLOUR_RGB( '', 0.200000002980232, 0.200000002980232, 0.200000002980232 );
#432 = CARTESIAN_POINT( '', ( 37.5000000000000, 0.000000000000000, 23.5000000000000 ) );
#433 = AXIS2_PLACEMENT_3D( '', #483, #484, #485 );
#434 = COLOUR_RGB( '', 0.200000002980232, 0.200000002980232, 0.200000002980232 );
#435 = CARTESIAN_POINT( '', ( -44.0000000000000, 0.000000000000000, 24.5000000000000 ) );
#436 = AXIS2_PLACEMENT_3D( '', #486, #487, #488 );
#437 = CARTESIAN_POINT( '', ( -42.0000000000000, 0.000000000000000, 26.5000000000000 ) );
#438 = AXIS2_PLACEMENT_3D( '', #489, #490, #491 );
#439 = COLOUR_RGB( '', 0.200000002980232, 0.200000002980232, 0.200000002980232 );
#440 = COLOUR_RGB( '', 0.200000002980232, 0.200000002980232, 0.200000002980232 );
#441 = COLOUR_RGB( '', 0.200000002980232, 0.200000002980232, 0.200000002980232 );
#442 = CARTESIAN_POINT( '', ( 39.0000000000000, 0.000000000000000, 12.0000000000000 ) );
#443 = AXIS2_PLACEMENT_3D( '', #492, #493, #494 );
#444 = COLOUR_RGB( '', 0.200000002980232, 0.200000002980232, 0.200000002980232 );
#445 = CARTESIAN_POINT( '', ( 39.0000000000000, 0.000000000000000, 6.00000000000000 ) );
#446 = AXIS2_PLACEMENT_3D( '', #495, #496, #497 );
#447 = COLOUR_RGB( '', 0.200000002980232, 0.200000002980232, 0.200000002980232 );
#448 = CARTESIAN_POINT( '', ( 39.0000000000000, 0.000000000000000, 16.0000000000000 ) );
#449 = AXIS2_PLACEMENT_3D( '', #498, #499, #500 );
#450 = COLOUR_RGB( '', 0.200000002980232, 0.200000002980232, 0.200000002980232 );
#451 = CARTESIAN_POINT( '', ( 39.0000000000000, 0.000000000000000, 4.00000000000000 ) );
#452 = AXIS2_PLACEMENT_3D( '', #501, #502, #503 );
#453 = CARTESIAN_POINT( '', ( 42.0000000000000, 0.000000000000000, 6.00000000000000 ) );
#454 = AXIS2_PLACEMENT_3D( '', #504, #505, #506 );
#455 = COLOUR_RGB( '', 0.200000002980232, 0.200000002980232, 0.200000002980232 );
#456 = COLOUR_RGB( '', 0.200000002980232, 0.200000002980232, 0.200000002980232 );
#457 = CARTESIAN_POINT( '', ( 44.0000000000000, 0.000000000000000, 21.5000000000000 ) );
#458 = AXIS2_PLACEMENT_3D( '', #507, #508, #509 );
#459 = COLOUR_RGB( '', 0.200000002980232, 0.200000002980232, 0.200000002980232 );
#460 = COLOUR_RGB( '', 0.200000002980232, 0.200000002980232, 0.200000002980232 );
#461 = COLOUR_RGB( '', 0.200000002980232, 0.200000002980232, 0.200000002980232 );
#462 = CARTESIAN_POINT( '', ( 5.38487079001134E-016, 0.000000000000000, 0.000000000000000 ) );
#463 = DIRECTION( '', ( -3.61400724161835E-017, 0.000000000000000, 1.00000000000000 ) );
#464 = DIRECTION( '', ( 1.00000000000000, 0.000000000000000, 3.61400724161835E-017 ) );
#465 = CARTESIAN_POINT( '', ( 5.38487079001134E-016, 0.000000000000000, 0.000000000000000 ) );
#466 = DIRECTION( '', ( -3.61400724161835E-017, 0.000000000000000, 1.00000000000000 ) );
#467 = DIRECTION( '', ( 1.00000000000000, 0.000000000000000, 3.61400724161835E-017 ) );
#468 = CARTESIAN_POINT( '', ( 0.000000000000000, 0.000000000000000, 18.0000000000000 ) );
#469 = DIRECTION( '', ( 0.000000000000000, 0.000000000000000, 1.00000000000000 ) );
#470 = DIRECTION( '', ( 1.00000000000000, 0.000000000000000, 0.000000000000000 ) );
#471 = CARTESIAN_POINT( '', ( 0.000000000000000, 0.000000000000000, 18.0000000000000 ) );
#472 = DIRECTION( '', ( 0.000000000000000, 0.000000000000000, 1.00000000000000 ) );
#473 = DIRECTION( '', ( 1.00000000000000, 0.000000000000000, 0.000000000000000 ) );
#474 = CARTESIAN_POINT( '', ( -2.38524477946811E-016, 0.000000000000000, 21.5000000000000 ) );
#475 = DIRECTION( '', ( -3.61400724161835E-017, 0.000000000000000, 1.00000000000000 ) );
#476 = DIRECTION( '', ( 1.00000000000000, 0.000000000000000, 3.61400724161835E-017 ) );
#477 = CARTESIAN_POINT( '', ( 0.000000000000000, 0.000000000000000, 10.0000000000000 ) );
#478 = DIRECTION( '', ( 0.000000000000000, 0.000000000000000, 1.00000000000000 ) );
#479 = DIRECTION( '', ( 1.00000000000000, 0.000000000000000, 0.000000000000000 ) );
#480 = CARTESIAN_POINT( '', ( 0.000000000000000, 0.000000000000000, 12.0000000000000 ) );
#481 = DIRECTION( '', ( 0.000000000000000, 0.000000000000000, 1.00000000000000 ) );
#482 = DIRECTION( '', ( 1.00000000000000, 0.000000000000000, 0.000000000000000 ) );
#483 = CARTESIAN_POINT( '', ( -3.10804622779178E-016, 0.000000000000000, 23.5000000000000 ) );
#484 = DIRECTION( '', ( -3.61400724161835E-017, 0.000000000000000, 1.00000000000000 ) );
#485 = DIRECTION( '', ( 1.00000000000000, 0.000000000000000, 3.61400724161835E-017 ) );
#486 = CARTESIAN_POINT( '', ( -3.46944695195362E-016, 0.000000000000000, 24.5000000000000 ) );
#487 = DIRECTION( '', ( 3.61400724161835E-017, 0.000000000000000, -1.00000000000000 ) );
#488 = DIRECTION( '', ( -1.00000000000000, 0.000000000000000, -3.61400724161835E-017 ) );
#489 = CARTESIAN_POINT( '', ( -4.19224840027728E-016, 0.000000000000000, 26.5000000000000 ) );
#490 = DIRECTION( '', ( 3.61400724161835E-017, 0.000000000000000, -1.00000000000000 ) );
#491 = DIRECTION( '', ( -1.00000000000000, 0.000000000000000, -3.61400724161835E-017 ) );
#492 = CARTESIAN_POINT( '', ( 0.000000000000000, 0.000000000000000, 12.0000000000000 ) );
#493 = DIRECTION( '', ( 0.000000000000000, 0.000000000000000, 1.00000000000000 ) );
#494 = DIRECTION( '', ( 1.00000000000000, 0.000000000000000, 0.000000000000000 ) );
#495 = CARTESIAN_POINT( '', ( 0.000000000000000, 0.000000000000000, 6.00000000000000 ) );
#496 = DIRECTION( '', ( 0.000000000000000, 0.000000000000000, 1.00000000000000 ) );
#497 = DIRECTION( '', ( 1.00000000000000, 0.000000000000000, 0.000000000000000 ) );
#498 = CARTESIAN_POINT( '', ( 0.000000000000000, 0.000000000000000, 16.0000000000000 ) );
#499 = DIRECTION( '', ( 0.000000000000000, 0.000000000000000, 1.00000000000000 ) );
#500 = DIRECTION( '', ( 1.00000000000000, 0.000000000000000, 0.000000000000000 ) );
#501 = CARTESIAN_POINT( '', ( 0.000000000000000, 0.000000000000000, 4.00000000000000 ) );
#502 = DIRECTION( '', ( 0.000000000000000, 0.000000000000000, 1.00000000000000 ) );
#503 = DIRECTION( '', ( 1.00000000000000, 0.000000000000000, 0.000000000000000 ) );
#504 = CARTESIAN_POINT( '', ( 0.000000000000000, 0.000000000000000, 6.00000000000000 ) );
#505 = DIRECTION( '', ( 0.000000000000000, 0.000000000000000, 1.00000000000000 ) );
#506 = DIRECTION( '', ( 1.00000000000000, 0.000000000000000, 0.000000000000000 ) );
#507 = CARTESIAN_POINT( '', ( -2.38524477946811E-016, 0.000000000000000, 21.5000000000000 ) );
#508 = DIRECTION( '', ( -3.61400724161835E-017, 0.000000000000000, 1.00000000000000 ) );
#509 = DIRECTION( '', ( 1.00000000000000, 0.000000000000000, 3.61400724161835E-017 ) );
ENDSEC;
END-ISO-10303-21;
