ISO-10303-21;
HEADER;
FILE_DESCRIPTION( ( 'Unknown' ), '1' );
FILE_NAME( '//SBS2003/HD_Usb/Disegni/08_LIB/Users_3D/PROD_GAMM_3D/TT/7371378.stp', 'Unknown', ( 'Unknown' ), ( 'Unknown' ), 'PSStep 14.0', 'Unknown', '  ' );
FILE_SCHEMA( ( 'AUTOMOTIVE_DESIGN { 1 0 10303 214 1 1 1 1 }' ) );
ENDSEC;
DATA;
#1 = MECHANICAL_DESIGN_GEOMETRIC_PRESENTATION_REPRESENTATION( ' ', ( #10, #11, #12, #13, #14, #15, #16, #17, #18, #19, #20, #21, #22, #23, #24, #25, #26 ), #6 );
#2 = PRODUCT_DEFINITION_CONTEXT( '', #27, 'design' );
#3 = APPLICATION_PROTOCOL_DEFINITION( 'international standard', 'automotive_design', 2001, #27 );
#4 = PRODUCT_CATEGORY_RELATIONSHIP( 'NONE', 'NONE', #28, #29 );
#5 = SHAPE_DEFINITION_REPRESENTATION( #30, #31 );
#6 =  ( GEOMETRIC_REPRESENTATION_CONTEXT( 3 )GLOBAL_UNCERTAINTY_ASSIGNED_CONTEXT( ( #34 ) )GLOBAL_UNIT_ASSIGNED_CONTEXT( ( #36, #37, #38 ) )REPRESENTATION_CONTEXT( 'NONE', 'WORKSPACE' ) );
#10 = STYLED_ITEM( '', ( #40 ), #41 );
#11 = STYLED_ITEM( '', ( #42 ), #43 );
#12 = STYLED_ITEM( '', ( #44 ), #45 );
#13 = STYLED_ITEM( '', ( #46 ), #47 );
#14 = STYLED_ITEM( '', ( #48 ), #49 );
#15 = STYLED_ITEM( '', ( #50 ), #51 );
#16 = STYLED_ITEM( '', ( #52 ), #53 );
#17 = STYLED_ITEM( '', ( #54 ), #55 );
#18 = STYLED_ITEM( '', ( #56 ), #57 );
#19 = STYLED_ITEM( '', ( #58 ), #59 );
#20 = STYLED_ITEM( '', ( #60 ), #61 );
#21 = STYLED_ITEM( '', ( #62 ), #63 );
#22 = STYLED_ITEM( '', ( #64 ), #65 );
#23 = STYLED_ITEM( '', ( #66 ), #67 );
#24 = STYLED_ITEM( '', ( #68 ), #69 );
#25 = STYLED_ITEM( '', ( #70 ), #71 );
#26 = STYLED_ITEM( '', ( #72 ), #73 );
#27 = APPLICATION_CONTEXT( 'core data for automotive mechanical design processes' );
#28 = PRODUCT_CATEGORY( 'part', 'NONE' );
#29 = PRODUCT_RELATED_PRODUCT_CATEGORY( 'detail', ' ', ( #74 ) );
#30 = PRODUCT_DEFINITION_SHAPE( 'NONE', 'NONE', #75 );
#31 = ADVANCED_BREP_SHAPE_REPRESENTATION( '1', ( #76, #77 ), #6 );
#34 = UNCERTAINTY_MEASURE_WITH_UNIT( LENGTH_MEASURE( 0.00100000000000000 ), #36, '', '' );
#36 =  ( CONVERSION_BASED_UNIT( 'MILLIMETRE', #80 )LENGTH_UNIT(  )NAMED_UNIT( #83 ) );
#37 =  ( NAMED_UNIT( #85 )PLANE_ANGLE_UNIT(  )SI_UNIT( $, .RADIAN. ) );
#38 =  ( NAMED_UNIT( #85 )SI_UNIT( $, .STERADIAN. )SOLID_ANGLE_UNIT(  ) );
#40 = PRESENTATION_STYLE_ASSIGNMENT( ( #91 ) );
#41 = ADVANCED_FACE( '', ( #92, #93 ), #94, .F. );
#42 = PRESENTATION_STYLE_ASSIGNMENT( ( #95 ) );
#43 = ADVANCED_FACE( '', ( #96 ), #97, .F. );
#44 = PRESENTATION_STYLE_ASSIGNMENT( ( #98 ) );
#45 = ADVANCED_FACE( '', ( #99, #100 ), #101, .T. );
#46 = PRESENTATION_STYLE_ASSIGNMENT( ( #102 ) );
#47 = ADVANCED_FACE( '', ( #103 ), #104, .F. );
#48 = PRESENTATION_STYLE_ASSIGNMENT( ( #105 ) );
#49 = ADVANCED_FACE( '', ( #106, #107 ), #108, .T. );
#50 = PRESENTATION_STYLE_ASSIGNMENT( ( #109 ) );
#51 = ADVANCED_FACE( '', ( #110, #111 ), #112, .T. );
#52 = PRESENTATION_STYLE_ASSIGNMENT( ( #113 ) );
#53 = ADVANCED_FACE( '', ( #114, #115 ), #116, .T. );
#54 = PRESENTATION_STYLE_ASSIGNMENT( ( #117 ) );
#55 = ADVANCED_FACE( '', ( #118, #119 ), #120, .T. );
#56 = PRESENTATION_STYLE_ASSIGNMENT( ( #121 ) );
#57 = ADVANCED_FACE( '', ( #122, #123 ), #124, .T. );
#58 = PRESENTATION_STYLE_ASSIGNMENT( ( #125 ) );
#59 = ADVANCED_FACE( '', ( #126, #127 ), #128, .T. );
#60 = PRESENTATION_STYLE_ASSIGNMENT( ( #129 ) );
#61 = ADVANCED_FACE( '', ( #130, #131 ), #132, .F. );
#62 = PRESENTATION_STYLE_ASSIGNMENT( ( #133 ) );
#63 = ADVANCED_FACE( '', ( #134, #135 ), #136, .T. );
#64 = PRESENTATION_STYLE_ASSIGNMENT( ( #137 ) );
#65 = ADVANCED_FACE( '', ( #138, #139 ), #140, .T. );
#66 = PRESENTATION_STYLE_ASSIGNMENT( ( #141 ) );
#67 = ADVANCED_FACE( '', ( #142, #143 ), #144, .T. );
#68 = PRESENTATION_STYLE_ASSIGNMENT( ( #145 ) );
#69 = ADVANCED_FACE( '', ( #146, #147 ), #148, .F. );
#70 = PRESENTATION_STYLE_ASSIGNMENT( ( #149 ) );
#71 = ADVANCED_FACE( '', ( #150, #151 ), #152, .T. );
#72 = PRESENTATION_STYLE_ASSIGNMENT( ( #153 ) );
#73 = ADVANCED_FACE( '', ( #154, #155 ), #156, .T. );
#74 = PRODUCT( '1', '1', 'PART-1-DESC', ( #157 ) );
#75 = PRODUCT_DEFINITION( 'NONE', 'NONE', #158, #2 );
#76 = MANIFOLD_SOLID_BREP( '1', #159 );
#77 = AXIS2_PLACEMENT_3D( '', #160, #161, #162 );
#80 = LENGTH_MEASURE_WITH_UNIT( LENGTH_MEASURE( 1.00000000000000 ), #163 );
#83 = DIMENSIONAL_EXPONENTS( 1.00000000000000, 0.000000000000000, 0.000000000000000, 0.000000000000000, 0.000000000000000, 0.000000000000000, 0.000000000000000 );
#85 = DIMENSIONAL_EXPONENTS( 0.000000000000000, 0.000000000000000, 0.000000000000000, 0.000000000000000, 0.000000000000000, 0.000000000000000, 0.000000000000000 );
#91 = SURFACE_STYLE_USAGE( .BOTH., #164 );
#92 = FACE_OUTER_BOUND( '', #165, .T. );
#93 = FACE_BOUND( '', #166, .T. );
#94 = PLANE( '', #167 );
#95 = SURFACE_STYLE_USAGE( .BOTH., #168 );
#96 = FACE_OUTER_BOUND( '', #169, .T. );
#97 = PLANE( '', #170 );
#98 = SURFACE_STYLE_USAGE( .BOTH., #171 );
#99 = FACE_OUTER_BOUND( '', #172, .T. );
#100 = FACE_OUTER_BOUND( '', #173, .T. );
#101 = TOROIDAL_SURFACE( '', #174, 81.5000000000000, 2.50000000000000 );
#102 = SURFACE_STYLE_USAGE( .BOTH., #175 );
#103 = FACE_OUTER_BOUND( '', #176, .T. );
#104 = PLANE( '', #177 );
#105 = SURFACE_STYLE_USAGE( .BOTH., #178 );
#106 = FACE_BOUND( '', #179, .T. );
#107 = FACE_OUTER_BOUND( '', #180, .T. );
#108 = CONICAL_SURFACE( '', #181, 82.0000000000000, 0.982793723247329 );
#109 = SURFACE_STYLE_USAGE( .BOTH., #182 );
#110 = FACE_OUTER_BOUND( '', #183, .T. );
#111 = FACE_OUTER_BOUND( '', #184, .T. );
#112 = CYLINDRICAL_SURFACE( '', #185, 79.0000000000000 );
#113 = SURFACE_STYLE_USAGE( .BOTH., #186 );
#114 = FACE_OUTER_BOUND( '', #187, .T. );
#115 = FACE_BOUND( '', #188, .T. );
#116 = PLANE( '', #189 );
#117 = SURFACE_STYLE_USAGE( .BOTH., #190 );
#118 = FACE_OUTER_BOUND( '', #191, .T. );
#119 = FACE_OUTER_BOUND( '', #192, .T. );
#120 = CYLINDRICAL_SURFACE( '', #193, 79.0000000000000 );
#121 = SURFACE_STYLE_USAGE( .BOTH., #194 );
#122 = FACE_OUTER_BOUND( '', #195, .T. );
#123 = FACE_BOUND( '', #196, .T. );
#124 = PLANE( '', #197 );
#125 = SURFACE_STYLE_USAGE( .BOTH., #198 );
#126 = FACE_BOUND( '', #199, .T. );
#127 = FACE_OUTER_BOUND( '', #200, .T. );
#128 = CONICAL_SURFACE( '', #201, 82.0000000000000, 0.982793723247327 );
#129 = SURFACE_STYLE_USAGE( .BOTH., #202 );
#130 = FACE_OUTER_BOUND( '', #203, .T. );
#131 = FACE_BOUND( '', #204, .T. );
#132 = PLANE( '', #205 );
#133 = SURFACE_STYLE_USAGE( .BOTH., #206 );
#134 = FACE_OUTER_BOUND( '', #207, .T. );
#135 = FACE_BOUND( '', #208, .T. );
#136 = PLANE( '', #209 );
#137 = SURFACE_STYLE_USAGE( .BOTH., #210 );
#138 = FACE_BOUND( '', #211, .T. );
#139 = FACE_OUTER_BOUND( '', #212, .T. );
#140 = CONICAL_SURFACE( '', #213, 82.0000000000000, 0.982793723247328 );
#141 = SURFACE_STYLE_USAGE( .BOTH., #214 );
#142 = FACE_OUTER_BOUND( '', #215, .T. );
#143 = FACE_OUTER_BOUND( '', #216, .T. );
#144 = CYLINDRICAL_SURFACE( '', #217, 79.0000000000000 );
#145 = SURFACE_STYLE_USAGE( .BOTH., #218 );
#146 = FACE_OUTER_BOUND( '', #219, .T. );
#147 = FACE_OUTER_BOUND( '', #220, .T. );
#148 = CYLINDRICAL_SURFACE( '', #221, 76.0000000000000 );
#149 = SURFACE_STYLE_USAGE( .BOTH., #222 );
#150 = FACE_OUTER_BOUND( '', #223, .T. );
#151 = FACE_OUTER_BOUND( '', #224, .T. );
#152 = CYLINDRICAL_SURFACE( '', #225, 79.0000000000000 );
#153 = SURFACE_STYLE_USAGE( .BOTH., #226 );
#154 = FACE_OUTER_BOUND( '', #227, .T. );
#155 = FACE_OUTER_BOUND( '', #228, .T. );
#156 = CYLINDRICAL_SURFACE( '', #229, 84.0000000000000 );
#157 = PRODUCT_CONTEXT( '', #27, 'mechanical' );
#158 = PRODUCT_DEFINITION_FORMATION_WITH_SPECIFIED_SOURCE( ' ', 'NONE', #74, .NOT_KNOWN. );
#159 = CLOSED_SHELL( '', ( #55, #45, #65, #51, #61, #67, #69, #43, #53, #71, #41, #73, #47, #57, #49, #63, #59 ) );
#160 = CARTESIAN_POINT( '', ( 0.000000000000000, 0.000000000000000, 0.000000000000000 ) );
#161 = DIRECTION( '', ( 0.000000000000000, 0.000000000000000, 1.00000000000000 ) );
#162 = DIRECTION( '', ( 1.00000000000000, 0.000000000000000, 0.000000000000000 ) );
#163 =  ( LENGTH_UNIT(  )NAMED_UNIT( #83 )SI_UNIT( .MILLI., .METRE. ) );
#164 = SURFACE_SIDE_STYLE( '', ( #231 ) );
#165 = EDGE_LOOP( '', ( #232 ) );
#166 = EDGE_LOOP( '', ( #233 ) );
#167 = AXIS2_PLACEMENT_3D( '', #234, #235, #236 );
#168 = SURFACE_SIDE_STYLE( '', ( #237 ) );
#169 = EDGE_LOOP( '', ( #238 ) );
#170 = AXIS2_PLACEMENT_3D( '', #239, #240, #241 );
#171 = SURFACE_SIDE_STYLE( '', ( #242 ) );
#172 = EDGE_LOOP( '', ( #243 ) );
#173 = EDGE_LOOP( '', ( #244 ) );
#174 = AXIS2_PLACEMENT_3D( '', #245, #246, #247 );
#175 = SURFACE_SIDE_STYLE( '', ( #248 ) );
#176 = EDGE_LOOP( '', ( #249 ) );
#177 = AXIS2_PLACEMENT_3D( '', #250, #251, #252 );
#178 = SURFACE_SIDE_STYLE( '', ( #253 ) );
#179 = EDGE_LOOP( '', ( #254 ) );
#180 = EDGE_LOOP( '', ( #255 ) );
#181 = AXIS2_PLACEMENT_3D( '', #256, #257, #258 );
#182 = SURFACE_SIDE_STYLE( '', ( #259 ) );
#183 = EDGE_LOOP( '', ( #260 ) );
#184 = EDGE_LOOP( '', ( #261 ) );
#185 = AXIS2_PLACEMENT_3D( '', #262, #263, #264 );
#186 = SURFACE_SIDE_STYLE( '', ( #265 ) );
#187 = EDGE_LOOP( '', ( #266 ) );
#188 = EDGE_LOOP( '', ( #267 ) );
#189 = AXIS2_PLACEMENT_3D( '', #268, #269, #270 );
#190 = SURFACE_SIDE_STYLE( '', ( #271 ) );
#191 = EDGE_LOOP( '', ( #272 ) );
#192 = EDGE_LOOP( '', ( #273 ) );
#193 = AXIS2_PLACEMENT_3D( '', #274, #275, #276 );
#194 = SURFACE_SIDE_STYLE( '', ( #277 ) );
#195 = EDGE_LOOP( '', ( #278 ) );
#196 = EDGE_LOOP( '', ( #279 ) );
#197 = AXIS2_PLACEMENT_3D( '', #280, #281, #282 );
#198 = SURFACE_SIDE_STYLE( '', ( #283 ) );
#199 = EDGE_LOOP( '', ( #284 ) );
#200 = EDGE_LOOP( '', ( #285 ) );
#201 = AXIS2_PLACEMENT_3D( '', #286, #287, #288 );
#202 = SURFACE_SIDE_STYLE( '', ( #289 ) );
#203 = EDGE_LOOP( '', ( #290 ) );
#204 = EDGE_LOOP( '', ( #291 ) );
#205 = AXIS2_PLACEMENT_3D( '', #292, #293, #294 );
#206 = SURFACE_SIDE_STYLE( '', ( #295 ) );
#207 = EDGE_LOOP( '', ( #296 ) );
#208 = EDGE_LOOP( '', ( #297 ) );
#209 = AXIS2_PLACEMENT_3D( '', #298, #299, #300 );
#210 = SURFACE_SIDE_STYLE( '', ( #301 ) );
#211 = EDGE_LOOP( '', ( #302 ) );
#212 = EDGE_LOOP( '', ( #303 ) );
#213 = AXIS2_PLACEMENT_3D( '', #304, #305, #306 );
#214 = SURFACE_SIDE_STYLE( '', ( #307 ) );
#215 = EDGE_LOOP( '', ( #308 ) );
#216 = EDGE_LOOP( '', ( #309 ) );
#217 = AXIS2_PLACEMENT_3D( '', #310, #311, #312 );
#218 = SURFACE_SIDE_STYLE( '', ( #313 ) );
#219 = EDGE_LOOP( '', ( #314 ) );
#220 = EDGE_LOOP( '', ( #315 ) );
#221 = AXIS2_PLACEMENT_3D( '', #316, #317, #318 );
#222 = SURFACE_SIDE_STYLE( '', ( #319 ) );
#223 = EDGE_LOOP( '', ( #320 ) );
#224 = EDGE_LOOP( '', ( #321 ) );
#225 = AXIS2_PLACEMENT_3D( '', #322, #323, #324 );
#226 = SURFACE_SIDE_STYLE( '', ( #325 ) );
#227 = EDGE_LOOP( '', ( #326 ) );
#228 = EDGE_LOOP( '', ( #327 ) );
#229 = AXIS2_PLACEMENT_3D( '', #328, #329, #330 );
#231 = SURFACE_STYLE_FILL_AREA( #331 );
#232 = ORIENTED_EDGE( '', *, *, #332, .F. );
#233 = ORIENTED_EDGE( '', *, *, #333, .T. );
#234 = CARTESIAN_POINT( '', ( 79.0000000000000, 0.000000000000000, 34.0000000000000 ) );
#235 = DIRECTION( '', ( -3.61400724161835E-017, 0.000000000000000, 1.00000000000000 ) );
#236 = DIRECTION( '', ( 1.00000000000000, 0.000000000000000, 3.61400724161835E-017 ) );
#237 = SURFACE_STYLE_FILL_AREA( #334 );
#238 = ORIENTED_EDGE( '', *, *, #335, .F. );
#239 = CARTESIAN_POINT( '', ( 76.0000000000000, 0.000000000000000, 36.0000000000000 ) );
#240 = DIRECTION( '', ( -3.61400724161835E-017, 0.000000000000000, 1.00000000000000 ) );
#241 = DIRECTION( '', ( 1.00000000000000, 0.000000000000000, 3.61400724161835E-017 ) );
#242 = SURFACE_STYLE_FILL_AREA( #336 );
#243 = ORIENTED_EDGE( '', *, *, #337, .F. );
#244 = ORIENTED_EDGE( '', *, *, #338, .F. );
#245 = CARTESIAN_POINT( '', ( -7.80625564189563E-016, 0.000000000000000, 36.5000000000000 ) );
#246 = DIRECTION( '', ( 3.61400724161835E-017, 0.000000000000000, -1.00000000000000 ) );
#247 = DIRECTION( '', ( -1.00000000000000, 0.000000000000000, -3.61400724161835E-017 ) );
#248 = SURFACE_STYLE_FILL_AREA( #339 );
#249 = ORIENTED_EDGE( '', *, *, #338, .T. );
#250 = CARTESIAN_POINT( '', ( 84.0000000000000, 0.000000000000000, 39.0000000000000 ) );
#251 = DIRECTION( '', ( 3.61400724161835E-017, 0.000000000000000, -1.00000000000000 ) );
#252 = DIRECTION( '', ( -1.00000000000000, 0.000000000000000, -3.61400724161835E-017 ) );
#253 = SURFACE_STYLE_FILL_AREA( #340 );
#254 = ORIENTED_EDGE( '', *, *, #341, .T. );
#255 = ORIENTED_EDGE( '', *, *, #342, .F. );
#256 = CARTESIAN_POINT( '', ( 0.000000000000000, 0.000000000000000, 26.0000000000000 ) );
#257 = DIRECTION( '', ( -0.000000000000000, -0.000000000000000, 1.00000000000000 ) );
#258 = DIRECTION( '', ( 1.00000000000000, 0.000000000000000, 0.000000000000000 ) );
#259 = SURFACE_STYLE_FILL_AREA( #343 );
#260 = ORIENTED_EDGE( '', *, *, #344, .F. );
#261 = ORIENTED_EDGE( '', *, *, #345, .T. );
#262 = CARTESIAN_POINT( '', ( -5.42101086242752E-017, 0.000000000000000, 16.4000000000000 ) );
#263 = DIRECTION( '', ( 3.61400724161835E-017, -0.000000000000000, -1.00000000000000 ) );
#264 = DIRECTION( '', ( 1.00000000000000, 0.000000000000000, 3.61400724161835E-017 ) );
#265 = SURFACE_STYLE_FILL_AREA( #346 );
#266 = ORIENTED_EDGE( '', *, *, #347, .T. );
#267 = ORIENTED_EDGE( '', *, *, #348, .F. );
#268 = CARTESIAN_POINT( '', ( 79.0000000000000, 0.000000000000000, 11.0000000000000 ) );
#269 = DIRECTION( '', ( 0.000000000000000, 0.000000000000000, 1.00000000000000 ) );
#270 = DIRECTION( '', ( 1.00000000000000, 0.000000000000000, 0.000000000000000 ) );
#271 = SURFACE_STYLE_FILL_AREA( #349 );
#272 = ORIENTED_EDGE( '', *, *, #348, .T. );
#273 = ORIENTED_EDGE( '', *, *, #350, .F. );
#274 = CARTESIAN_POINT( '', ( -5.42101086242752E-017, 0.000000000000000, 16.4000000000000 ) );
#275 = DIRECTION( '', ( 3.61400724161835E-017, -0.000000000000000, -1.00000000000000 ) );
#276 = DIRECTION( '', ( 1.00000000000000, 0.000000000000000, 3.61400724161835E-017 ) );
#277 = SURFACE_STYLE_FILL_AREA( #351 );
#278 = ORIENTED_EDGE( '', *, *, #342, .T. );
#279 = ORIENTED_EDGE( '', *, *, #352, .F. );
#280 = CARTESIAN_POINT( '', ( 79.0000000000000, 0.000000000000000, 26.0000000000000 ) );
#281 = DIRECTION( '', ( 0.000000000000000, 0.000000000000000, 1.00000000000000 ) );
#282 = DIRECTION( '', ( 1.00000000000000, 0.000000000000000, 0.000000000000000 ) );
#283 = SURFACE_STYLE_FILL_AREA( #353 );
#284 = ORIENTED_EDGE( '', *, *, #350, .T. );
#285 = ORIENTED_EDGE( '', *, *, #354, .F. );
#286 = CARTESIAN_POINT( '', ( 0.000000000000000, 0.000000000000000, 18.5000000000000 ) );
#287 = DIRECTION( '', ( -0.000000000000000, -0.000000000000000, 1.00000000000000 ) );
#288 = DIRECTION( '', ( 1.00000000000000, 0.000000000000000, 0.000000000000000 ) );
#289 = SURFACE_STYLE_FILL_AREA( #355 );
#290 = ORIENTED_EDGE( '', *, *, #345, .F. );
#291 = ORIENTED_EDGE( '', *, *, #356, .T. );
#292 = CARTESIAN_POINT( '', ( 76.0000000000000, 0.000000000000000, -5.42101086242753E-017 ) );
#293 = DIRECTION( '', ( -3.61400724161835E-017, 0.000000000000000, 1.00000000000000 ) );
#294 = DIRECTION( '', ( 1.00000000000000, 0.000000000000000, 3.61400724161835E-017 ) );
#295 = SURFACE_STYLE_FILL_AREA( #357 );
#296 = ORIENTED_EDGE( '', *, *, #354, .T. );
#297 = ORIENTED_EDGE( '', *, *, #358, .F. );
#298 = CARTESIAN_POINT( '', ( 79.0000000000000, 0.000000000000000, 18.5000000000000 ) );
#299 = DIRECTION( '', ( 0.000000000000000, 0.000000000000000, 1.00000000000000 ) );
#300 = DIRECTION( '', ( 1.00000000000000, 0.000000000000000, 0.000000000000000 ) );
#301 = SURFACE_STYLE_FILL_AREA( #359 );
#302 = ORIENTED_EDGE( '', *, *, #344, .T. );
#303 = ORIENTED_EDGE( '', *, *, #347, .F. );
#304 = CARTESIAN_POINT( '', ( 0.000000000000000, 0.000000000000000, 11.0000000000000 ) );
#305 = DIRECTION( '', ( -0.000000000000000, -0.000000000000000, 1.00000000000000 ) );
#306 = DIRECTION( '', ( 1.00000000000000, 0.000000000000000, 0.000000000000000 ) );
#307 = SURFACE_STYLE_FILL_AREA( #360 );
#308 = ORIENTED_EDGE( '', *, *, #352, .T. );
#309 = ORIENTED_EDGE( '', *, *, #333, .F. );
#310 = CARTESIAN_POINT( '', ( -5.42101086242752E-017, 0.000000000000000, 16.4000000000000 ) );
#311 = DIRECTION( '', ( 3.61400724161835E-017, -0.000000000000000, -1.00000000000000 ) );
#312 = DIRECTION( '', ( 1.00000000000000, 0.000000000000000, 3.61400724161835E-017 ) );
#313 = SURFACE_STYLE_FILL_AREA( #361 );
#314 = ORIENTED_EDGE( '', *, *, #356, .F. );
#315 = ORIENTED_EDGE( '', *, *, #335, .T. );
#316 = CARTESIAN_POINT( '', ( -5.42101086242752E-017, 0.000000000000000, 16.4000000000000 ) );
#317 = DIRECTION( '', ( 3.61400724161835E-017, -0.000000000000000, -1.00000000000000 ) );
#318 = DIRECTION( '', ( 1.00000000000000, 0.000000000000000, 3.61400724161835E-017 ) );
#319 = SURFACE_STYLE_FILL_AREA( #362 );
#320 = ORIENTED_EDGE( '', *, *, #358, .T. );
#321 = ORIENTED_EDGE( '', *, *, #341, .F. );
#322 = CARTESIAN_POINT( '', ( -5.42101086242752E-017, 0.000000000000000, 16.4000000000000 ) );
#323 = DIRECTION( '', ( 3.61400724161835E-017, -0.000000000000000, -1.00000000000000 ) );
#324 = DIRECTION( '', ( 1.00000000000000, 0.000000000000000, 3.61400724161835E-017 ) );
#325 = SURFACE_STYLE_FILL_AREA( #363 );
#326 = ORIENTED_EDGE( '', *, *, #337, .T. );
#327 = ORIENTED_EDGE( '', *, *, #332, .T. );
#328 = CARTESIAN_POINT( '', ( -5.42101086242752E-017, 0.000000000000000, 16.4000000000000 ) );
#329 = DIRECTION( '', ( 3.61400724161835E-017, -0.000000000000000, -1.00000000000000 ) );
#330 = DIRECTION( '', ( 1.00000000000000, 0.000000000000000, 3.61400724161835E-017 ) );
#331 = FILL_AREA_STYLE( '', ( #364 ) );
#332 = EDGE_CURVE( '', #365, #365, #366, .T. );
#333 = EDGE_CURVE( '', #367, #367, #368, .T. );
#334 = FILL_AREA_STYLE( '', ( #369 ) );
#335 = EDGE_CURVE( '', #370, #370, #371, .T. );
#336 = FILL_AREA_STYLE( '', ( #372 ) );
#337 = EDGE_CURVE( '', #373, #373, #374, .T. );
#338 = EDGE_CURVE( '', #375, #375, #376, .F. );
#339 = FILL_AREA_STYLE( '', ( #377 ) );
#340 = FILL_AREA_STYLE( '', ( #378 ) );
#341 = EDGE_CURVE( '', #379, #379, #380, .T. );
#342 = EDGE_CURVE( '', #381, #381, #382, .T. );
#343 = FILL_AREA_STYLE( '', ( #383 ) );
#344 = EDGE_CURVE( '', #384, #384, #385, .T. );
#345 = EDGE_CURVE( '', #386, #386, #387, .T. );
#346 = FILL_AREA_STYLE( '', ( #388 ) );
#347 = EDGE_CURVE( '', #389, #389, #390, .T. );
#348 = EDGE_CURVE( '', #391, #391, #392, .T. );
#349 = FILL_AREA_STYLE( '', ( #393 ) );
#350 = EDGE_CURVE( '', #394, #394, #395, .T. );
#351 = FILL_AREA_STYLE( '', ( #396 ) );
#352 = EDGE_CURVE( '', #397, #397, #398, .T. );
#353 = FILL_AREA_STYLE( '', ( #399 ) );
#354 = EDGE_CURVE( '', #400, #400, #401, .T. );
#355 = FILL_AREA_STYLE( '', ( #402 ) );
#356 = EDGE_CURVE( '', #403, #403, #404, .T. );
#357 = FILL_AREA_STYLE( '', ( #405 ) );
#358 = EDGE_CURVE( '', #406, #406, #407, .T. );
#359 = FILL_AREA_STYLE( '', ( #408 ) );
#360 = FILL_AREA_STYLE( '', ( #409 ) );
#361 = FILL_AREA_STYLE( '', ( #410 ) );
#362 = FILL_AREA_STYLE( '', ( #411 ) );
#363 = FILL_AREA_STYLE( '', ( #412 ) );
#364 = FILL_AREA_STYLE_COLOUR( '', #413 );
#365 = VERTEX_POINT( '', #414 );
#366 = CIRCLE( '', #415, 84.0000000000000 );
#367 = VERTEX_POINT( '', #416 );
#368 = CIRCLE( '', #417, 79.0000000000000 );
#369 = FILL_AREA_STYLE_COLOUR( '', #418 );
#370 = VERTEX_POINT( '', #419 );
#371 = CIRCLE( '', #420, 76.0000000000000 );
#372 = FILL_AREA_STYLE_COLOUR( '', #421 );
#373 = VERTEX_POINT( '', #422 );
#374 = CIRCLE( '', #423, 84.0000000000000 );
#375 = VERTEX_POINT( '', #424 );
#376 = CIRCLE( '', #425, 81.5000000000000 );
#377 = FILL_AREA_STYLE_COLOUR( '', #426 );
#378 = FILL_AREA_STYLE_COLOUR( '', #427 );
#379 = VERTEX_POINT( '', #428 );
#380 = CIRCLE( '', #429, 79.0000000000000 );
#381 = VERTEX_POINT( '', #430 );
#382 = CIRCLE( '', #431, 82.0000000000000 );
#383 = FILL_AREA_STYLE_COLOUR( '', #432 );
#384 = VERTEX_POINT( '', #433 );
#385 = CIRCLE( '', #434, 79.0000000000000 );
#386 = VERTEX_POINT( '', #435 );
#387 = CIRCLE( '', #436, 79.0000000000000 );
#388 = FILL_AREA_STYLE_COLOUR( '', #437 );
#389 = VERTEX_POINT( '', #438 );
#390 = CIRCLE( '', #439, 82.0000000000000 );
#391 = VERTEX_POINT( '', #440 );
#392 = CIRCLE( '', #441, 79.0000000000000 );
#393 = FILL_AREA_STYLE_COLOUR( '', #442 );
#394 = VERTEX_POINT( '', #443 );
#395 = CIRCLE( '', #444, 79.0000000000000 );
#396 = FILL_AREA_STYLE_COLOUR( '', #445 );
#397 = VERTEX_POINT( '', #446 );
#398 = CIRCLE( '', #447, 79.0000000000000 );
#399 = FILL_AREA_STYLE_COLOUR( '', #448 );
#400 = VERTEX_POINT( '', #449 );
#401 = CIRCLE( '', #450, 82.0000000000000 );
#402 = FILL_AREA_STYLE_COLOUR( '', #451 );
#403 = VERTEX_POINT( '', #452 );
#404 = CIRCLE( '', #453, 76.0000000000000 );
#405 = FILL_AREA_STYLE_COLOUR( '', #454 );
#406 = VERTEX_POINT( '', #455 );
#407 = CIRCLE( '', #456, 79.0000000000000 );
#408 = FILL_AREA_STYLE_COLOUR( '', #457 );
#409 = FILL_AREA_STYLE_COLOUR( '', #458 );
#410 = FILL_AREA_STYLE_COLOUR( '', #459 );
#411 = FILL_AREA_STYLE_COLOUR( '', #460 );
#412 = FILL_AREA_STYLE_COLOUR( '', #461 );
#413 = COLOUR_RGB( '', 0.200000002980232, 0.200000002980232, 0.200000002980232 );
#414 = CARTESIAN_POINT( '', ( 84.0000000000000, 0.000000000000000, 34.0000000000000 ) );
#415 = AXIS2_PLACEMENT_3D( '', #462, #463, #464 );
#416 = CARTESIAN_POINT( '', ( 79.0000000000000, 0.000000000000000, 34.0000000000000 ) );
#417 = AXIS2_PLACEMENT_3D( '', #465, #466, #467 );
#418 = COLOUR_RGB( '', 0.200000002980232, 0.200000002980232, 0.200000002980232 );
#419 = CARTESIAN_POINT( '', ( 76.0000000000000, 0.000000000000000, 36.0000000000000 ) );
#420 = AXIS2_PLACEMENT_3D( '', #468, #469, #470 );
#421 = COLOUR_RGB( '', 0.200000002980232, 0.200000002980232, 0.200000002980232 );
#422 = CARTESIAN_POINT( '', ( -84.0000000000000, 0.000000000000000, 36.5000000000000 ) );
#423 = AXIS2_PLACEMENT_3D( '', #471, #472, #473 );
#424 = CARTESIAN_POINT( '', ( -81.5000000000000, 0.000000000000000, 39.0000000000000 ) );
#425 = AXIS2_PLACEMENT_3D( '', #474, #475, #476 );
#426 = COLOUR_RGB( '', 0.200000002980232, 0.200000002980232, 0.200000002980232 );
#427 = COLOUR_RGB( '', 0.200000002980232, 0.200000002980232, 0.200000002980232 );
#428 = CARTESIAN_POINT( '', ( 79.0000000000000, 0.000000000000000, 24.0000000000000 ) );
#429 = AXIS2_PLACEMENT_3D( '', #477, #478, #479 );
#430 = CARTESIAN_POINT( '', ( 82.0000000000000, 0.000000000000000, 26.0000000000000 ) );
#431 = AXIS2_PLACEMENT_3D( '', #480, #481, #482 );
#432 = COLOUR_RGB( '', 0.200000002980232, 0.200000002980232, 0.200000002980232 );
#433 = CARTESIAN_POINT( '', ( 79.0000000000000, 0.000000000000000, 9.00000000000000 ) );
#434 = AXIS2_PLACEMENT_3D( '', #483, #484, #485 );
#435 = CARTESIAN_POINT( '', ( 79.0000000000000, 0.000000000000000, -6.14381231075119E-016 ) );
#436 = AXIS2_PLACEMENT_3D( '', #486, #487, #488 );
#437 = COLOUR_RGB( '', 0.200000002980232, 0.200000002980232, 0.200000002980232 );
#438 = CARTESIAN_POINT( '', ( 82.0000000000000, 0.000000000000000, 11.0000000000000 ) );
#439 = AXIS2_PLACEMENT_3D( '', #489, #490, #491 );
#440 = CARTESIAN_POINT( '', ( 79.0000000000000, 0.000000000000000, 11.0000000000000 ) );
#441 = AXIS2_PLACEMENT_3D( '', #492, #493, #494 );
#442 = COLOUR_RGB( '', 0.200000002980232, 0.200000002980232, 0.200000002980232 );
#443 = CARTESIAN_POINT( '', ( 79.0000000000000, 0.000000000000000, 16.5000000000000 ) );
#444 = AXIS2_PLACEMENT_3D( '', #495, #496, #497 );
#445 = COLOUR_RGB( '', 0.200000002980232, 0.200000002980232, 0.200000002980232 );
#446 = CARTESIAN_POINT( '', ( 79.0000000000000, 0.000000000000000, 26.0000000000000 ) );
#447 = AXIS2_PLACEMENT_3D( '', #498, #499, #500 );
#448 = COLOUR_RGB( '', 0.200000002980232, 0.200000002980232, 0.200000002980232 );
#449 = CARTESIAN_POINT( '', ( 82.0000000000000, 0.000000000000000, 18.5000000000000 ) );
#450 = AXIS2_PLACEMENT_3D( '', #501, #502, #503 );
#451 = COLOUR_RGB( '', 0.200000002980232, 0.200000002980232, 0.200000002980232 );
#452 = CARTESIAN_POINT( '', ( 76.0000000000000, 0.000000000000000, -7.22801448323669E-016 ) );
#453 = AXIS2_PLACEMENT_3D( '', #504, #505, #506 );
#454 = COLOUR_RGB( '', 0.200000002980232, 0.200000002980232, 0.200000002980232 );
#455 = CARTESIAN_POINT( '', ( 79.0000000000000, 0.000000000000000, 18.5000000000000 ) );
#456 = AXIS2_PLACEMENT_3D( '', #507, #508, #509 );
#457 = COLOUR_RGB( '', 0.200000002980232, 0.200000002980232, 0.200000002980232 );
#458 = COLOUR_RGB( '', 0.200000002980232, 0.200000002980232, 0.200000002980232 );
#459 = COLOUR_RGB( '', 0.200000002980232, 0.200000002980232, 0.200000002980232 );
#460 = COLOUR_RGB( '', 0.200000002980232, 0.200000002980232, 0.200000002980232 );
#461 = COLOUR_RGB( '', 0.200000002980232, 0.200000002980232, 0.200000002980232 );
#462 = CARTESIAN_POINT( '', ( -6.90275383149105E-016, 0.000000000000000, 34.0000000000000 ) );
#463 = DIRECTION( '', ( -3.61400724161835E-017, 0.000000000000000, 1.00000000000000 ) );
#464 = DIRECTION( '', ( 1.00000000000000, 0.000000000000000, 3.61400724161835E-017 ) );
#465 = CARTESIAN_POINT( '', ( -6.90275383149105E-016, 0.000000000000000, 34.0000000000000 ) );
#466 = DIRECTION( '', ( -3.61400724161835E-017, 0.000000000000000, 1.00000000000000 ) );
#467 = DIRECTION( '', ( 1.00000000000000, 0.000000000000000, 3.61400724161835E-017 ) );
#468 = CARTESIAN_POINT( '', ( -7.62555527981471E-016, 0.000000000000000, 36.0000000000000 ) );
#469 = DIRECTION( '', ( -3.61400724161835E-017, 0.000000000000000, 1.00000000000000 ) );
#470 = DIRECTION( '', ( 1.00000000000000, 0.000000000000000, 3.61400724161835E-017 ) );
#471 = CARTESIAN_POINT( '', ( -7.80625564189563E-016, 0.000000000000000, 36.5000000000000 ) );
#472 = DIRECTION( '', ( 3.61400724161835E-017, 0.000000000000000, -1.00000000000000 ) );
#473 = DIRECTION( '', ( -1.00000000000000, 0.000000000000000, -3.61400724161835E-017 ) );
#474 = CARTESIAN_POINT( '', ( -8.70975745230022E-016, 0.000000000000000, 39.0000000000000 ) );
#475 = DIRECTION( '', ( 3.61400724161835E-017, 0.000000000000000, -1.00000000000000 ) );
#476 = DIRECTION( '', ( -1.00000000000000, 0.000000000000000, -3.61400724161835E-017 ) );
#477 = CARTESIAN_POINT( '', ( 0.000000000000000, 0.000000000000000, 24.0000000000000 ) );
#478 = DIRECTION( '', ( 0.000000000000000, 0.000000000000000, 1.00000000000000 ) );
#479 = DIRECTION( '', ( 1.00000000000000, 0.000000000000000, 0.000000000000000 ) );
#480 = CARTESIAN_POINT( '', ( 0.000000000000000, 0.000000000000000, 26.0000000000000 ) );
#481 = DIRECTION( '', ( 0.000000000000000, 0.000000000000000, 1.00000000000000 ) );
#482 = DIRECTION( '', ( 1.00000000000000, 0.000000000000000, 0.000000000000000 ) );
#483 = CARTESIAN_POINT( '', ( 0.000000000000000, 0.000000000000000, 9.00000000000000 ) );
#484 = DIRECTION( '', ( 0.000000000000000, 0.000000000000000, 1.00000000000000 ) );
#485 = DIRECTION( '', ( 1.00000000000000, 0.000000000000000, 0.000000000000000 ) );
#486 = CARTESIAN_POINT( '', ( 5.38487079001134E-016, 0.000000000000000, -3.46944695195362E-015 ) );
#487 = DIRECTION( '', ( -3.61400724161835E-017, 0.000000000000000, 1.00000000000000 ) );
#488 = DIRECTION( '', ( 1.00000000000000, 0.000000000000000, 3.61400724161835E-017 ) );
#489 = CARTESIAN_POINT( '', ( 0.000000000000000, 0.000000000000000, 11.0000000000000 ) );
#490 = DIRECTION( '', ( 0.000000000000000, 0.000000000000000, 1.00000000000000 ) );
#491 = DIRECTION( '', ( 1.00000000000000, 0.000000000000000, 0.000000000000000 ) );
#492 = CARTESIAN_POINT( '', ( 0.000000000000000, 0.000000000000000, 11.0000000000000 ) );
#493 = DIRECTION( '', ( 0.000000000000000, 0.000000000000000, 1.00000000000000 ) );
#494 = DIRECTION( '', ( 1.00000000000000, 0.000000000000000, 0.000000000000000 ) );
#495 = CARTESIAN_POINT( '', ( 0.000000000000000, 0.000000000000000, 16.5000000000000 ) );
#496 = DIRECTION( '', ( 0.000000000000000, 0.000000000000000, 1.00000000000000 ) );
#497 = DIRECTION( '', ( 1.00000000000000, 0.000000000000000, 0.000000000000000 ) );
#498 = CARTESIAN_POINT( '', ( 0.000000000000000, 0.000000000000000, 26.0000000000000 ) );
#499 = DIRECTION( '', ( 0.000000000000000, 0.000000000000000, 1.00000000000000 ) );
#500 = DIRECTION( '', ( 1.00000000000000, 0.000000000000000, 0.000000000000000 ) );
#501 = CARTESIAN_POINT( '', ( 0.000000000000000, 0.000000000000000, 18.5000000000000 ) );
#502 = DIRECTION( '', ( 0.000000000000000, 0.000000000000000, 1.00000000000000 ) );
#503 = DIRECTION( '', ( 1.00000000000000, 0.000000000000000, 0.000000000000000 ) );
#504 = CARTESIAN_POINT( '', ( 5.38487079001134E-016, 0.000000000000000, -3.46944695195362E-015 ) );
#505 = DIRECTION( '', ( -3.61400724161835E-017, 0.000000000000000, 1.00000000000000 ) );
#506 = DIRECTION( '', ( 1.00000000000000, 0.000000000000000, 3.61400724161835E-017 ) );
#507 = CARTESIAN_POINT( '', ( 0.000000000000000, 0.000000000000000, 18.5000000000000 ) );
#508 = DIRECTION( '', ( 0.000000000000000, 0.000000000000000, 1.00000000000000 ) );
#509 = DIRECTION( '', ( 1.00000000000000, 0.000000000000000, 0.000000000000000 ) );
ENDSEC;
END-ISO-10303-21;
