ISO-10303-21;
HEADER;
FILE_DESCRIPTION( ( 'Unknown' ), '1' );
FILE_NAME( '//SBS2003/HD_Usb/Disegni/08_LIB/Users_3D/PROD_GAMM_3D/CD/7371451_CD7.stp', 'Unknown', ( 'Unknown' ), ( 'Unknown' ), 'PSStep 14.0', 'Unknown', '  ' );
FILE_SCHEMA( ( 'AUTOMOTIVE_DESIGN { 1 0 10303 214 1 1 1 1 }' ) );
ENDSEC;
DATA;
#1 = MECHANICAL_DESIGN_GEOMETRIC_PRESENTATION_REPRESENTATION( ' ', ( #10, #11, #12, #13, #14, #15, #16, #17, #18, #19, #20, #21, #22 ), #6 );
#2 = PRODUCT_DEFINITION_CONTEXT( '', #23, 'design' );
#3 = APPLICATION_PROTOCOL_DEFINITION( 'international standard', 'automotive_design', 2001, #23 );
#4 = PRODUCT_CATEGORY_RELATIONSHIP( 'NONE', 'NONE', #24, #25 );
#5 = SHAPE_DEFINITION_REPRESENTATION( #26, #27 );
#6 =  ( GEOMETRIC_REPRESENTATION_CONTEXT( 3 )GLOBAL_UNCERTAINTY_ASSIGNED_CONTEXT( ( #30 ) )GLOBAL_UNIT_ASSIGNED_CONTEXT( ( #32, #33, #34 ) )REPRESENTATION_CONTEXT( 'NONE', 'WORKSPACE' ) );
#10 = STYLED_ITEM( '', ( #36 ), #37 );
#11 = STYLED_ITEM( '', ( #38 ), #39 );
#12 = STYLED_ITEM( '', ( #40 ), #41 );
#13 = STYLED_ITEM( '', ( #42 ), #43 );
#14 = STYLED_ITEM( '', ( #44 ), #45 );
#15 = STYLED_ITEM( '', ( #46 ), #47 );
#16 = STYLED_ITEM( '', ( #48 ), #49 );
#17 = STYLED_ITEM( '', ( #50 ), #51 );
#18 = STYLED_ITEM( '', ( #52 ), #53 );
#19 = STYLED_ITEM( '', ( #54 ), #55 );
#20 = STYLED_ITEM( '', ( #56 ), #57 );
#21 = STYLED_ITEM( '', ( #58 ), #59 );
#22 = STYLED_ITEM( '', ( #60 ), #61 );
#23 = APPLICATION_CONTEXT( 'core data for automotive mechanical design processes' );
#24 = PRODUCT_CATEGORY( 'part', 'NONE' );
#25 = PRODUCT_RELATED_PRODUCT_CATEGORY( 'detail', ' ', ( #62 ) );
#26 = PRODUCT_DEFINITION_SHAPE( 'NONE', 'NONE', #63 );
#27 = ADVANCED_BREP_SHAPE_REPRESENTATION( '1', ( #64, #65 ), #6 );
#30 = UNCERTAINTY_MEASURE_WITH_UNIT( LENGTH_MEASURE( 0.00100000000000000 ), #32, '', '' );
#32 =  ( CONVERSION_BASED_UNIT( 'MILLIMETRE', #68 )LENGTH_UNIT(  )NAMED_UNIT( #71 ) );
#33 =  ( NAMED_UNIT( #73 )PLANE_ANGLE_UNIT(  )SI_UNIT( $, .RADIAN. ) );
#34 =  ( NAMED_UNIT( #73 )SI_UNIT( $, .STERADIAN. )SOLID_ANGLE_UNIT(  ) );
#36 = PRESENTATION_STYLE_ASSIGNMENT( ( #79 ) );
#37 = ADVANCED_FACE( '', ( #80 ), #81, .T. );
#38 = PRESENTATION_STYLE_ASSIGNMENT( ( #82 ) );
#39 = ADVANCED_FACE( '', ( #83 ), #84, .T. );
#40 = PRESENTATION_STYLE_ASSIGNMENT( ( #85 ) );
#41 = ADVANCED_FACE( '', ( #86 ), #87, .T. );
#42 = PRESENTATION_STYLE_ASSIGNMENT( ( #88 ) );
#43 = ADVANCED_FACE( '', ( #89, #90 ), #91, .F. );
#44 = PRESENTATION_STYLE_ASSIGNMENT( ( #92 ) );
#45 = ADVANCED_FACE( '', ( #93 ), #94, .T. );
#46 = PRESENTATION_STYLE_ASSIGNMENT( ( #95 ) );
#47 = ADVANCED_FACE( '', ( #96, #97 ), #98, .T. );
#48 = PRESENTATION_STYLE_ASSIGNMENT( ( #99 ) );
#49 = ADVANCED_FACE( '', ( #100, #101 ), #102, .F. );
#50 = PRESENTATION_STYLE_ASSIGNMENT( ( #103 ) );
#51 = ADVANCED_FACE( '', ( #104 ), #105, .T. );
#52 = PRESENTATION_STYLE_ASSIGNMENT( ( #106 ) );
#53 = ADVANCED_FACE( '', ( #107, #108 ), #109, .F. );
#54 = PRESENTATION_STYLE_ASSIGNMENT( ( #110 ) );
#55 = ADVANCED_FACE( '', ( #111 ), #112, .T. );
#56 = PRESENTATION_STYLE_ASSIGNMENT( ( #113 ) );
#57 = ADVANCED_FACE( '', ( #114 ), #115, .F. );
#58 = PRESENTATION_STYLE_ASSIGNMENT( ( #116 ) );
#59 = ADVANCED_FACE( '', ( #117, #118 ), #119, .T. );
#60 = PRESENTATION_STYLE_ASSIGNMENT( ( #120 ) );
#61 = ADVANCED_FACE( '', ( #121 ), #122, .T. );
#62 = PRODUCT( '1', '1', 'PART-1-DESC', ( #123 ) );
#63 = PRODUCT_DEFINITION( 'NONE', 'NONE', #124, #2 );
#64 = MANIFOLD_SOLID_BREP( '1', #125 );
#65 = AXIS2_PLACEMENT_3D( '', #126, #127, #128 );
#68 = LENGTH_MEASURE_WITH_UNIT( LENGTH_MEASURE( 1.00000000000000 ), #129 );
#71 = DIMENSIONAL_EXPONENTS( 1.00000000000000, 0.000000000000000, 0.000000000000000, 0.000000000000000, 0.000000000000000, 0.000000000000000, 0.000000000000000 );
#73 = DIMENSIONAL_EXPONENTS( 0.000000000000000, 0.000000000000000, 0.000000000000000, 0.000000000000000, 0.000000000000000, 0.000000000000000, 0.000000000000000 );
#79 = SURFACE_STYLE_USAGE( .BOTH., #130 );
#80 = FACE_OUTER_BOUND( '', #131, .T. );
#81 = PLANE( '', #132 );
#82 = SURFACE_STYLE_USAGE( .BOTH., #133 );
#83 = FACE_OUTER_BOUND( '', #134, .T. );
#84 = PLANE( '', #135 );
#85 = SURFACE_STYLE_USAGE( .BOTH., #136 );
#86 = FACE_OUTER_BOUND( '', #137, .T. );
#87 = PLANE( '', #138 );
#88 = SURFACE_STYLE_USAGE( .BOTH., #139 );
#89 = FACE_OUTER_BOUND( '', #140, .T. );
#90 = FACE_OUTER_BOUND( '', #141, .T. );
#91 = CYLINDRICAL_SURFACE( '', #142, 2.95000000000000 );
#92 = SURFACE_STYLE_USAGE( .BOTH., #143 );
#93 = FACE_OUTER_BOUND( '', #144, .T. );
#94 = PLANE( '', #145 );
#95 = SURFACE_STYLE_USAGE( .BOTH., #146 );
#96 = FACE_OUTER_BOUND( '', #147, .T. );
#97 = FACE_OUTER_BOUND( '', #148, .T. );
#98 = CYLINDRICAL_SURFACE( '', #149, 4.50000000000000 );
#99 = SURFACE_STYLE_USAGE( .BOTH., #150 );
#100 = FACE_BOUND( '', #151, .T. );
#101 = FACE_OUTER_BOUND( '', #152, .T. );
#102 = PLANE( '', #153 );
#103 = SURFACE_STYLE_USAGE( .BOTH., #154 );
#104 = FACE_OUTER_BOUND( '', #155, .T. );
#105 = PLANE( '', #156 );
#106 = SURFACE_STYLE_USAGE( .BOTH., #157 );
#107 = FACE_OUTER_BOUND( '', #158, .T. );
#108 = FACE_BOUND( '', #159, .T. );
#109 = PLANE( '', #160 );
#110 = SURFACE_STYLE_USAGE( .BOTH., #161 );
#111 = FACE_OUTER_BOUND( '', #162, .T. );
#112 = SPHERICAL_SURFACE( '', #163, 3.75000000000000 );
#113 = SURFACE_STYLE_USAGE( .BOTH., #164 );
#114 = FACE_OUTER_BOUND( '', #165, .T. );
#115 = SPHERICAL_SURFACE( '', #166, 2.95000000000000 );
#116 = SURFACE_STYLE_USAGE( .BOTH., #167 );
#117 = FACE_BOUND( '', #168, .T. );
#118 = FACE_OUTER_BOUND( '', #169, .T. );
#119 = CONICAL_SURFACE( '', #170, 4.50000000000000, 0.785398163397443 );
#120 = SURFACE_STYLE_USAGE( .BOTH., #171 );
#121 = FACE_OUTER_BOUND( '', #172, .T. );
#122 = PLANE( '', #173 );
#123 = PRODUCT_CONTEXT( '', #23, 'mechanical' );
#124 = PRODUCT_DEFINITION_FORMATION_WITH_SPECIFIED_SOURCE( ' ', 'NONE', #62, .NOT_KNOWN. );
#125 = CLOSED_SHELL( '', ( #53, #55, #61, #45, #49, #47, #37, #41, #51, #39, #43, #57, #59 ) );
#126 = CARTESIAN_POINT( '', ( 0.000000000000000, 0.000000000000000, 0.000000000000000 ) );
#127 = DIRECTION( '', ( 0.000000000000000, 0.000000000000000, 1.00000000000000 ) );
#128 = DIRECTION( '', ( 1.00000000000000, 0.000000000000000, 0.000000000000000 ) );
#129 =  ( LENGTH_UNIT(  )NAMED_UNIT( #71 )SI_UNIT( .MILLI., .METRE. ) );
#130 = SURFACE_SIDE_STYLE( '', ( #175 ) );
#131 = EDGE_LOOP( '', ( #176, #177, #178, #179 ) );
#132 = AXIS2_PLACEMENT_3D( '', #180, #181, #182 );
#133 = SURFACE_SIDE_STYLE( '', ( #183 ) );
#134 = EDGE_LOOP( '', ( #184, #185, #186, #187 ) );
#135 = AXIS2_PLACEMENT_3D( '', #188, #189, #190 );
#136 = SURFACE_SIDE_STYLE( '', ( #191 ) );
#137 = EDGE_LOOP( '', ( #192, #193, #194, #195 ) );
#138 = AXIS2_PLACEMENT_3D( '', #196, #197, #198 );
#139 = SURFACE_SIDE_STYLE( '', ( #199 ) );
#140 = EDGE_LOOP( '', ( #200 ) );
#141 = EDGE_LOOP( '', ( #201 ) );
#142 = AXIS2_PLACEMENT_3D( '', #202, #203, #204 );
#143 = SURFACE_SIDE_STYLE( '', ( #205 ) );
#144 = EDGE_LOOP( '', ( #206, #207, #208, #209 ) );
#145 = AXIS2_PLACEMENT_3D( '', #210, #211, #212 );
#146 = SURFACE_SIDE_STYLE( '', ( #213 ) );
#147 = EDGE_LOOP( '', ( #214 ) );
#148 = EDGE_LOOP( '', ( #215 ) );
#149 = AXIS2_PLACEMENT_3D( '', #216, #217, #218 );
#150 = SURFACE_SIDE_STYLE( '', ( #219 ) );
#151 = EDGE_LOOP( '', ( #220 ) );
#152 = EDGE_LOOP( '', ( #221, #222, #223, #224, #225, #226 ) );
#153 = AXIS2_PLACEMENT_3D( '', #227, #228, #229 );
#154 = SURFACE_SIDE_STYLE( '', ( #230 ) );
#155 = EDGE_LOOP( '', ( #231, #232, #233, #234 ) );
#156 = AXIS2_PLACEMENT_3D( '', #235, #236, #237 );
#157 = SURFACE_SIDE_STYLE( '', ( #238 ) );
#158 = EDGE_LOOP( '', ( #239 ) );
#159 = EDGE_LOOP( '', ( #240, #241, #242, #243, #244, #245 ) );
#160 = AXIS2_PLACEMENT_3D( '', #246, #247, #248 );
#161 = SURFACE_SIDE_STYLE( '', ( #249 ) );
#162 = EDGE_LOOP( '', ( #250 ) );
#163 = AXIS2_PLACEMENT_3D( '', #251, #252, #253 );
#164 = SURFACE_SIDE_STYLE( '', ( #254 ) );
#165 = EDGE_LOOP( '', ( #255 ) );
#166 = AXIS2_PLACEMENT_3D( '', #256, #257, #258 );
#167 = SURFACE_SIDE_STYLE( '', ( #259 ) );
#168 = EDGE_LOOP( '', ( #260 ) );
#169 = EDGE_LOOP( '', ( #261 ) );
#170 = AXIS2_PLACEMENT_3D( '', #262, #263, #264 );
#171 = SURFACE_SIDE_STYLE( '', ( #265 ) );
#172 = EDGE_LOOP( '', ( #266, #267, #268, #269 ) );
#173 = AXIS2_PLACEMENT_3D( '', #270, #271, #272 );
#175 = SURFACE_STYLE_FILL_AREA( #273 );
#176 = ORIENTED_EDGE( '', *, *, #274, .F. );
#177 = ORIENTED_EDGE( '', *, *, #275, .F. );
#178 = ORIENTED_EDGE( '', *, *, #276, .T. );
#179 = ORIENTED_EDGE( '', *, *, #277, .T. );
#180 = CARTESIAN_POINT( '', ( 3.98371685740844, -2.23566755905488E-014, 3.50000000000000 ) );
#181 = DIRECTION( '', ( -0.866025403784438, -0.500000000000000, 0.000000000000000 ) );
#182 = DIRECTION( '', ( 0.500000000000000, -0.866025403784438, 0.000000000000000 ) );
#183 = SURFACE_STYLE_FILL_AREA( #278 );
#184 = ORIENTED_EDGE( '', *, *, #279, .F. );
#185 = ORIENTED_EDGE( '', *, *, #280, .F. );
#186 = ORIENTED_EDGE( '', *, *, #281, .T. );
#187 = ORIENTED_EDGE( '', *, *, #282, .T. );
#188 = CARTESIAN_POINT( '', ( -3.98371685740842, -2.18688109807354E-014, 3.50000000000000 ) );
#189 = DIRECTION( '', ( 0.866025403784438, 0.500000000000000, 0.000000000000000 ) );
#190 = DIRECTION( '', ( -0.500000000000000, 0.866025403784438, 0.000000000000000 ) );
#191 = SURFACE_STYLE_FILL_AREA( #283 );
#192 = ORIENTED_EDGE( '', *, *, #284, .F. );
#193 = ORIENTED_EDGE( '', *, *, #277, .F. );
#194 = ORIENTED_EDGE( '', *, *, #285, .T. );
#195 = ORIENTED_EDGE( '', *, *, #286, .T. );
#196 = CARTESIAN_POINT( '', ( 1.99185842870421, 3.45000000000000, 3.50000000000000 ) );
#197 = DIRECTION( '', ( 0.000000000000000, -1.00000000000000, 0.000000000000000 ) );
#198 = DIRECTION( '', ( 0.000000000000000, 0.000000000000000, -1.00000000000000 ) );
#199 = SURFACE_STYLE_FILL_AREA( #287 );
#200 = ORIENTED_EDGE( '', *, *, #288, .F. );
#201 = ORIENTED_EDGE( '', *, *, #289, .T. );
#202 = CARTESIAN_POINT( '', ( 0.000000000000000, 0.000000000000000, 7.50000000000000 ) );
#203 = DIRECTION( '', ( -0.000000000000000, -0.000000000000000, -1.00000000000000 ) );
#204 = DIRECTION( '', ( 1.00000000000000, 0.000000000000000, 0.000000000000000 ) );
#205 = SURFACE_STYLE_FILL_AREA( #290 );
#206 = ORIENTED_EDGE( '', *, *, #291, .F. );
#207 = ORIENTED_EDGE( '', *, *, #292, .F. );
#208 = ORIENTED_EDGE( '', *, *, #293, .T. );
#209 = ORIENTED_EDGE( '', *, *, #275, .T. );
#210 = CARTESIAN_POINT( '', ( 1.99185842870422, -3.45000000000000, 3.50000000000000 ) );
#211 = DIRECTION( '', ( -0.866025403784438, 0.500000000000000, 0.000000000000000 ) );
#212 = DIRECTION( '', ( -0.500000000000000, -0.866025403784438, 0.000000000000000 ) );
#213 = SURFACE_STYLE_FILL_AREA( #294 );
#214 = ORIENTED_EDGE( '', *, *, #295, .F. );
#215 = ORIENTED_EDGE( '', *, *, #296, .T. );
#216 = CARTESIAN_POINT( '', ( 0.000000000000000, 0.000000000000000, 57.1500000000000 ) );
#217 = DIRECTION( '', ( -0.000000000000000, -0.000000000000000, -1.00000000000000 ) );
#218 = DIRECTION( '', ( 1.00000000000000, 0.000000000000000, 0.000000000000000 ) );
#219 = SURFACE_STYLE_FILL_AREA( #297 );
#220 = ORIENTED_EDGE( '', *, *, #288, .T. );
#221 = ORIENTED_EDGE( '', *, *, #285, .F. );
#222 = ORIENTED_EDGE( '', *, *, #276, .F. );
#223 = ORIENTED_EDGE( '', *, *, #293, .F. );
#224 = ORIENTED_EDGE( '', *, *, #298, .F. );
#225 = ORIENTED_EDGE( '', *, *, #281, .F. );
#226 = ORIENTED_EDGE( '', *, *, #299, .F. );
#227 = CARTESIAN_POINT( '', ( 0.000000000000000, 0.000000000000000, 3.50000000000000 ) );
#228 = DIRECTION( '', ( 0.000000000000000, 0.000000000000000, 1.00000000000000 ) );
#229 = DIRECTION( '', ( 1.00000000000000, 0.000000000000000, 0.000000000000000 ) );
#230 = SURFACE_STYLE_FILL_AREA( #300 );
#231 = ORIENTED_EDGE( '', *, *, #301, .F. );
#232 = ORIENTED_EDGE( '', *, *, #286, .F. );
#233 = ORIENTED_EDGE( '', *, *, #299, .T. );
#234 = ORIENTED_EDGE( '', *, *, #280, .T. );
#235 = CARTESIAN_POINT( '', ( -1.99185842870420, 3.45000000000000, 3.50000000000000 ) );
#236 = DIRECTION( '', ( 0.866025403784438, -0.500000000000000, 0.000000000000000 ) );
#237 = DIRECTION( '', ( 0.500000000000000, 0.866025403784438, 0.000000000000000 ) );
#238 = SURFACE_STYLE_FILL_AREA( #302 );
#239 = ORIENTED_EDGE( '', *, *, #296, .F. );
#240 = ORIENTED_EDGE( '', *, *, #284, .T. );
#241 = ORIENTED_EDGE( '', *, *, #301, .T. );
#242 = ORIENTED_EDGE( '', *, *, #279, .T. );
#243 = ORIENTED_EDGE( '', *, *, #303, .T. );
#244 = ORIENTED_EDGE( '', *, *, #291, .T. );
#245 = ORIENTED_EDGE( '', *, *, #274, .T. );
#246 = CARTESIAN_POINT( '', ( 0.000000000000000, 0.000000000000000, 1.35525271560688E-017 ) );
#247 = DIRECTION( '', ( 0.000000000000000, 0.000000000000000, 1.00000000000000 ) );
#248 = DIRECTION( '', ( 1.00000000000000, 0.000000000000000, 0.000000000000000 ) );
#249 = SURFACE_STYLE_FILL_AREA( #304 );
#250 = ORIENTED_EDGE( '', *, *, #305, .T. );
#251 = CARTESIAN_POINT( '', ( 0.000000000000000, 0.000000000000000, 4.55000000000000 ) );
#252 = DIRECTION( '', ( 0.000000000000000, 0.000000000000000, 1.00000000000000 ) );
#253 = DIRECTION( '', ( 1.00000000000000, 0.000000000000000, 0.000000000000000 ) );
#254 = SURFACE_STYLE_FILL_AREA( #306 );
#255 = ORIENTED_EDGE( '', *, *, #289, .F. );
#256 = CARTESIAN_POINT( '', ( 0.000000000000000, 0.000000000000000, 4.55000000000000 ) );
#257 = DIRECTION( '', ( 0.000000000000000, 0.000000000000000, 1.00000000000000 ) );
#258 = DIRECTION( '', ( -1.00000000000000, 0.000000000000000, 0.000000000000000 ) );
#259 = SURFACE_STYLE_FILL_AREA( #307 );
#260 = ORIENTED_EDGE( '', *, *, #305, .F. );
#261 = ORIENTED_EDGE( '', *, *, #295, .T. );
#262 = CARTESIAN_POINT( '', ( 0.000000000000000, 0.000000000000000, 4.00000000000000 ) );
#263 = DIRECTION( '', ( -0.000000000000000, 0.000000000000000, -1.00000000000000 ) );
#264 = DIRECTION( '', ( -1.00000000000000, 0.000000000000000, 0.000000000000000 ) );
#265 = SURFACE_STYLE_FILL_AREA( #308 );
#266 = ORIENTED_EDGE( '', *, *, #303, .F. );
#267 = ORIENTED_EDGE( '', *, *, #282, .F. );
#268 = ORIENTED_EDGE( '', *, *, #298, .T. );
#269 = ORIENTED_EDGE( '', *, *, #292, .T. );
#270 = CARTESIAN_POINT( '', ( -1.99185842870421, -3.45000000000000, 3.50000000000000 ) );
#271 = DIRECTION( '', ( 1.08863376720084E-016, 1.00000000000000, 0.000000000000000 ) );
#272 = DIRECTION( '', ( -1.00000000000000, 1.08863376720084E-016, 0.000000000000000 ) );
#273 = FILL_AREA_STYLE( '', ( #309 ) );
#274 = EDGE_CURVE( '', #310, #311, #312, .T. );
#275 = EDGE_CURVE( '', #313, #310, #314, .T. );
#276 = EDGE_CURVE( '', #313, #315, #316, .T. );
#277 = EDGE_CURVE( '', #315, #311, #317, .T. );
#278 = FILL_AREA_STYLE( '', ( #318 ) );
#279 = EDGE_CURVE( '', #319, #320, #321, .T. );
#280 = EDGE_CURVE( '', #322, #319, #323, .T. );
#281 = EDGE_CURVE( '', #322, #324, #325, .T. );
#282 = EDGE_CURVE( '', #324, #320, #326, .T. );
#283 = FILL_AREA_STYLE( '', ( #327 ) );
#284 = EDGE_CURVE( '', #311, #328, #329, .T. );
#285 = EDGE_CURVE( '', #315, #330, #331, .T. );
#286 = EDGE_CURVE( '', #330, #328, #332, .T. );
#287 = FILL_AREA_STYLE( '', ( #333 ) );
#288 = EDGE_CURVE( '', #334, #334, #335, .T. );
#289 = EDGE_CURVE( '', #336, #336, #337, .T. );
#290 = FILL_AREA_STYLE( '', ( #338 ) );
#291 = EDGE_CURVE( '', #339, #310, #340, .T. );
#292 = EDGE_CURVE( '', #341, #339, #342, .T. );
#293 = EDGE_CURVE( '', #341, #313, #343, .T. );
#294 = FILL_AREA_STYLE( '', ( #344 ) );
#295 = EDGE_CURVE( '', #345, #345, #346, .T. );
#296 = EDGE_CURVE( '', #347, #347, #348, .T. );
#297 = FILL_AREA_STYLE( '', ( #349 ) );
#298 = EDGE_CURVE( '', #324, #341, #350, .T. );
#299 = EDGE_CURVE( '', #330, #322, #351, .T. );
#300 = FILL_AREA_STYLE( '', ( #352 ) );
#301 = EDGE_CURVE( '', #328, #319, #353, .T. );
#302 = FILL_AREA_STYLE( '', ( #354 ) );
#303 = EDGE_CURVE( '', #320, #339, #355, .T. );
#304 = FILL_AREA_STYLE( '', ( #356 ) );
#305 = EDGE_CURVE( '', #357, #357, #358, .T. );
#306 = FILL_AREA_STYLE( '', ( #359 ) );
#307 = FILL_AREA_STYLE( '', ( #360 ) );
#308 = FILL_AREA_STYLE( '', ( #361 ) );
#309 = FILL_AREA_STYLE_COLOUR( '', #362 );
#310 = VERTEX_POINT( '', #363 );
#311 = VERTEX_POINT( '', #364 );
#312 = LINE( '', #365, #366 );
#313 = VERTEX_POINT( '', #367 );
#314 = LINE( '', #368, #369 );
#315 = VERTEX_POINT( '', #370 );
#316 = LINE( '', #371, #372 );
#317 = LINE( '', #373, #374 );
#318 = FILL_AREA_STYLE_COLOUR( '', #375 );
#319 = VERTEX_POINT( '', #376 );
#320 = VERTEX_POINT( '', #377 );
#321 = LINE( '', #378, #379 );
#322 = VERTEX_POINT( '', #380 );
#323 = LINE( '', #381, #382 );
#324 = VERTEX_POINT( '', #383 );
#325 = LINE( '', #384, #385 );
#326 = LINE( '', #386, #387 );
#327 = FILL_AREA_STYLE_COLOUR( '', #388 );
#328 = VERTEX_POINT( '', #389 );
#329 = LINE( '', #390, #391 );
#330 = VERTEX_POINT( '', #392 );
#331 = LINE( '', #393, #394 );
#332 = LINE( '', #395, #396 );
#333 = FILL_AREA_STYLE_COLOUR( '', #397 );
#334 = VERTEX_POINT( '', #398 );
#335 = CIRCLE( '', #399, 2.95000000000000 );
#336 = VERTEX_POINT( '', #400 );
#337 = CIRCLE( '', #401, 2.95000000000000 );
#338 = FILL_AREA_STYLE_COLOUR( '', #402 );
#339 = VERTEX_POINT( '', #403 );
#340 = LINE( '', #404, #405 );
#341 = VERTEX_POINT( '', #406 );
#342 = LINE( '', #407, #408 );
#343 = LINE( '', #409, #410 );
#344 = FILL_AREA_STYLE_COLOUR( '', #411 );
#345 = VERTEX_POINT( '', #412 );
#346 = CIRCLE( '', #413, 4.50000000000000 );
#347 = VERTEX_POINT( '', #414 );
#348 = CIRCLE( '', #415, 4.50000000000000 );
#349 = FILL_AREA_STYLE_COLOUR( '', #416 );
#350 = LINE( '', #417, #418 );
#351 = LINE( '', #419, #420 );
#352 = FILL_AREA_STYLE_COLOUR( '', #421 );
#353 = LINE( '', #422, #423 );
#354 = FILL_AREA_STYLE_COLOUR( '', #424 );
#355 = LINE( '', #425, #426 );
#356 = FILL_AREA_STYLE_COLOUR( '', #427 );
#357 = VERTEX_POINT( '', #428 );
#358 = CIRCLE( '', #429, 3.74435722792205 );
#359 = FILL_AREA_STYLE_COLOUR( '', #430 );
#360 = FILL_AREA_STYLE_COLOUR( '', #431 );
#361 = FILL_AREA_STYLE_COLOUR( '', #432 );
#362 = COLOUR_RGB( '', 0.200000002980232, 0.200000002980232, 0.200000002980232 );
#363 = CARTESIAN_POINT( '', ( 3.98371685740844, -2.25514051876985E-014, 0.000000000000000 ) );
#364 = CARTESIAN_POINT( '', ( 1.99185842870422, 3.45000000000000, 1.35525271560688E-017 ) );
#365 = CARTESIAN_POINT( '', ( 3.98371685740844, -2.23566755905488E-014, 0.000000000000000 ) );
#366 = VECTOR( '', #433, 999.999999999999 );
#367 = CARTESIAN_POINT( '', ( 3.98371685740844, -2.25514051876985E-014, 3.50000000000000 ) );
#368 = CARTESIAN_POINT( '', ( 3.98371685740844, -2.25514051876985E-014, 3.50000000000000 ) );
#369 = VECTOR( '', #434, 1000.00000000000 );
#370 = CARTESIAN_POINT( '', ( 1.99185842870422, 3.45000000000000, 3.50000000000000 ) );
#371 = CARTESIAN_POINT( '', ( 3.98371685740844, -2.23566755905488E-014, 3.50000000000000 ) );
#372 = VECTOR( '', #435, 999.999999999999 );
#373 = CARTESIAN_POINT( '', ( 1.99185842870422, 3.45000000000000, 3.50000000000000 ) );
#374 = VECTOR( '', #436, 1000.00000000000 );
#375 = COLOUR_RGB( '', 0.200000002980232, 0.200000002980232, 0.200000002980232 );
#376 = CARTESIAN_POINT( '', ( -3.98371685740842, -2.16840434497101E-014, 0.000000000000000 ) );
#377 = CARTESIAN_POINT( '', ( -1.99185842870420, -3.45000000000000, 0.000000000000000 ) );
#378 = CARTESIAN_POINT( '', ( -3.98371685740842, -2.18688109807354E-014, 0.000000000000000 ) );
#379 = VECTOR( '', #437, 999.999999999999 );
#380 = CARTESIAN_POINT( '', ( -3.98371685740842, -2.16840434497101E-014, 3.50000000000000 ) );
#381 = CARTESIAN_POINT( '', ( -3.98371685740842, -2.16840434497101E-014, 3.50000000000000 ) );
#382 = VECTOR( '', #438, 1000.00000000000 );
#383 = CARTESIAN_POINT( '', ( -1.99185842870420, -3.45000000000000, 3.50000000000000 ) );
#384 = CARTESIAN_POINT( '', ( -3.98371685740842, -2.18688109807354E-014, 3.50000000000000 ) );
#385 = VECTOR( '', #439, 999.999999999999 );
#386 = CARTESIAN_POINT( '', ( -1.99185842870420, -3.45000000000000, 3.50000000000000 ) );
#387 = VECTOR( '', #440, 1000.00000000000 );
#388 = COLOUR_RGB( '', 0.200000002980232, 0.200000002980232, 0.200000002980232 );
#389 = CARTESIAN_POINT( '', ( -1.99185842870420, 3.45000000000000, 0.000000000000000 ) );
#390 = CARTESIAN_POINT( '', ( 1.99185842870421, 3.45000000000000, 0.000000000000000 ) );
#391 = VECTOR( '', #441, 1000.00000000000 );
#392 = CARTESIAN_POINT( '', ( -1.99185842870420, 3.45000000000000, 3.50000000000000 ) );
#393 = CARTESIAN_POINT( '', ( 1.99185842870421, 3.45000000000000, 3.50000000000000 ) );
#394 = VECTOR( '', #442, 1000.00000000000 );
#395 = CARTESIAN_POINT( '', ( -1.99185842870420, 3.45000000000000, 3.50000000000000 ) );
#396 = VECTOR( '', #443, 1000.00000000000 );
#397 = COLOUR_RGB( '', 0.200000002980232, 0.200000002980232, 0.200000002980232 );
#398 = CARTESIAN_POINT( '', ( 2.95000000000000, 0.000000000000000, 3.50000000000000 ) );
#399 = AXIS2_PLACEMENT_3D( '', #444, #445, #446 );
#400 = CARTESIAN_POINT( '', ( 2.95000000000000, 0.000000000000000, 4.55000000000000 ) );
#401 = AXIS2_PLACEMENT_3D( '', #447, #448, #449 );
#402 = COLOUR_RGB( '', 0.200000002980232, 0.200000002980232, 0.200000002980232 );
#403 = CARTESIAN_POINT( '', ( 1.99185842870421, -3.45000000000000, 0.000000000000000 ) );
#404 = CARTESIAN_POINT( '', ( 1.99185842870422, -3.45000000000000, 0.000000000000000 ) );
#405 = VECTOR( '', #450, 999.999999999999 );
#406 = CARTESIAN_POINT( '', ( 1.99185842870421, -3.45000000000000, 3.50000000000000 ) );
#407 = CARTESIAN_POINT( '', ( 1.99185842870421, -3.45000000000000, 3.50000000000000 ) );
#408 = VECTOR( '', #451, 1000.00000000000 );
#409 = CARTESIAN_POINT( '', ( 1.99185842870422, -3.45000000000000, 3.50000000000000 ) );
#410 = VECTOR( '', #452, 999.999999999999 );
#411 = COLOUR_RGB( '', 0.200000002980232, 0.200000002980232, 0.200000002980232 );
#412 = CARTESIAN_POINT( '', ( 4.50000000000000, 0.000000000000000, 4.00000000000000 ) );
#413 = AXIS2_PLACEMENT_3D( '', #453, #454, #455 );
#414 = CARTESIAN_POINT( '', ( 4.50000000000000, 0.000000000000000, 0.000000000000000 ) );
#415 = AXIS2_PLACEMENT_3D( '', #456, #457, #458 );
#416 = COLOUR_RGB( '', 0.200000002980232, 0.200000002980232, 0.200000002980232 );
#417 = CARTESIAN_POINT( '', ( -1.99185842870421, -3.45000000000000, 3.50000000000000 ) );
#418 = VECTOR( '', #459, 1000.00000000000 );
#419 = CARTESIAN_POINT( '', ( -1.99185842870420, 3.45000000000000, 3.50000000000000 ) );
#420 = VECTOR( '', #460, 999.999999999999 );
#421 = COLOUR_RGB( '', 0.200000002980232, 0.200000002980232, 0.200000002980232 );
#422 = CARTESIAN_POINT( '', ( -1.99185842870420, 3.45000000000000, 0.000000000000000 ) );
#423 = VECTOR( '', #461, 999.999999999999 );
#424 = COLOUR_RGB( '', 0.200000002980232, 0.200000002980232, 0.200000002980232 );
#425 = CARTESIAN_POINT( '', ( -1.99185842870421, -3.45000000000000, 0.000000000000000 ) );
#426 = VECTOR( '', #462, 1000.00000000000 );
#427 = COLOUR_RGB( '', 0.200000002980232, 0.200000002980232, 0.200000002980232 );
#428 = CARTESIAN_POINT( '', ( 3.74435722792205, 0.000000000000000, 4.75564277207796 ) );
#429 = AXIS2_PLACEMENT_3D( '', #463, #464, #465 );
#430 = COLOUR_RGB( '', 0.200000002980232, 0.200000002980232, 0.200000002980232 );
#431 = COLOUR_RGB( '', 0.200000002980232, 0.200000002980232, 0.200000002980232 );
#432 = COLOUR_RGB( '', 0.200000002980232, 0.200000002980232, 0.200000002980232 );
#433 = DIRECTION( '', ( -0.500000000000000, 0.866025403784438, 0.000000000000000 ) );
#434 = DIRECTION( '', ( 0.000000000000000, 0.000000000000000, -1.00000000000000 ) );
#435 = DIRECTION( '', ( -0.500000000000000, 0.866025403784438, 0.000000000000000 ) );
#436 = DIRECTION( '', ( 0.000000000000000, 0.000000000000000, -1.00000000000000 ) );
#437 = DIRECTION( '', ( 0.500000000000000, -0.866025403784438, 0.000000000000000 ) );
#438 = DIRECTION( '', ( 0.000000000000000, 0.000000000000000, -1.00000000000000 ) );
#439 = DIRECTION( '', ( 0.500000000000000, -0.866025403784438, 0.000000000000000 ) );
#440 = DIRECTION( '', ( 0.000000000000000, 0.000000000000000, -1.00000000000000 ) );
#441 = DIRECTION( '', ( -1.00000000000000, 0.000000000000000, 0.000000000000000 ) );
#442 = DIRECTION( '', ( -1.00000000000000, 0.000000000000000, 0.000000000000000 ) );
#443 = DIRECTION( '', ( 0.000000000000000, 0.000000000000000, -1.00000000000000 ) );
#444 = CARTESIAN_POINT( '', ( 0.000000000000000, 0.000000000000000, 3.50000000000000 ) );
#445 = DIRECTION( '', ( 0.000000000000000, 0.000000000000000, 1.00000000000000 ) );
#446 = DIRECTION( '', ( 1.00000000000000, 0.000000000000000, 0.000000000000000 ) );
#447 = CARTESIAN_POINT( '', ( 0.000000000000000, 0.000000000000000, 4.55000000000000 ) );
#448 = DIRECTION( '', ( 0.000000000000000, 0.000000000000000, 1.00000000000000 ) );
#449 = DIRECTION( '', ( 1.00000000000000, 0.000000000000000, 0.000000000000000 ) );
#450 = DIRECTION( '', ( 0.500000000000000, 0.866025403784438, 0.000000000000000 ) );
#451 = DIRECTION( '', ( 0.000000000000000, 0.000000000000000, -1.00000000000000 ) );
#452 = DIRECTION( '', ( 0.500000000000000, 0.866025403784438, 0.000000000000000 ) );
#453 = CARTESIAN_POINT( '', ( 0.000000000000000, 0.000000000000000, 4.00000000000000 ) );
#454 = DIRECTION( '', ( 0.000000000000000, 0.000000000000000, 1.00000000000000 ) );
#455 = DIRECTION( '', ( 1.00000000000000, 0.000000000000000, 0.000000000000000 ) );
#456 = CARTESIAN_POINT( '', ( 0.000000000000000, 0.000000000000000, 0.000000000000000 ) );
#457 = DIRECTION( '', ( 0.000000000000000, 0.000000000000000, 1.00000000000000 ) );
#458 = DIRECTION( '', ( 1.00000000000000, 0.000000000000000, 0.000000000000000 ) );
#459 = DIRECTION( '', ( 1.00000000000000, -1.08863376720084E-016, 0.000000000000000 ) );
#460 = DIRECTION( '', ( -0.500000000000000, -0.866025403784438, 0.000000000000000 ) );
#461 = DIRECTION( '', ( -0.500000000000000, -0.866025403784438, 0.000000000000000 ) );
#462 = DIRECTION( '', ( 1.00000000000000, -1.08863376720084E-016, 0.000000000000000 ) );
#463 = CARTESIAN_POINT( '', ( 0.000000000000000, 0.000000000000000, 4.75564277207796 ) );
#464 = DIRECTION( '', ( 0.000000000000000, 0.000000000000000, 1.00000000000000 ) );
#465 = DIRECTION( '', ( 1.00000000000000, 0.000000000000000, 0.000000000000000 ) );
ENDSEC;
END-ISO-10303-21;
