ISO-10303-21;
HEADER;
FILE_DESCRIPTION( ( 'Unknown' ), '1' );
FILE_NAME( '//SBS2003/HD_Usb/Disegni/08_LIB/Users_3D/PROD_GAMM_3D/CD/7371453_CD8.stp', 'Unknown', ( 'Unknown' ), ( 'Unknown' ), 'PSStep 14.0', 'Unknown', '  ' );
FILE_SCHEMA( ( 'AUTOMOTIVE_DESIGN { 1 0 10303 214 1 1 1 1 }' ) );
ENDSEC;
DATA;
#1 = MECHANICAL_DESIGN_GEOMETRIC_PRESENTATION_REPRESENTATION( ' ', ( #10, #11, #12, #13, #14, #15, #16, #17, #18, #19, #20, #21, #22 ), #6 );
#2 = PRODUCT_DEFINITION_CONTEXT( '', #23, 'design' );
#3 = APPLICATION_PROTOCOL_DEFINITION( 'international standard', 'automotive_design', 2001, #23 );
#4 = PRODUCT_CATEGORY_RELATIONSHIP( 'NONE', 'NONE', #24, #25 );
#5 = SHAPE_DEFINITION_REPRESENTATION( #26, #27 );
#6 =  ( GEOMETRIC_REPRESENTATION_CONTEXT( 3 )GLOBAL_UNCERTAINTY_ASSIGNED_CONTEXT( ( #30 ) )GLOBAL_UNIT_ASSIGNED_CONTEXT( ( #32, #33, #34 ) )REPRESENTATION_CONTEXT( 'NONE', 'WORKSPACE' ) );
#10 = STYLED_ITEM( '', ( #36 ), #37 );
#11 = STYLED_ITEM( '', ( #38 ), #39 );
#12 = STYLED_ITEM( '', ( #40 ), #41 );
#13 = STYLED_ITEM( '', ( #42 ), #43 );
#14 = STYLED_ITEM( '', ( #44 ), #45 );
#15 = STYLED_ITEM( '', ( #46 ), #47 );
#16 = STYLED_ITEM( '', ( #48 ), #49 );
#17 = STYLED_ITEM( '', ( #50 ), #51 );
#18 = STYLED_ITEM( '', ( #52 ), #53 );
#19 = STYLED_ITEM( '', ( #54 ), #55 );
#20 = STYLED_ITEM( '', ( #56 ), #57 );
#21 = STYLED_ITEM( '', ( #58 ), #59 );
#22 = STYLED_ITEM( '', ( #60 ), #61 );
#23 = APPLICATION_CONTEXT( 'core data for automotive mechanical design processes' );
#24 = PRODUCT_CATEGORY( 'part', 'NONE' );
#25 = PRODUCT_RELATED_PRODUCT_CATEGORY( 'detail', ' ', ( #62 ) );
#26 = PRODUCT_DEFINITION_SHAPE( 'NONE', 'NONE', #63 );
#27 = ADVANCED_BREP_SHAPE_REPRESENTATION( '1', ( #64, #65 ), #6 );
#30 = UNCERTAINTY_MEASURE_WITH_UNIT( LENGTH_MEASURE( 0.00100000000000000 ), #32, '', '' );
#32 =  ( CONVERSION_BASED_UNIT( 'MILLIMETRE', #68 )LENGTH_UNIT(  )NAMED_UNIT( #71 ) );
#33 =  ( NAMED_UNIT( #73 )PLANE_ANGLE_UNIT(  )SI_UNIT( $, .RADIAN. ) );
#34 =  ( NAMED_UNIT( #73 )SI_UNIT( $, .STERADIAN. )SOLID_ANGLE_UNIT(  ) );
#36 = PRESENTATION_STYLE_ASSIGNMENT( ( #79 ) );
#37 = ADVANCED_FACE( '', ( #80 ), #81, .T. );
#38 = PRESENTATION_STYLE_ASSIGNMENT( ( #82 ) );
#39 = ADVANCED_FACE( '', ( #83 ), #84, .T. );
#40 = PRESENTATION_STYLE_ASSIGNMENT( ( #85 ) );
#41 = ADVANCED_FACE( '', ( #86, #87 ), #88, .T. );
#42 = PRESENTATION_STYLE_ASSIGNMENT( ( #89 ) );
#43 = ADVANCED_FACE( '', ( #90 ), #91, .T. );
#44 = PRESENTATION_STYLE_ASSIGNMENT( ( #92 ) );
#45 = ADVANCED_FACE( '', ( #93 ), #94, .F. );
#46 = PRESENTATION_STYLE_ASSIGNMENT( ( #95 ) );
#47 = ADVANCED_FACE( '', ( #96 ), #97, .T. );
#48 = PRESENTATION_STYLE_ASSIGNMENT( ( #98 ) );
#49 = ADVANCED_FACE( '', ( #99, #100 ), #101, .F. );
#50 = PRESENTATION_STYLE_ASSIGNMENT( ( #102 ) );
#51 = ADVANCED_FACE( '', ( #103 ), #104, .T. );
#52 = PRESENTATION_STYLE_ASSIGNMENT( ( #105 ) );
#53 = ADVANCED_FACE( '', ( #106 ), #107, .T. );
#54 = PRESENTATION_STYLE_ASSIGNMENT( ( #108 ) );
#55 = ADVANCED_FACE( '', ( #109, #110 ), #111, .F. );
#56 = PRESENTATION_STYLE_ASSIGNMENT( ( #112 ) );
#57 = ADVANCED_FACE( '', ( #113, #114 ), #115, .T. );
#58 = PRESENTATION_STYLE_ASSIGNMENT( ( #116 ) );
#59 = ADVANCED_FACE( '', ( #117, #118 ), #119, .F. );
#60 = PRESENTATION_STYLE_ASSIGNMENT( ( #120 ) );
#61 = ADVANCED_FACE( '', ( #121 ), #122, .T. );
#62 = PRODUCT( '1', '1', 'PART-1-DESC', ( #123 ) );
#63 = PRODUCT_DEFINITION( 'NONE', 'NONE', #124, #2 );
#64 = MANIFOLD_SOLID_BREP( '1', #125 );
#65 = AXIS2_PLACEMENT_3D( '', #126, #127, #128 );
#68 = LENGTH_MEASURE_WITH_UNIT( LENGTH_MEASURE( 1.00000000000000 ), #129 );
#71 = DIMENSIONAL_EXPONENTS( 1.00000000000000, 0.000000000000000, 0.000000000000000, 0.000000000000000, 0.000000000000000, 0.000000000000000, 0.000000000000000 );
#73 = DIMENSIONAL_EXPONENTS( 0.000000000000000, 0.000000000000000, 0.000000000000000, 0.000000000000000, 0.000000000000000, 0.000000000000000, 0.000000000000000 );
#79 = SURFACE_STYLE_USAGE( .BOTH., #130 );
#80 = FACE_OUTER_BOUND( '', #131, .T. );
#81 = PLANE( '', #132 );
#82 = SURFACE_STYLE_USAGE( .BOTH., #133 );
#83 = FACE_OUTER_BOUND( '', #134, .T. );
#84 = PLANE( '', #135 );
#85 = SURFACE_STYLE_USAGE( .BOTH., #136 );
#86 = FACE_BOUND( '', #137, .T. );
#87 = FACE_OUTER_BOUND( '', #138, .T. );
#88 = CONICAL_SURFACE( '', #139, 5.45000000000000, 0.785398163397448 );
#89 = SURFACE_STYLE_USAGE( .BOTH., #140 );
#90 = FACE_OUTER_BOUND( '', #141, .T. );
#91 = PLANE( '', #142 );
#92 = SURFACE_STYLE_USAGE( .BOTH., #143 );
#93 = FACE_OUTER_BOUND( '', #144, .T. );
#94 = SPHERICAL_SURFACE( '', #145, 3.26524520967260 );
#95 = SURFACE_STYLE_USAGE( .BOTH., #146 );
#96 = FACE_OUTER_BOUND( '', #147, .T. );
#97 = SPHERICAL_SURFACE( '', #148, 5.00000000000000 );
#98 = SURFACE_STYLE_USAGE( .BOTH., #149 );
#99 = FACE_OUTER_BOUND( '', #150, .T. );
#100 = FACE_BOUND( '', #151, .T. );
#101 = PLANE( '', #152 );
#102 = SURFACE_STYLE_USAGE( .BOTH., #153 );
#103 = FACE_OUTER_BOUND( '', #154, .T. );
#104 = PLANE( '', #155 );
#105 = SURFACE_STYLE_USAGE( .BOTH., #156 );
#106 = FACE_OUTER_BOUND( '', #157, .T. );
#107 = PLANE( '', #158 );
#108 = SURFACE_STYLE_USAGE( .BOTH., #159 );
#109 = FACE_OUTER_BOUND( '', #160, .T. );
#110 = FACE_OUTER_BOUND( '', #161, .T. );
#111 = CYLINDRICAL_SURFACE( '', #162, 3.26524520967260 );
#112 = SURFACE_STYLE_USAGE( .BOTH., #163 );
#113 = FACE_OUTER_BOUND( '', #164, .T. );
#114 = FACE_OUTER_BOUND( '', #165, .T. );
#115 = CYLINDRICAL_SURFACE( '', #166, 5.45000000000000 );
#116 = SURFACE_STYLE_USAGE( .BOTH., #167 );
#117 = FACE_OUTER_BOUND( '', #168, .T. );
#118 = FACE_BOUND( '', #169, .T. );
#119 = PLANE( '', #170 );
#120 = SURFACE_STYLE_USAGE( .BOTH., #171 );
#121 = FACE_OUTER_BOUND( '', #172, .T. );
#122 = PLANE( '', #173 );
#123 = PRODUCT_CONTEXT( '', #23, 'mechanical' );
#124 = PRODUCT_DEFINITION_FORMATION_WITH_SPECIFIED_SOURCE( ' ', 'NONE', #62, .NOT_KNOWN. );
#125 = CLOSED_SHELL( '', ( #59, #49, #61, #37, #57, #43, #51, #39, #53, #55, #45, #47, #41 ) );
#126 = CARTESIAN_POINT( '', ( 0.000000000000000, 0.000000000000000, 0.000000000000000 ) );
#127 = DIRECTION( '', ( 0.000000000000000, 0.000000000000000, 1.00000000000000 ) );
#128 = DIRECTION( '', ( 1.00000000000000, 0.000000000000000, 0.000000000000000 ) );
#129 =  ( LENGTH_UNIT(  )NAMED_UNIT( #71 )SI_UNIT( .MILLI., .METRE. ) );
#130 = SURFACE_SIDE_STYLE( '', ( #175 ) );
#131 = EDGE_LOOP( '', ( #176, #177, #178, #179 ) );
#132 = AXIS2_PLACEMENT_3D( '', #180, #181, #182 );
#133 = SURFACE_SIDE_STYLE( '', ( #183 ) );
#134 = EDGE_LOOP( '', ( #184, #185, #186, #187 ) );
#135 = AXIS2_PLACEMENT_3D( '', #188, #189, #190 );
#136 = SURFACE_SIDE_STYLE( '', ( #191 ) );
#137 = EDGE_LOOP( '', ( #192 ) );
#138 = EDGE_LOOP( '', ( #193 ) );
#139 = AXIS2_PLACEMENT_3D( '', #194, #195, #196 );
#140 = SURFACE_SIDE_STYLE( '', ( #197 ) );
#141 = EDGE_LOOP( '', ( #198, #199, #200, #201 ) );
#142 = AXIS2_PLACEMENT_3D( '', #202, #203, #204 );
#143 = SURFACE_SIDE_STYLE( '', ( #205 ) );
#144 = EDGE_LOOP( '', ( #206 ) );
#145 = AXIS2_PLACEMENT_3D( '', #207, #208, #209 );
#146 = SURFACE_SIDE_STYLE( '', ( #210 ) );
#147 = EDGE_LOOP( '', ( #211 ) );
#148 = AXIS2_PLACEMENT_3D( '', #212, #213, #214 );
#149 = SURFACE_SIDE_STYLE( '', ( #215 ) );
#150 = EDGE_LOOP( '', ( #216 ) );
#151 = EDGE_LOOP( '', ( #217, #218, #219, #220, #221, #222 ) );
#152 = AXIS2_PLACEMENT_3D( '', #223, #224, #225 );
#153 = SURFACE_SIDE_STYLE( '', ( #226 ) );
#154 = EDGE_LOOP( '', ( #227, #228, #229, #230 ) );
#155 = AXIS2_PLACEMENT_3D( '', #231, #232, #233 );
#156 = SURFACE_SIDE_STYLE( '', ( #234 ) );
#157 = EDGE_LOOP( '', ( #235, #236, #237, #238 ) );
#158 = AXIS2_PLACEMENT_3D( '', #239, #240, #241 );
#159 = SURFACE_SIDE_STYLE( '', ( #242 ) );
#160 = EDGE_LOOP( '', ( #243 ) );
#161 = EDGE_LOOP( '', ( #244 ) );
#162 = AXIS2_PLACEMENT_3D( '', #245, #246, #247 );
#163 = SURFACE_SIDE_STYLE( '', ( #248 ) );
#164 = EDGE_LOOP( '', ( #249 ) );
#165 = EDGE_LOOP( '', ( #250 ) );
#166 = AXIS2_PLACEMENT_3D( '', #251, #252, #253 );
#167 = SURFACE_SIDE_STYLE( '', ( #254 ) );
#168 = EDGE_LOOP( '', ( #255, #256, #257, #258, #259, #260 ) );
#169 = EDGE_LOOP( '', ( #261 ) );
#170 = AXIS2_PLACEMENT_3D( '', #262, #263, #264 );
#171 = SURFACE_SIDE_STYLE( '', ( #265 ) );
#172 = EDGE_LOOP( '', ( #266, #267, #268, #269 ) );
#173 = AXIS2_PLACEMENT_3D( '', #270, #271, #272 );
#175 = SURFACE_STYLE_FILL_AREA( #273 );
#176 = ORIENTED_EDGE( '', *, *, #274, .F. );
#177 = ORIENTED_EDGE( '', *, *, #275, .F. );
#178 = ORIENTED_EDGE( '', *, *, #276, .T. );
#179 = ORIENTED_EDGE( '', *, *, #277, .T. );
#180 = CARTESIAN_POINT( '', ( 2.28053356329903, -3.95000000000000, 5.00000000000000 ) );
#181 = DIRECTION( '', ( -0.866025403784438, 0.500000000000000, 0.000000000000000 ) );
#182 = DIRECTION( '', ( -0.500000000000000, -0.866025403784438, 0.000000000000000 ) );
#183 = SURFACE_STYLE_FILL_AREA( #278 );
#184 = ORIENTED_EDGE( '', *, *, #279, .F. );
#185 = ORIENTED_EDGE( '', *, *, #280, .F. );
#186 = ORIENTED_EDGE( '', *, *, #281, .T. );
#187 = ORIENTED_EDGE( '', *, *, #282, .T. );
#188 = CARTESIAN_POINT( '', ( -2.28053356329903, 3.95000000000000, 5.00000000000000 ) );
#189 = DIRECTION( '', ( 0.866025403784438, -0.500000000000001, 0.000000000000000 ) );
#190 = DIRECTION( '', ( 0.500000000000001, 0.866025403784438, 0.000000000000000 ) );
#191 = SURFACE_STYLE_FILL_AREA( #283 );
#192 = ORIENTED_EDGE( '', *, *, #284, .F. );
#193 = ORIENTED_EDGE( '', *, *, #285, .T. );
#194 = CARTESIAN_POINT( '', ( 0.000000000000000, 0.000000000000000, 5.00000000000000 ) );
#195 = DIRECTION( '', ( -0.000000000000000, 0.000000000000000, -1.00000000000000 ) );
#196 = DIRECTION( '', ( -1.00000000000000, 0.000000000000000, 0.000000000000000 ) );
#197 = SURFACE_STYLE_FILL_AREA( #286 );
#198 = ORIENTED_EDGE( '', *, *, #287, .F. );
#199 = ORIENTED_EDGE( '', *, *, #277, .F. );
#200 = ORIENTED_EDGE( '', *, *, #288, .T. );
#201 = ORIENTED_EDGE( '', *, *, #289, .T. );
#202 = CARTESIAN_POINT( '', ( 4.56106712659807, 2.59110704258728E-014, 5.00000000000000 ) );
#203 = DIRECTION( '', ( -0.866025403784438, -0.500000000000001, 0.000000000000000 ) );
#204 = DIRECTION( '', ( 0.500000000000001, -0.866025403784438, 0.000000000000000 ) );
#205 = SURFACE_STYLE_FILL_AREA( #290 );
#206 = ORIENTED_EDGE( '', *, *, #291, .F. );
#207 = CARTESIAN_POINT( '', ( 0.000000000000000, 0.000000000000000, 5.23475479032740 ) );
#208 = DIRECTION( '', ( 0.000000000000000, 0.000000000000000, 1.00000000000000 ) );
#209 = DIRECTION( '', ( 1.00000000000000, 0.000000000000000, 0.000000000000000 ) );
#210 = SURFACE_STYLE_FILL_AREA( #292 );
#211 = ORIENTED_EDGE( '', *, *, #284, .T. );
#212 = CARTESIAN_POINT( '', ( 0.000000000000000, 0.000000000000000, 4.50000000000000 ) );
#213 = DIRECTION( '', ( 0.000000000000000, 0.000000000000000, 1.00000000000000 ) );
#214 = DIRECTION( '', ( 1.00000000000000, 0.000000000000000, 0.000000000000000 ) );
#215 = SURFACE_STYLE_FILL_AREA( #293 );
#216 = ORIENTED_EDGE( '', *, *, #294, .F. );
#217 = ORIENTED_EDGE( '', *, *, #295, .T. );
#218 = ORIENTED_EDGE( '', *, *, #279, .T. );
#219 = ORIENTED_EDGE( '', *, *, #296, .T. );
#220 = ORIENTED_EDGE( '', *, *, #297, .T. );
#221 = ORIENTED_EDGE( '', *, *, #274, .T. );
#222 = ORIENTED_EDGE( '', *, *, #287, .T. );
#223 = CARTESIAN_POINT( '', ( 0.000000000000000, 0.000000000000000, 0.000000000000000 ) );
#224 = DIRECTION( '', ( 0.000000000000000, 0.000000000000000, 1.00000000000000 ) );
#225 = DIRECTION( '', ( 1.00000000000000, 0.000000000000000, 0.000000000000000 ) );
#226 = SURFACE_STYLE_FILL_AREA( #298 );
#227 = ORIENTED_EDGE( '', *, *, #295, .F. );
#228 = ORIENTED_EDGE( '', *, *, #289, .F. );
#229 = ORIENTED_EDGE( '', *, *, #299, .T. );
#230 = ORIENTED_EDGE( '', *, *, #280, .T. );
#231 = CARTESIAN_POINT( '', ( 2.28053356329904, 3.95000000000000, 5.00000000000000 ) );
#232 = DIRECTION( '', ( 0.000000000000000, -1.00000000000000, 0.000000000000000 ) );
#233 = DIRECTION( '', ( 0.000000000000000, 0.000000000000000, -1.00000000000000 ) );
#234 = SURFACE_STYLE_FILL_AREA( #300 );
#235 = ORIENTED_EDGE( '', *, *, #296, .F. );
#236 = ORIENTED_EDGE( '', *, *, #282, .F. );
#237 = ORIENTED_EDGE( '', *, *, #301, .T. );
#238 = ORIENTED_EDGE( '', *, *, #302, .T. );
#239 = CARTESIAN_POINT( '', ( -4.56106712659806, 2.64696400516013E-014, 5.00000000000000 ) );
#240 = DIRECTION( '', ( 0.866025403784439, 0.500000000000000, 0.000000000000000 ) );
#241 = DIRECTION( '', ( -0.500000000000000, 0.866025403784439, 0.000000000000000 ) );
#242 = SURFACE_STYLE_FILL_AREA( #303 );
#243 = ORIENTED_EDGE( '', *, *, #291, .T. );
#244 = ORIENTED_EDGE( '', *, *, #304, .T. );
#245 = CARTESIAN_POINT( '', ( 0.000000000000000, 0.000000000000000, 57.1500000000000 ) );
#246 = DIRECTION( '', ( -0.000000000000000, -0.000000000000000, -1.00000000000000 ) );
#247 = DIRECTION( '', ( 1.00000000000000, 0.000000000000000, 0.000000000000000 ) );
#248 = SURFACE_STYLE_FILL_AREA( #305 );
#249 = ORIENTED_EDGE( '', *, *, #285, .F. );
#250 = ORIENTED_EDGE( '', *, *, #294, .T. );
#251 = CARTESIAN_POINT( '', ( 0.000000000000000, 0.000000000000000, 57.1500000000000 ) );
#252 = DIRECTION( '', ( -0.000000000000000, -0.000000000000000, -1.00000000000000 ) );
#253 = DIRECTION( '', ( 1.00000000000000, 0.000000000000000, 0.000000000000000 ) );
#254 = SURFACE_STYLE_FILL_AREA( #306 );
#255 = ORIENTED_EDGE( '', *, *, #299, .F. );
#256 = ORIENTED_EDGE( '', *, *, #288, .F. );
#257 = ORIENTED_EDGE( '', *, *, #276, .F. );
#258 = ORIENTED_EDGE( '', *, *, #307, .F. );
#259 = ORIENTED_EDGE( '', *, *, #301, .F. );
#260 = ORIENTED_EDGE( '', *, *, #281, .F. );
#261 = ORIENTED_EDGE( '', *, *, #304, .F. );
#262 = CARTESIAN_POINT( '', ( 0.000000000000000, 0.000000000000000, 5.00000000000000 ) );
#263 = DIRECTION( '', ( 0.000000000000000, 0.000000000000000, 1.00000000000000 ) );
#264 = DIRECTION( '', ( 1.00000000000000, 0.000000000000000, 0.000000000000000 ) );
#265 = SURFACE_STYLE_FILL_AREA( #308 );
#266 = ORIENTED_EDGE( '', *, *, #297, .F. );
#267 = ORIENTED_EDGE( '', *, *, #302, .F. );
#268 = ORIENTED_EDGE( '', *, *, #307, .T. );
#269 = ORIENTED_EDGE( '', *, *, #275, .T. );
#270 = CARTESIAN_POINT( '', ( -2.28053356329902, -3.95000000000000, 5.00000000000000 ) );
#271 = DIRECTION( '', ( 1.90166404903437E-015, 1.00000000000000, 0.000000000000000 ) );
#272 = DIRECTION( '', ( -1.00000000000000, 1.90166404903437E-015, 0.000000000000000 ) );
#273 = FILL_AREA_STYLE( '', ( #309 ) );
#274 = EDGE_CURVE( '', #310, #311, #312, .T. );
#275 = EDGE_CURVE( '', #313, #310, #314, .T. );
#276 = EDGE_CURVE( '', #313, #315, #316, .T. );
#277 = EDGE_CURVE( '', #315, #311, #317, .T. );
#278 = FILL_AREA_STYLE( '', ( #318 ) );
#279 = EDGE_CURVE( '', #319, #320, #321, .T. );
#280 = EDGE_CURVE( '', #322, #319, #323, .T. );
#281 = EDGE_CURVE( '', #322, #324, #325, .T. );
#282 = EDGE_CURVE( '', #324, #320, #326, .T. );
#283 = FILL_AREA_STYLE( '', ( #327 ) );
#284 = EDGE_CURVE( '', #328, #328, #329, .T. );
#285 = EDGE_CURVE( '', #330, #330, #331, .T. );
#286 = FILL_AREA_STYLE( '', ( #332 ) );
#287 = EDGE_CURVE( '', #311, #333, #334, .T. );
#288 = EDGE_CURVE( '', #315, #335, #336, .T. );
#289 = EDGE_CURVE( '', #335, #333, #337, .T. );
#290 = FILL_AREA_STYLE( '', ( #338 ) );
#291 = EDGE_CURVE( '', #339, #339, #340, .T. );
#292 = FILL_AREA_STYLE( '', ( #341 ) );
#293 = FILL_AREA_STYLE( '', ( #342 ) );
#294 = EDGE_CURVE( '', #343, #343, #344, .T. );
#295 = EDGE_CURVE( '', #333, #319, #345, .T. );
#296 = EDGE_CURVE( '', #320, #346, #347, .T. );
#297 = EDGE_CURVE( '', #346, #310, #348, .T. );
#298 = FILL_AREA_STYLE( '', ( #349 ) );
#299 = EDGE_CURVE( '', #335, #322, #350, .T. );
#300 = FILL_AREA_STYLE( '', ( #351 ) );
#301 = EDGE_CURVE( '', #324, #352, #353, .T. );
#302 = EDGE_CURVE( '', #352, #346, #354, .T. );
#303 = FILL_AREA_STYLE( '', ( #355 ) );
#304 = EDGE_CURVE( '', #356, #356, #357, .F. );
#305 = FILL_AREA_STYLE( '', ( #358 ) );
#306 = FILL_AREA_STYLE( '', ( #359 ) );
#307 = EDGE_CURVE( '', #352, #313, #360, .T. );
#308 = FILL_AREA_STYLE( '', ( #361 ) );
#309 = FILL_AREA_STYLE_COLOUR( '', #362 );
#310 = VERTEX_POINT( '', #363 );
#311 = VERTEX_POINT( '', #364 );
#312 = LINE( '', #365, #366 );
#313 = VERTEX_POINT( '', #367 );
#314 = LINE( '', #368, #369 );
#315 = VERTEX_POINT( '', #370 );
#316 = LINE( '', #371, #372 );
#317 = LINE( '', #373, #374 );
#318 = FILL_AREA_STYLE_COLOUR( '', #375 );
#319 = VERTEX_POINT( '', #376 );
#320 = VERTEX_POINT( '', #377 );
#321 = LINE( '', #378, #379 );
#322 = VERTEX_POINT( '', #380 );
#323 = LINE( '', #381, #382 );
#324 = VERTEX_POINT( '', #383 );
#325 = LINE( '', #384, #385 );
#326 = LINE( '', #386, #387 );
#327 = FILL_AREA_STYLE_COLOUR( '', #388 );
#328 = VERTEX_POINT( '', #389 );
#329 = CIRCLE( '', #390, 4.88533374047573 );
#330 = VERTEX_POINT( '', #391 );
#331 = CIRCLE( '', #392, 5.45000000000000 );
#332 = FILL_AREA_STYLE_COLOUR( '', #393 );
#333 = VERTEX_POINT( '', #394 );
#334 = LINE( '', #395, #396 );
#335 = VERTEX_POINT( '', #397 );
#336 = LINE( '', #398, #399 );
#337 = LINE( '', #400, #401 );
#338 = FILL_AREA_STYLE_COLOUR( '', #402 );
#339 = VERTEX_POINT( '', #403 );
#340 = CIRCLE( '', #404, 3.26524520967260 );
#341 = FILL_AREA_STYLE_COLOUR( '', #405 );
#342 = FILL_AREA_STYLE_COLOUR( '', #406 );
#343 = VERTEX_POINT( '', #407 );
#344 = CIRCLE( '', #408, 5.45000000000000 );
#345 = LINE( '', #409, #410 );
#346 = VERTEX_POINT( '', #411 );
#347 = LINE( '', #412, #413 );
#348 = LINE( '', #414, #415 );
#349 = FILL_AREA_STYLE_COLOUR( '', #416 );
#350 = LINE( '', #417, #418 );
#351 = FILL_AREA_STYLE_COLOUR( '', #419 );
#352 = VERTEX_POINT( '', #420 );
#353 = LINE( '', #421, #422 );
#354 = LINE( '', #423, #424 );
#355 = FILL_AREA_STYLE_COLOUR( '', #425 );
#356 = VERTEX_POINT( '', #426 );
#357 = CIRCLE( '', #427, 3.26524520967260 );
#358 = FILL_AREA_STYLE_COLOUR( '', #428 );
#359 = FILL_AREA_STYLE_COLOUR( '', #429 );
#360 = LINE( '', #430, #431 );
#361 = FILL_AREA_STYLE_COLOUR( '', #432 );
#362 = COLOUR_RGB( '', 0.200000002980232, 0.200000002980232, 0.200000002980232 );
#363 = CARTESIAN_POINT( '', ( 2.28053356329904, -3.95000000000000, 0.000000000000000 ) );
#364 = CARTESIAN_POINT( '', ( 4.56106712659807, 2.60208521396521E-014, 0.000000000000000 ) );
#365 = CARTESIAN_POINT( '', ( 2.28053356329903, -3.95000000000000, 0.000000000000000 ) );
#366 = VECTOR( '', #433, 999.999999999999 );
#367 = CARTESIAN_POINT( '', ( 2.28053356329904, -3.95000000000000, 5.00000000000000 ) );
#368 = CARTESIAN_POINT( '', ( 2.28053356329904, -3.95000000000000, 5.00000000000000 ) );
#369 = VECTOR( '', #434, 1000.00000000000 );
#370 = CARTESIAN_POINT( '', ( 4.56106712659807, 2.60208521396521E-014, 5.00000000000000 ) );
#371 = CARTESIAN_POINT( '', ( 2.28053356329903, -3.95000000000000, 5.00000000000000 ) );
#372 = VECTOR( '', #435, 999.999999999999 );
#373 = CARTESIAN_POINT( '', ( 4.56106712659807, 2.60208521396521E-014, 5.00000000000000 ) );
#374 = VECTOR( '', #436, 1000.00000000000 );
#375 = COLOUR_RGB( '', 0.200000002980232, 0.200000002980232, 0.200000002980232 );
#376 = CARTESIAN_POINT( '', ( -2.28053356329903, 3.95000000000000, 0.000000000000000 ) );
#377 = CARTESIAN_POINT( '', ( -4.56106712659806, 2.68882138776405E-014, 0.000000000000000 ) );
#378 = CARTESIAN_POINT( '', ( -2.28053356329903, 3.95000000000000, 0.000000000000000 ) );
#379 = VECTOR( '', #437, 999.999999999999 );
#380 = CARTESIAN_POINT( '', ( -2.28053356329903, 3.95000000000000, 5.00000000000000 ) );
#381 = CARTESIAN_POINT( '', ( -2.28053356329903, 3.95000000000000, 5.00000000000000 ) );
#382 = VECTOR( '', #438, 1000.00000000000 );
#383 = CARTESIAN_POINT( '', ( -4.56106712659806, 2.68882138776405E-014, 5.00000000000000 ) );
#384 = CARTESIAN_POINT( '', ( -2.28053356329903, 3.95000000000000, 5.00000000000000 ) );
#385 = VECTOR( '', #439, 999.999999999999 );
#386 = CARTESIAN_POINT( '', ( -4.56106712659806, 2.68882138776405E-014, 5.00000000000000 ) );
#387 = VECTOR( '', #440, 1000.00000000000 );
#388 = COLOUR_RGB( '', 0.200000002980232, 0.200000002980232, 0.200000002980232 );
#389 = CARTESIAN_POINT( '', ( 4.88533374047573, 0.000000000000000, 5.56466625952427 ) );
#390 = AXIS2_PLACEMENT_3D( '', #441, #442, #443 );
#391 = CARTESIAN_POINT( '', ( 5.45000000000000, 0.000000000000000, 5.00000000000000 ) );
#392 = AXIS2_PLACEMENT_3D( '', #444, #445, #446 );
#393 = COLOUR_RGB( '', 0.200000002980232, 0.200000002980232, 0.200000002980232 );
#394 = CARTESIAN_POINT( '', ( 2.28053356329903, 3.95000000000000, 0.000000000000000 ) );
#395 = CARTESIAN_POINT( '', ( 4.56106712659807, 2.59110704258728E-014, 0.000000000000000 ) );
#396 = VECTOR( '', #447, 999.999999999999 );
#397 = CARTESIAN_POINT( '', ( 2.28053356329903, 3.95000000000000, 5.00000000000000 ) );
#398 = CARTESIAN_POINT( '', ( 4.56106712659807, 2.59110704258728E-014, 5.00000000000000 ) );
#399 = VECTOR( '', #448, 999.999999999999 );
#400 = CARTESIAN_POINT( '', ( 2.28053356329903, 3.95000000000000, 5.00000000000000 ) );
#401 = VECTOR( '', #449, 1000.00000000000 );
#402 = COLOUR_RGB( '', 0.200000002980232, 0.200000002980232, 0.200000002980232 );
#403 = CARTESIAN_POINT( '', ( 3.26524520967260, 0.000000000000000, 5.23475479032740 ) );
#404 = AXIS2_PLACEMENT_3D( '', #450, #451, #452 );
#405 = COLOUR_RGB( '', 0.200000002980232, 0.200000002980232, 0.200000002980232 );
#406 = COLOUR_RGB( '', 0.200000002980232, 0.200000002980232, 0.200000002980232 );
#407 = CARTESIAN_POINT( '', ( 5.45000000000000, 0.000000000000000, 0.000000000000000 ) );
#408 = AXIS2_PLACEMENT_3D( '', #453, #454, #455 );
#409 = CARTESIAN_POINT( '', ( 2.28053356329904, 3.95000000000000, 0.000000000000000 ) );
#410 = VECTOR( '', #456, 1000.00000000000 );
#411 = CARTESIAN_POINT( '', ( -2.28053356329903, -3.95000000000000, 0.000000000000000 ) );
#412 = CARTESIAN_POINT( '', ( -4.56106712659806, 2.64696400516013E-014, 0.000000000000000 ) );
#413 = VECTOR( '', #457, 1000.00000000000 );
#414 = CARTESIAN_POINT( '', ( -2.28053356329902, -3.95000000000000, 0.000000000000000 ) );
#415 = VECTOR( '', #458, 1000.00000000000 );
#416 = COLOUR_RGB( '', 0.200000002980232, 0.200000002980232, 0.200000002980232 );
#417 = CARTESIAN_POINT( '', ( 2.28053356329904, 3.95000000000000, 5.00000000000000 ) );
#418 = VECTOR( '', #459, 1000.00000000000 );
#419 = COLOUR_RGB( '', 0.200000002980232, 0.200000002980232, 0.200000002980232 );
#420 = CARTESIAN_POINT( '', ( -2.28053356329903, -3.95000000000000, 5.00000000000000 ) );
#421 = CARTESIAN_POINT( '', ( -4.56106712659806, 2.64696400516013E-014, 5.00000000000000 ) );
#422 = VECTOR( '', #460, 1000.00000000000 );
#423 = CARTESIAN_POINT( '', ( -2.28053356329903, -3.95000000000000, 5.00000000000000 ) );
#424 = VECTOR( '', #461, 1000.00000000000 );
#425 = COLOUR_RGB( '', 0.200000002980232, 0.200000002980232, 0.200000002980232 );
#426 = CARTESIAN_POINT( '', ( 3.26524520967260, 0.000000000000000, 5.00000000000000 ) );
#427 = AXIS2_PLACEMENT_3D( '', #462, #463, #464 );
#428 = COLOUR_RGB( '', 0.200000002980232, 0.200000002980232, 0.200000002980232 );
#429 = COLOUR_RGB( '', 0.200000002980232, 0.200000002980232, 0.200000002980232 );
#430 = CARTESIAN_POINT( '', ( -2.28053356329902, -3.95000000000000, 5.00000000000000 ) );
#431 = VECTOR( '', #465, 1000.00000000000 );
#432 = COLOUR_RGB( '', 0.200000002980232, 0.200000002980232, 0.200000002980232 );
#433 = DIRECTION( '', ( 0.500000000000000, 0.866025403784438, 0.000000000000000 ) );
#434 = DIRECTION( '', ( 0.000000000000000, 0.000000000000000, -1.00000000000000 ) );
#435 = DIRECTION( '', ( 0.500000000000000, 0.866025403784438, 0.000000000000000 ) );
#436 = DIRECTION( '', ( 0.000000000000000, 0.000000000000000, -1.00000000000000 ) );
#437 = DIRECTION( '', ( -0.500000000000001, -0.866025403784438, 0.000000000000000 ) );
#438 = DIRECTION( '', ( 0.000000000000000, 0.000000000000000, -1.00000000000000 ) );
#439 = DIRECTION( '', ( -0.500000000000001, -0.866025403784438, 0.000000000000000 ) );
#440 = DIRECTION( '', ( 0.000000000000000, 0.000000000000000, -1.00000000000000 ) );
#441 = CARTESIAN_POINT( '', ( 0.000000000000000, 0.000000000000000, 5.56466625952427 ) );
#442 = DIRECTION( '', ( 0.000000000000000, 0.000000000000000, 1.00000000000000 ) );
#443 = DIRECTION( '', ( 1.00000000000000, 0.000000000000000, 0.000000000000000 ) );
#444 = CARTESIAN_POINT( '', ( 0.000000000000000, 0.000000000000000, 5.00000000000000 ) );
#445 = DIRECTION( '', ( 0.000000000000000, 0.000000000000000, 1.00000000000000 ) );
#446 = DIRECTION( '', ( 1.00000000000000, 0.000000000000000, 0.000000000000000 ) );
#447 = DIRECTION( '', ( -0.500000000000001, 0.866025403784438, 0.000000000000000 ) );
#448 = DIRECTION( '', ( -0.500000000000001, 0.866025403784438, 0.000000000000000 ) );
#449 = DIRECTION( '', ( 0.000000000000000, 0.000000000000000, -1.00000000000000 ) );
#450 = CARTESIAN_POINT( '', ( 0.000000000000000, 0.000000000000000, 5.23475479032740 ) );
#451 = DIRECTION( '', ( 0.000000000000000, 0.000000000000000, 1.00000000000000 ) );
#452 = DIRECTION( '', ( 1.00000000000000, 0.000000000000000, 0.000000000000000 ) );
#453 = CARTESIAN_POINT( '', ( 0.000000000000000, 0.000000000000000, 0.000000000000000 ) );
#454 = DIRECTION( '', ( 0.000000000000000, 0.000000000000000, 1.00000000000000 ) );
#455 = DIRECTION( '', ( 1.00000000000000, 0.000000000000000, 0.000000000000000 ) );
#456 = DIRECTION( '', ( -1.00000000000000, 0.000000000000000, 0.000000000000000 ) );
#457 = DIRECTION( '', ( 0.500000000000000, -0.866025403784439, 0.000000000000000 ) );
#458 = DIRECTION( '', ( 1.00000000000000, -1.90166404903437E-015, 0.000000000000000 ) );
#459 = DIRECTION( '', ( -1.00000000000000, 0.000000000000000, 0.000000000000000 ) );
#460 = DIRECTION( '', ( 0.500000000000000, -0.866025403784439, 0.000000000000000 ) );
#461 = DIRECTION( '', ( 0.000000000000000, 0.000000000000000, -1.00000000000000 ) );
#462 = CARTESIAN_POINT( '', ( 0.000000000000000, 0.000000000000000, 5.00000000000000 ) );
#463 = DIRECTION( '', ( 0.000000000000000, 0.000000000000000, 1.00000000000000 ) );
#464 = DIRECTION( '', ( 1.00000000000000, 0.000000000000000, 0.000000000000000 ) );
#465 = DIRECTION( '', ( 1.00000000000000, -1.90166404903437E-015, 0.000000000000000 ) );
ENDSEC;
END-ISO-10303-21;
