ISO-10303-21;
HEADER;
FILE_DESCRIPTION( ( 'Unknown' ), '1' );
FILE_NAME( '//SBS2003/HD_Usb/Disegni/08_LIB/Users_3D/PROD_GAMM_3D/CD/7371455_CD10.stp', 'Unknown', ( 'Unknown' ), ( 'Unknown' ), 'PSStep 14.0', 'Unknown', '  ' );
FILE_SCHEMA( ( 'AUTOMOTIVE_DESIGN { 1 0 10303 214 1 1 1 1 }' ) );
ENDSEC;
DATA;
#1 = MECHANICAL_DESIGN_GEOMETRIC_PRESENTATION_REPRESENTATION( ' ', ( #10, #11, #12, #13, #14, #15, #16, #17, #18, #19, #20, #21, #22 ), #6 );
#2 = PRODUCT_DEFINITION_CONTEXT( '', #23, 'design' );
#3 = APPLICATION_PROTOCOL_DEFINITION( 'international standard', 'automotive_design', 2001, #23 );
#4 = PRODUCT_CATEGORY_RELATIONSHIP( 'NONE', 'NONE', #24, #25 );
#5 = SHAPE_DEFINITION_REPRESENTATION( #26, #27 );
#6 =  ( GEOMETRIC_REPRESENTATION_CONTEXT( 3 )GLOBAL_UNCERTAINTY_ASSIGNED_CONTEXT( ( #30 ) )GLOBAL_UNIT_ASSIGNED_CONTEXT( ( #32, #33, #34 ) )REPRESENTATION_CONTEXT( 'NONE', 'WORKSPACE' ) );
#10 = STYLED_ITEM( '', ( #36 ), #37 );
#11 = STYLED_ITEM( '', ( #38 ), #39 );
#12 = STYLED_ITEM( '', ( #40 ), #41 );
#13 = STYLED_ITEM( '', ( #42 ), #43 );
#14 = STYLED_ITEM( '', ( #44 ), #45 );
#15 = STYLED_ITEM( '', ( #46 ), #47 );
#16 = STYLED_ITEM( '', ( #48 ), #49 );
#17 = STYLED_ITEM( '', ( #50 ), #51 );
#18 = STYLED_ITEM( '', ( #52 ), #53 );
#19 = STYLED_ITEM( '', ( #54 ), #55 );
#20 = STYLED_ITEM( '', ( #56 ), #57 );
#21 = STYLED_ITEM( '', ( #58 ), #59 );
#22 = STYLED_ITEM( '', ( #60 ), #61 );
#23 = APPLICATION_CONTEXT( 'core data for automotive mechanical design processes' );
#24 = PRODUCT_CATEGORY( 'part', 'NONE' );
#25 = PRODUCT_RELATED_PRODUCT_CATEGORY( 'detail', ' ', ( #62 ) );
#26 = PRODUCT_DEFINITION_SHAPE( 'NONE', 'NONE', #63 );
#27 = ADVANCED_BREP_SHAPE_REPRESENTATION( '1', ( #64, #65 ), #6 );
#30 = UNCERTAINTY_MEASURE_WITH_UNIT( LENGTH_MEASURE( 0.00100000000000000 ), #32, '', '' );
#32 =  ( CONVERSION_BASED_UNIT( 'MILLIMETRE', #68 )LENGTH_UNIT(  )NAMED_UNIT( #71 ) );
#33 =  ( NAMED_UNIT( #73 )PLANE_ANGLE_UNIT(  )SI_UNIT( $, .RADIAN. ) );
#34 =  ( NAMED_UNIT( #73 )SI_UNIT( $, .STERADIAN. )SOLID_ANGLE_UNIT(  ) );
#36 = PRESENTATION_STYLE_ASSIGNMENT( ( #79 ) );
#37 = ADVANCED_FACE( '', ( #80 ), #81, .T. );
#38 = PRESENTATION_STYLE_ASSIGNMENT( ( #82 ) );
#39 = ADVANCED_FACE( '', ( #83 ), #84, .T. );
#40 = PRESENTATION_STYLE_ASSIGNMENT( ( #85 ) );
#41 = ADVANCED_FACE( '', ( #86 ), #87, .T. );
#42 = PRESENTATION_STYLE_ASSIGNMENT( ( #88 ) );
#43 = ADVANCED_FACE( '', ( #89 ), #90, .T. );
#44 = PRESENTATION_STYLE_ASSIGNMENT( ( #91 ) );
#45 = ADVANCED_FACE( '', ( #92 ), #93, .T. );
#46 = PRESENTATION_STYLE_ASSIGNMENT( ( #94 ) );
#47 = ADVANCED_FACE( '', ( #95 ), #96, .T. );
#48 = PRESENTATION_STYLE_ASSIGNMENT( ( #97 ) );
#49 = ADVANCED_FACE( '', ( #98, #99 ), #100, .T. );
#50 = PRESENTATION_STYLE_ASSIGNMENT( ( #101 ) );
#51 = ADVANCED_FACE( '', ( #102, #103 ), #104, .F. );
#52 = PRESENTATION_STYLE_ASSIGNMENT( ( #105 ) );
#53 = ADVANCED_FACE( '', ( #106, #107 ), #108, .F. );
#54 = PRESENTATION_STYLE_ASSIGNMENT( ( #109 ) );
#55 = ADVANCED_FACE( '', ( #110 ), #111, .F. );
#56 = PRESENTATION_STYLE_ASSIGNMENT( ( #112 ) );
#57 = ADVANCED_FACE( '', ( #113, #114 ), #115, .F. );
#58 = PRESENTATION_STYLE_ASSIGNMENT( ( #116 ) );
#59 = ADVANCED_FACE( '', ( #117, #118 ), #119, .T. );
#60 = PRESENTATION_STYLE_ASSIGNMENT( ( #120 ) );
#61 = ADVANCED_FACE( '', ( #121 ), #122, .T. );
#62 = PRODUCT( '1', '1', 'PART-1-DESC', ( #123 ) );
#63 = PRODUCT_DEFINITION( 'NONE', 'NONE', #124, #2 );
#64 = MANIFOLD_SOLID_BREP( '1', #125 );
#65 = AXIS2_PLACEMENT_3D( '', #126, #127, #128 );
#68 = LENGTH_MEASURE_WITH_UNIT( LENGTH_MEASURE( 1.00000000000000 ), #129 );
#71 = DIMENSIONAL_EXPONENTS( 1.00000000000000, 0.000000000000000, 0.000000000000000, 0.000000000000000, 0.000000000000000, 0.000000000000000, 0.000000000000000 );
#73 = DIMENSIONAL_EXPONENTS( 0.000000000000000, 0.000000000000000, 0.000000000000000, 0.000000000000000, 0.000000000000000, 0.000000000000000, 0.000000000000000 );
#79 = SURFACE_STYLE_USAGE( .BOTH., #130 );
#80 = FACE_OUTER_BOUND( '', #131, .T. );
#81 = PLANE( '', #132 );
#82 = SURFACE_STYLE_USAGE( .BOTH., #133 );
#83 = FACE_OUTER_BOUND( '', #134, .T. );
#84 = PLANE( '', #135 );
#85 = SURFACE_STYLE_USAGE( .BOTH., #136 );
#86 = FACE_OUTER_BOUND( '', #137, .T. );
#87 = SPHERICAL_SURFACE( '', #138, 5.75000000000000 );
#88 = SURFACE_STYLE_USAGE( .BOTH., #139 );
#89 = FACE_OUTER_BOUND( '', #140, .T. );
#90 = PLANE( '', #141 );
#91 = SURFACE_STYLE_USAGE( .BOTH., #142 );
#92 = FACE_OUTER_BOUND( '', #143, .T. );
#93 = PLANE( '', #144 );
#94 = SURFACE_STYLE_USAGE( .BOTH., #145 );
#95 = FACE_OUTER_BOUND( '', #146, .T. );
#96 = PLANE( '', #147 );
#97 = SURFACE_STYLE_USAGE( .BOTH., #148 );
#98 = FACE_BOUND( '', #149, .T. );
#99 = FACE_OUTER_BOUND( '', #150, .T. );
#100 = CONICAL_SURFACE( '', #151, 6.45000000000000, 0.785398163397450 );
#101 = SURFACE_STYLE_USAGE( .BOTH., #152 );
#102 = FACE_OUTER_BOUND( '', #153, .T. );
#103 = FACE_BOUND( '', #154, .T. );
#104 = PLANE( '', #155 );
#105 = SURFACE_STYLE_USAGE( .BOTH., #156 );
#106 = FACE_BOUND( '', #157, .T. );
#107 = FACE_OUTER_BOUND( '', #158, .T. );
#108 = PLANE( '', #159 );
#109 = SURFACE_STYLE_USAGE( .BOTH., #160 );
#110 = FACE_OUTER_BOUND( '', #161, .T. );
#111 = SPHERICAL_SURFACE( '', #162, 4.75000000000000 );
#112 = SURFACE_STYLE_USAGE( .BOTH., #163 );
#113 = FACE_OUTER_BOUND( '', #164, .T. );
#114 = FACE_OUTER_BOUND( '', #165, .T. );
#115 = CYLINDRICAL_SURFACE( '', #166, 4.75000000000000 );
#116 = SURFACE_STYLE_USAGE( .BOTH., #167 );
#117 = FACE_OUTER_BOUND( '', #168, .T. );
#118 = FACE_OUTER_BOUND( '', #169, .T. );
#119 = CYLINDRICAL_SURFACE( '', #170, 6.45000000000000 );
#120 = SURFACE_STYLE_USAGE( .BOTH., #171 );
#121 = FACE_OUTER_BOUND( '', #172, .T. );
#122 = PLANE( '', #173 );
#123 = PRODUCT_CONTEXT( '', #23, 'mechanical' );
#124 = PRODUCT_DEFINITION_FORMATION_WITH_SPECIFIED_SOURCE( ' ', 'NONE', #62, .NOT_KNOWN. );
#125 = CLOSED_SHELL( '', ( #51, #41, #39, #45, #53, #59, #37, #43, #47, #61, #57, #55, #49 ) );
#126 = CARTESIAN_POINT( '', ( 0.000000000000000, 0.000000000000000, 0.000000000000000 ) );
#127 = DIRECTION( '', ( 0.000000000000000, 0.000000000000000, 1.00000000000000 ) );
#128 = DIRECTION( '', ( 1.00000000000000, 0.000000000000000, 0.000000000000000 ) );
#129 =  ( LENGTH_UNIT(  )NAMED_UNIT( #71 )SI_UNIT( .MILLI., .METRE. ) );
#130 = SURFACE_SIDE_STYLE( '', ( #175 ) );
#131 = EDGE_LOOP( '', ( #176, #177, #178, #179 ) );
#132 = AXIS2_PLACEMENT_3D( '', #180, #181, #182 );
#133 = SURFACE_SIDE_STYLE( '', ( #183 ) );
#134 = EDGE_LOOP( '', ( #184, #185, #186, #187 ) );
#135 = AXIS2_PLACEMENT_3D( '', #188, #189, #190 );
#136 = SURFACE_SIDE_STYLE( '', ( #191 ) );
#137 = EDGE_LOOP( '', ( #192 ) );
#138 = AXIS2_PLACEMENT_3D( '', #193, #194, #195 );
#139 = SURFACE_SIDE_STYLE( '', ( #196 ) );
#140 = EDGE_LOOP( '', ( #197, #198, #199, #200 ) );
#141 = AXIS2_PLACEMENT_3D( '', #201, #202, #203 );
#142 = SURFACE_SIDE_STYLE( '', ( #204 ) );
#143 = EDGE_LOOP( '', ( #205, #206, #207, #208 ) );
#144 = AXIS2_PLACEMENT_3D( '', #209, #210, #211 );
#145 = SURFACE_SIDE_STYLE( '', ( #212 ) );
#146 = EDGE_LOOP( '', ( #213, #214, #215, #216 ) );
#147 = AXIS2_PLACEMENT_3D( '', #217, #218, #219 );
#148 = SURFACE_SIDE_STYLE( '', ( #220 ) );
#149 = EDGE_LOOP( '', ( #221 ) );
#150 = EDGE_LOOP( '', ( #222 ) );
#151 = AXIS2_PLACEMENT_3D( '', #223, #224, #225 );
#152 = SURFACE_SIDE_STYLE( '', ( #226 ) );
#153 = EDGE_LOOP( '', ( #227 ) );
#154 = EDGE_LOOP( '', ( #228, #229, #230, #231, #232, #233 ) );
#155 = AXIS2_PLACEMENT_3D( '', #234, #235, #236 );
#156 = SURFACE_SIDE_STYLE( '', ( #237 ) );
#157 = EDGE_LOOP( '', ( #238 ) );
#158 = EDGE_LOOP( '', ( #239, #240, #241, #242, #243, #244 ) );
#159 = AXIS2_PLACEMENT_3D( '', #245, #246, #247 );
#160 = SURFACE_SIDE_STYLE( '', ( #248 ) );
#161 = EDGE_LOOP( '', ( #249 ) );
#162 = AXIS2_PLACEMENT_3D( '', #250, #251, #252 );
#163 = SURFACE_SIDE_STYLE( '', ( #253 ) );
#164 = EDGE_LOOP( '', ( #254 ) );
#165 = EDGE_LOOP( '', ( #255 ) );
#166 = AXIS2_PLACEMENT_3D( '', #256, #257, #258 );
#167 = SURFACE_SIDE_STYLE( '', ( #259 ) );
#168 = EDGE_LOOP( '', ( #260 ) );
#169 = EDGE_LOOP( '', ( #261 ) );
#170 = AXIS2_PLACEMENT_3D( '', #262, #263, #264 );
#171 = SURFACE_SIDE_STYLE( '', ( #265 ) );
#172 = EDGE_LOOP( '', ( #266, #267, #268, #269 ) );
#173 = AXIS2_PLACEMENT_3D( '', #270, #271, #272 );
#175 = SURFACE_STYLE_FILL_AREA( #273 );
#176 = ORIENTED_EDGE( '', *, *, #274, .F. );
#177 = ORIENTED_EDGE( '', *, *, #275, .F. );
#178 = ORIENTED_EDGE( '', *, *, #276, .T. );
#179 = ORIENTED_EDGE( '', *, *, #277, .T. );
#180 = CARTESIAN_POINT( '', ( 5.65803263805834, -5.02385173373890E-014, 6.00000000000000 ) );
#181 = DIRECTION( '', ( -0.866025403784439, -0.500000000000000, 0.000000000000000 ) );
#182 = DIRECTION( '', ( 0.500000000000000, -0.866025403784439, 0.000000000000000 ) );
#183 = SURFACE_STYLE_FILL_AREA( #278 );
#184 = ORIENTED_EDGE( '', *, *, #279, .F. );
#185 = ORIENTED_EDGE( '', *, *, #280, .F. );
#186 = ORIENTED_EDGE( '', *, *, #281, .T. );
#187 = ORIENTED_EDGE( '', *, *, #282, .T. );
#188 = CARTESIAN_POINT( '', ( -2.82901631902916, -4.90000000000000, 6.00000000000000 ) );
#189 = DIRECTION( '', ( -3.52584038479130E-015, 1.00000000000000, 0.000000000000000 ) );
#190 = DIRECTION( '', ( -1.00000000000000, -3.52584038479130E-015, 0.000000000000000 ) );
#191 = SURFACE_STYLE_FILL_AREA( #283 );
#192 = ORIENTED_EDGE( '', *, *, #284, .T. );
#193 = CARTESIAN_POINT( '', ( 0.000000000000000, 0.000000000000000, 7.25000000000000 ) );
#194 = DIRECTION( '', ( 0.000000000000000, 0.000000000000000, 1.00000000000000 ) );
#195 = DIRECTION( '', ( 1.00000000000000, 0.000000000000000, 0.000000000000000 ) );
#196 = SURFACE_STYLE_FILL_AREA( #285 );
#197 = ORIENTED_EDGE( '', *, *, #286, .F. );
#198 = ORIENTED_EDGE( '', *, *, #277, .F. );
#199 = ORIENTED_EDGE( '', *, *, #287, .T. );
#200 = ORIENTED_EDGE( '', *, *, #288, .T. );
#201 = CARTESIAN_POINT( '', ( 2.82901631902916, 4.90000000000000, 6.00000000000000 ) );
#202 = DIRECTION( '', ( 5.36540928120415E-015, -1.00000000000000, 0.000000000000000 ) );
#203 = DIRECTION( '', ( 1.00000000000000, 5.36540928120415E-015, 0.000000000000000 ) );
#204 = SURFACE_STYLE_FILL_AREA( #289 );
#205 = ORIENTED_EDGE( '', *, *, #290, .F. );
#206 = ORIENTED_EDGE( '', *, *, #282, .F. );
#207 = ORIENTED_EDGE( '', *, *, #291, .T. );
#208 = ORIENTED_EDGE( '', *, *, #275, .T. );
#209 = CARTESIAN_POINT( '', ( 2.82901631902916, -4.90000000000000, 6.00000000000000 ) );
#210 = DIRECTION( '', ( -0.866025403784438, 0.500000000000001, 0.000000000000000 ) );
#211 = DIRECTION( '', ( -0.500000000000001, -0.866025403784438, 0.000000000000000 ) );
#212 = SURFACE_STYLE_FILL_AREA( #292 );
#213 = ORIENTED_EDGE( '', *, *, #293, .F. );
#214 = ORIENTED_EDGE( '', *, *, #288, .F. );
#215 = ORIENTED_EDGE( '', *, *, #294, .T. );
#216 = ORIENTED_EDGE( '', *, *, #295, .T. );
#217 = CARTESIAN_POINT( '', ( -2.82901631902916, 4.89999999999994, 6.00000000000000 ) );
#218 = DIRECTION( '', ( 0.866025403784438, -0.500000000000001, 0.000000000000000 ) );
#219 = DIRECTION( '', ( 0.500000000000001, 0.866025403784438, 0.000000000000000 ) );
#220 = SURFACE_STYLE_FILL_AREA( #296 );
#221 = ORIENTED_EDGE( '', *, *, #284, .F. );
#222 = ORIENTED_EDGE( '', *, *, #297, .T. );
#223 = CARTESIAN_POINT( '', ( 0.000000000000000, 0.000000000000000, 6.00000000000000 ) );
#224 = DIRECTION( '', ( -0.000000000000000, 0.000000000000000, -1.00000000000000 ) );
#225 = DIRECTION( '', ( -1.00000000000000, 0.000000000000000, 0.000000000000000 ) );
#226 = SURFACE_STYLE_FILL_AREA( #298 );
#227 = ORIENTED_EDGE( '', *, *, #299, .F. );
#228 = ORIENTED_EDGE( '', *, *, #286, .T. );
#229 = ORIENTED_EDGE( '', *, *, #293, .T. );
#230 = ORIENTED_EDGE( '', *, *, #300, .T. );
#231 = ORIENTED_EDGE( '', *, *, #279, .T. );
#232 = ORIENTED_EDGE( '', *, *, #290, .T. );
#233 = ORIENTED_EDGE( '', *, *, #274, .T. );
#234 = CARTESIAN_POINT( '', ( 0.000000000000000, 0.000000000000000, 4.50137509112285E-017 ) );
#235 = DIRECTION( '', ( 0.000000000000000, 0.000000000000000, 1.00000000000000 ) );
#236 = DIRECTION( '', ( 1.00000000000000, 0.000000000000000, 0.000000000000000 ) );
#237 = SURFACE_STYLE_FILL_AREA( #301 );
#238 = ORIENTED_EDGE( '', *, *, #302, .T. );
#239 = ORIENTED_EDGE( '', *, *, #287, .F. );
#240 = ORIENTED_EDGE( '', *, *, #276, .F. );
#241 = ORIENTED_EDGE( '', *, *, #291, .F. );
#242 = ORIENTED_EDGE( '', *, *, #281, .F. );
#243 = ORIENTED_EDGE( '', *, *, #303, .F. );
#244 = ORIENTED_EDGE( '', *, *, #294, .F. );
#245 = CARTESIAN_POINT( '', ( 0.000000000000000, 0.000000000000000, 6.00000000000000 ) );
#246 = DIRECTION( '', ( 0.000000000000000, 0.000000000000000, 1.00000000000000 ) );
#247 = DIRECTION( '', ( 1.00000000000000, 0.000000000000000, 0.000000000000000 ) );
#248 = SURFACE_STYLE_FILL_AREA( #304 );
#249 = ORIENTED_EDGE( '', *, *, #305, .F. );
#250 = CARTESIAN_POINT( '', ( 0.000000000000000, 0.000000000000000, 7.25000000000000 ) );
#251 = DIRECTION( '', ( 0.000000000000000, 0.000000000000000, 1.00000000000000 ) );
#252 = DIRECTION( '', ( -1.00000000000000, 0.000000000000000, 0.000000000000000 ) );
#253 = SURFACE_STYLE_FILL_AREA( #306 );
#254 = ORIENTED_EDGE( '', *, *, #302, .F. );
#255 = ORIENTED_EDGE( '', *, *, #305, .T. );
#256 = CARTESIAN_POINT( '', ( 0.000000000000000, 0.000000000000000, 7.50000000000000 ) );
#257 = DIRECTION( '', ( -0.000000000000000, -0.000000000000000, -1.00000000000000 ) );
#258 = DIRECTION( '', ( 1.00000000000000, 0.000000000000000, 0.000000000000000 ) );
#259 = SURFACE_STYLE_FILL_AREA( #307 );
#260 = ORIENTED_EDGE( '', *, *, #297, .F. );
#261 = ORIENTED_EDGE( '', *, *, #299, .T. );
#262 = CARTESIAN_POINT( '', ( 0.000000000000000, 0.000000000000000, 57.1500000000000 ) );
#263 = DIRECTION( '', ( -0.000000000000000, -0.000000000000000, -1.00000000000000 ) );
#264 = DIRECTION( '', ( 1.00000000000000, 0.000000000000000, 0.000000000000000 ) );
#265 = SURFACE_STYLE_FILL_AREA( #308 );
#266 = ORIENTED_EDGE( '', *, *, #300, .F. );
#267 = ORIENTED_EDGE( '', *, *, #295, .F. );
#268 = ORIENTED_EDGE( '', *, *, #303, .T. );
#269 = ORIENTED_EDGE( '', *, *, #280, .T. );
#270 = CARTESIAN_POINT( '', ( -5.65803263805833, -4.95456081814220E-014, 6.00000000000000 ) );
#271 = DIRECTION( '', ( 0.866025403784438, 0.500000000000001, 0.000000000000000 ) );
#272 = DIRECTION( '', ( -0.500000000000001, 0.866025403784438, 0.000000000000000 ) );
#273 = FILL_AREA_STYLE( '', ( #309 ) );
#274 = EDGE_CURVE( '', #310, #311, #312, .T. );
#275 = EDGE_CURVE( '', #313, #310, #314, .T. );
#276 = EDGE_CURVE( '', #313, #315, #316, .T. );
#277 = EDGE_CURVE( '', #315, #311, #317, .T. );
#278 = FILL_AREA_STYLE( '', ( #318 ) );
#279 = EDGE_CURVE( '', #319, #320, #321, .T. );
#280 = EDGE_CURVE( '', #322, #319, #323, .T. );
#281 = EDGE_CURVE( '', #322, #324, #325, .T. );
#282 = EDGE_CURVE( '', #324, #320, #326, .T. );
#283 = FILL_AREA_STYLE( '', ( #327 ) );
#284 = EDGE_CURVE( '', #328, #328, #329, .T. );
#285 = FILL_AREA_STYLE( '', ( #330 ) );
#286 = EDGE_CURVE( '', #311, #331, #332, .T. );
#287 = EDGE_CURVE( '', #315, #333, #334, .T. );
#288 = EDGE_CURVE( '', #333, #331, #335, .T. );
#289 = FILL_AREA_STYLE( '', ( #336 ) );
#290 = EDGE_CURVE( '', #320, #310, #337, .T. );
#291 = EDGE_CURVE( '', #324, #313, #338, .T. );
#292 = FILL_AREA_STYLE( '', ( #339 ) );
#293 = EDGE_CURVE( '', #331, #340, #341, .T. );
#294 = EDGE_CURVE( '', #333, #342, #343, .T. );
#295 = EDGE_CURVE( '', #342, #340, #344, .T. );
#296 = FILL_AREA_STYLE( '', ( #345 ) );
#297 = EDGE_CURVE( '', #346, #346, #347, .T. );
#298 = FILL_AREA_STYLE( '', ( #348 ) );
#299 = EDGE_CURVE( '', #349, #349, #350, .T. );
#300 = EDGE_CURVE( '', #340, #319, #351, .T. );
#301 = FILL_AREA_STYLE( '', ( #352 ) );
#302 = EDGE_CURVE( '', #353, #353, #354, .T. );
#303 = EDGE_CURVE( '', #342, #322, #355, .T. );
#304 = FILL_AREA_STYLE( '', ( #356 ) );
#305 = EDGE_CURVE( '', #357, #357, #358, .T. );
#306 = FILL_AREA_STYLE( '', ( #359 ) );
#307 = FILL_AREA_STYLE( '', ( #360 ) );
#308 = FILL_AREA_STYLE( '', ( #361 ) );
#309 = FILL_AREA_STYLE_COLOUR( '', #362 );
#310 = VERTEX_POINT( '', #363 );
#311 = VERTEX_POINT( '', #364 );
#312 = LINE( '', #365, #366 );
#313 = VERTEX_POINT( '', #367 );
#314 = LINE( '', #368, #369 );
#315 = VERTEX_POINT( '', #370 );
#316 = LINE( '', #371, #372 );
#317 = LINE( '', #373, #374 );
#318 = FILL_AREA_STYLE_COLOUR( '', #375 );
#319 = VERTEX_POINT( '', #376 );
#320 = VERTEX_POINT( '', #377 );
#321 = LINE( '', #378, #379 );
#322 = VERTEX_POINT( '', #380 );
#323 = LINE( '', #381, #382 );
#324 = VERTEX_POINT( '', #383 );
#325 = LINE( '', #384, #385 );
#326 = LINE( '', #386, #387 );
#327 = FILL_AREA_STYLE_COLOUR( '', #388 );
#328 = VERTEX_POINT( '', #389 );
#329 = CIRCLE( '', #390, 5.72589987043731 );
#330 = FILL_AREA_STYLE_COLOUR( '', #391 );
#331 = VERTEX_POINT( '', #392 );
#332 = LINE( '', #393, #394 );
#333 = VERTEX_POINT( '', #395 );
#334 = LINE( '', #396, #397 );
#335 = LINE( '', #398, #399 );
#336 = FILL_AREA_STYLE_COLOUR( '', #400 );
#337 = LINE( '', #401, #402 );
#338 = LINE( '', #403, #404 );
#339 = FILL_AREA_STYLE_COLOUR( '', #405 );
#340 = VERTEX_POINT( '', #406 );
#341 = LINE( '', #407, #408 );
#342 = VERTEX_POINT( '', #409 );
#343 = LINE( '', #410, #411 );
#344 = LINE( '', #412, #413 );
#345 = FILL_AREA_STYLE_COLOUR( '', #414 );
#346 = VERTEX_POINT( '', #415 );
#347 = CIRCLE( '', #416, 6.45000000000000 );
#348 = FILL_AREA_STYLE_COLOUR( '', #417 );
#349 = VERTEX_POINT( '', #418 );
#350 = CIRCLE( '', #419, 6.45000000000000 );
#351 = LINE( '', #420, #421 );
#352 = FILL_AREA_STYLE_COLOUR( '', #422 );
#353 = VERTEX_POINT( '', #423 );
#354 = CIRCLE( '', #424, 4.75000000000000 );
#355 = LINE( '', #425, #426 );
#356 = FILL_AREA_STYLE_COLOUR( '', #427 );
#357 = VERTEX_POINT( '', #428 );
#358 = CIRCLE( '', #429, 4.75000000000000 );
#359 = FILL_AREA_STYLE_COLOUR( '', #430 );
#360 = FILL_AREA_STYLE_COLOUR( '', #431 );
#361 = FILL_AREA_STYLE_COLOUR( '', #432 );
#362 = COLOUR_RGB( '', 0.200000002980232, 0.200000002980232, 0.200000002980232 );
#363 = CARTESIAN_POINT( '', ( 5.65803263805834, -5.03069808033274E-014, 0.000000000000000 ) );
#364 = CARTESIAN_POINT( '', ( 2.82901631902916, 4.90000000000000, 4.50137509112285E-017 ) );
#365 = CARTESIAN_POINT( '', ( 5.65803263805834, -5.02385173373890E-014, 0.000000000000000 ) );
#366 = VECTOR( '', #433, 1000.00000000000 );
#367 = CARTESIAN_POINT( '', ( 5.65803263805834, -5.03069808033274E-014, 6.00000000000000 ) );
#368 = CARTESIAN_POINT( '', ( 5.65803263805834, -5.03069808033274E-014, 6.00000000000000 ) );
#369 = VECTOR( '', #434, 1000.00000000000 );
#370 = CARTESIAN_POINT( '', ( 2.82901631902916, 4.90000000000000, 6.00000000000000 ) );
#371 = CARTESIAN_POINT( '', ( 5.65803263805834, -5.02385173373890E-014, 6.00000000000000 ) );
#372 = VECTOR( '', #435, 1000.00000000000 );
#373 = CARTESIAN_POINT( '', ( 2.82901631902916, 4.90000000000000, 6.00000000000000 ) );
#374 = VECTOR( '', #436, 1000.00000000000 );
#375 = COLOUR_RGB( '', 0.200000002980232, 0.200000002980232, 0.200000002980232 );
#376 = CARTESIAN_POINT( '', ( -2.82901631902916, -4.90000000000000, 0.000000000000000 ) );
#377 = CARTESIAN_POINT( '', ( 2.82901631902916, -4.90000000000000, 0.000000000000000 ) );
#378 = CARTESIAN_POINT( '', ( -2.82901631902916, -4.90000000000000, 0.000000000000000 ) );
#379 = VECTOR( '', #437, 1000.00000000000 );
#380 = CARTESIAN_POINT( '', ( -2.82901631902916, -4.90000000000000, 6.00000000000000 ) );
#381 = CARTESIAN_POINT( '', ( -2.82901631902916, -4.90000000000000, 6.00000000000000 ) );
#382 = VECTOR( '', #438, 1000.00000000000 );
#383 = CARTESIAN_POINT( '', ( 2.82901631902916, -4.90000000000000, 6.00000000000000 ) );
#384 = CARTESIAN_POINT( '', ( -2.82901631902916, -4.90000000000000, 6.00000000000000 ) );
#385 = VECTOR( '', #439, 1000.00000000000 );
#386 = CARTESIAN_POINT( '', ( 2.82901631902916, -4.90000000000000, 6.00000000000000 ) );
#387 = VECTOR( '', #440, 1000.00000000000 );
#388 = COLOUR_RGB( '', 0.200000002980232, 0.200000002980232, 0.200000002980232 );
#389 = CARTESIAN_POINT( '', ( 5.72589987043731, 0.000000000000000, 6.72410012956268 ) );
#390 = AXIS2_PLACEMENT_3D( '', #441, #442, #443 );
#391 = COLOUR_RGB( '', 0.200000002980232, 0.200000002980232, 0.200000002980232 );
#392 = CARTESIAN_POINT( '', ( -2.82901631902916, 4.89999999999994, 0.000000000000000 ) );
#393 = CARTESIAN_POINT( '', ( 2.82901631902916, 4.90000000000000, 0.000000000000000 ) );
#394 = VECTOR( '', #444, 1000.00000000000 );
#395 = CARTESIAN_POINT( '', ( -2.82901631902916, 4.89999999999994, 6.00000000000000 ) );
#396 = CARTESIAN_POINT( '', ( 2.82901631902916, 4.90000000000000, 6.00000000000000 ) );
#397 = VECTOR( '', #445, 1000.00000000000 );
#398 = CARTESIAN_POINT( '', ( -2.82901631902916, 4.89999999999994, 6.00000000000000 ) );
#399 = VECTOR( '', #446, 1000.00000000000 );
#400 = COLOUR_RGB( '', 0.200000002980232, 0.200000002980232, 0.200000002980232 );
#401 = CARTESIAN_POINT( '', ( 2.82901631902916, -4.90000000000000, 0.000000000000000 ) );
#402 = VECTOR( '', #447, 999.999999999999 );
#403 = CARTESIAN_POINT( '', ( 2.82901631902916, -4.90000000000000, 6.00000000000000 ) );
#404 = VECTOR( '', #448, 999.999999999999 );
#405 = COLOUR_RGB( '', 0.200000002980232, 0.200000002980232, 0.200000002980232 );
#406 = CARTESIAN_POINT( '', ( -5.65803263805833, -5.03069808033274E-014, 0.000000000000000 ) );
#407 = CARTESIAN_POINT( '', ( -2.82901631902916, 4.89999999999994, 0.000000000000000 ) );
#408 = VECTOR( '', #449, 999.999999999999 );
#409 = CARTESIAN_POINT( '', ( -5.65803263805833, -5.03069808033274E-014, 6.00000000000000 ) );
#410 = CARTESIAN_POINT( '', ( -2.82901631902916, 4.89999999999994, 6.00000000000000 ) );
#411 = VECTOR( '', #450, 999.999999999999 );
#412 = CARTESIAN_POINT( '', ( -5.65803263805833, -5.03069808033274E-014, 6.00000000000000 ) );
#413 = VECTOR( '', #451, 1000.00000000000 );
#414 = COLOUR_RGB( '', 0.200000002980232, 0.200000002980232, 0.200000002980232 );
#415 = CARTESIAN_POINT( '', ( 6.45000000000000, 0.000000000000000, 6.00000000000000 ) );
#416 = AXIS2_PLACEMENT_3D( '', #452, #453, #454 );
#417 = COLOUR_RGB( '', 0.200000002980232, 0.200000002980232, 0.200000002980232 );
#418 = CARTESIAN_POINT( '', ( 6.45000000000000, 0.000000000000000, 0.000000000000000 ) );
#419 = AXIS2_PLACEMENT_3D( '', #455, #456, #457 );
#420 = CARTESIAN_POINT( '', ( -5.65803263805833, -4.95456081814220E-014, 0.000000000000000 ) );
#421 = VECTOR( '', #458, 999.999999999999 );
#422 = COLOUR_RGB( '', 0.200000002980232, 0.200000002980232, 0.200000002980232 );
#423 = CARTESIAN_POINT( '', ( 4.75000000000000, 0.000000000000000, 6.00000000000000 ) );
#424 = AXIS2_PLACEMENT_3D( '', #459, #460, #461 );
#425 = CARTESIAN_POINT( '', ( -5.65803263805833, -4.95456081814220E-014, 6.00000000000000 ) );
#426 = VECTOR( '', #462, 999.999999999999 );
#427 = COLOUR_RGB( '', 0.200000002980232, 0.200000002980232, 0.200000002980232 );
#428 = CARTESIAN_POINT( '', ( 4.75000000000000, 0.000000000000000, 7.25000000000000 ) );
#429 = AXIS2_PLACEMENT_3D( '', #463, #464, #465 );
#430 = COLOUR_RGB( '', 0.200000002980232, 0.200000002980232, 0.200000002980232 );
#431 = COLOUR_RGB( '', 0.200000002980232, 0.200000002980232, 0.200000002980232 );
#432 = COLOUR_RGB( '', 0.200000002980232, 0.200000002980232, 0.200000002980232 );
#433 = DIRECTION( '', ( -0.500000000000000, 0.866025403784439, 0.000000000000000 ) );
#434 = DIRECTION( '', ( 0.000000000000000, 0.000000000000000, -1.00000000000000 ) );
#435 = DIRECTION( '', ( -0.500000000000000, 0.866025403784439, 0.000000000000000 ) );
#436 = DIRECTION( '', ( 0.000000000000000, 0.000000000000000, -1.00000000000000 ) );
#437 = DIRECTION( '', ( 1.00000000000000, 3.52584038479130E-015, 0.000000000000000 ) );
#438 = DIRECTION( '', ( 0.000000000000000, 0.000000000000000, -1.00000000000000 ) );
#439 = DIRECTION( '', ( 1.00000000000000, 3.52584038479130E-015, 0.000000000000000 ) );
#440 = DIRECTION( '', ( 0.000000000000000, 0.000000000000000, -1.00000000000000 ) );
#441 = CARTESIAN_POINT( '', ( 0.000000000000000, 0.000000000000000, 6.72410012956268 ) );
#442 = DIRECTION( '', ( 0.000000000000000, 0.000000000000000, 1.00000000000000 ) );
#443 = DIRECTION( '', ( 1.00000000000000, 0.000000000000000, 0.000000000000000 ) );
#444 = DIRECTION( '', ( -1.00000000000000, -5.36540928120415E-015, 0.000000000000000 ) );
#445 = DIRECTION( '', ( -1.00000000000000, -5.36540928120415E-015, 0.000000000000000 ) );
#446 = DIRECTION( '', ( 0.000000000000000, 0.000000000000000, -1.00000000000000 ) );
#447 = DIRECTION( '', ( 0.500000000000001, 0.866025403784438, 0.000000000000000 ) );
#448 = DIRECTION( '', ( 0.500000000000001, 0.866025403784438, 0.000000000000000 ) );
#449 = DIRECTION( '', ( -0.500000000000000, -0.866025403784438, 0.000000000000000 ) );
#450 = DIRECTION( '', ( -0.500000000000000, -0.866025403784438, 0.000000000000000 ) );
#451 = DIRECTION( '', ( 0.000000000000000, 0.000000000000000, -1.00000000000000 ) );
#452 = CARTESIAN_POINT( '', ( 0.000000000000000, 0.000000000000000, 6.00000000000000 ) );
#453 = DIRECTION( '', ( 0.000000000000000, 0.000000000000000, 1.00000000000000 ) );
#454 = DIRECTION( '', ( 1.00000000000000, 0.000000000000000, 0.000000000000000 ) );
#455 = CARTESIAN_POINT( '', ( 0.000000000000000, 0.000000000000000, 0.000000000000000 ) );
#456 = DIRECTION( '', ( 0.000000000000000, 0.000000000000000, 1.00000000000000 ) );
#457 = DIRECTION( '', ( 1.00000000000000, 0.000000000000000, 0.000000000000000 ) );
#458 = DIRECTION( '', ( 0.500000000000001, -0.866025403784438, 0.000000000000000 ) );
#459 = CARTESIAN_POINT( '', ( 0.000000000000000, 0.000000000000000, 6.00000000000000 ) );
#460 = DIRECTION( '', ( 0.000000000000000, 0.000000000000000, 1.00000000000000 ) );
#461 = DIRECTION( '', ( 1.00000000000000, 0.000000000000000, 0.000000000000000 ) );
#462 = DIRECTION( '', ( 0.500000000000001, -0.866025403784438, 0.000000000000000 ) );
#463 = CARTESIAN_POINT( '', ( 0.000000000000000, 0.000000000000000, 7.25000000000000 ) );
#464 = DIRECTION( '', ( 0.000000000000000, 0.000000000000000, 1.00000000000000 ) );
#465 = DIRECTION( '', ( 1.00000000000000, 0.000000000000000, 0.000000000000000 ) );
ENDSEC;
END-ISO-10303-21;
