ISO-10303-21;
HEADER;
FILE_DESCRIPTION( ( 'Unknown' ), '1' );
FILE_NAME( '//SBS2003/HD_Usb/Disegni/08_LIB/Users_3D/PROD_GAMM_3D/CD/7371457_CD13.stp', 'Unknown', ( 'Unknown' ), ( 'Unknown' ), 'PSStep 14.0', 'Unknown', '  ' );
FILE_SCHEMA( ( 'AUTOMOTIVE_DESIGN { 1 0 10303 214 1 1 1 1 }' ) );
ENDSEC;
DATA;
#1 = MECHANICAL_DESIGN_GEOMETRIC_PRESENTATION_REPRESENTATION( ' ', ( #10, #11, #12, #13, #14, #15, #16, #17, #18, #19, #20, #21, #22 ), #6 );
#2 = PRODUCT_DEFINITION_CONTEXT( '', #23, 'design' );
#3 = APPLICATION_PROTOCOL_DEFINITION( 'international standard', 'automotive_design', 2001, #23 );
#4 = PRODUCT_CATEGORY_RELATIONSHIP( 'NONE', 'NONE', #24, #25 );
#5 = SHAPE_DEFINITION_REPRESENTATION( #26, #27 );
#6 =  ( GEOMETRIC_REPRESENTATION_CONTEXT( 3 )GLOBAL_UNCERTAINTY_ASSIGNED_CONTEXT( ( #30 ) )GLOBAL_UNIT_ASSIGNED_CONTEXT( ( #32, #33, #34 ) )REPRESENTATION_CONTEXT( 'NONE', 'WORKSPACE' ) );
#10 = STYLED_ITEM( '', ( #36 ), #37 );
#11 = STYLED_ITEM( '', ( #38 ), #39 );
#12 = STYLED_ITEM( '', ( #40 ), #41 );
#13 = STYLED_ITEM( '', ( #42 ), #43 );
#14 = STYLED_ITEM( '', ( #44 ), #45 );
#15 = STYLED_ITEM( '', ( #46 ), #47 );
#16 = STYLED_ITEM( '', ( #48 ), #49 );
#17 = STYLED_ITEM( '', ( #50 ), #51 );
#18 = STYLED_ITEM( '', ( #52 ), #53 );
#19 = STYLED_ITEM( '', ( #54 ), #55 );
#20 = STYLED_ITEM( '', ( #56 ), #57 );
#21 = STYLED_ITEM( '', ( #58 ), #59 );
#22 = STYLED_ITEM( '', ( #60 ), #61 );
#23 = APPLICATION_CONTEXT( 'core data for automotive mechanical design processes' );
#24 = PRODUCT_CATEGORY( 'part', 'NONE' );
#25 = PRODUCT_RELATED_PRODUCT_CATEGORY( 'detail', ' ', ( #62 ) );
#26 = PRODUCT_DEFINITION_SHAPE( 'NONE', 'NONE', #63 );
#27 = ADVANCED_BREP_SHAPE_REPRESENTATION( '1', ( #64, #65 ), #6 );
#30 = UNCERTAINTY_MEASURE_WITH_UNIT( LENGTH_MEASURE( 0.00100000000000000 ), #32, '', '' );
#32 =  ( CONVERSION_BASED_UNIT( 'MILLIMETRE', #68 )LENGTH_UNIT(  )NAMED_UNIT( #71 ) );
#33 =  ( NAMED_UNIT( #73 )PLANE_ANGLE_UNIT(  )SI_UNIT( $, .RADIAN. ) );
#34 =  ( NAMED_UNIT( #73 )SI_UNIT( $, .STERADIAN. )SOLID_ANGLE_UNIT(  ) );
#36 = PRESENTATION_STYLE_ASSIGNMENT( ( #79 ) );
#37 = ADVANCED_FACE( '', ( #80 ), #81, .T. );
#38 = PRESENTATION_STYLE_ASSIGNMENT( ( #82 ) );
#39 = ADVANCED_FACE( '', ( #83 ), #84, .T. );
#40 = PRESENTATION_STYLE_ASSIGNMENT( ( #85 ) );
#41 = ADVANCED_FACE( '', ( #86 ), #87, .T. );
#42 = PRESENTATION_STYLE_ASSIGNMENT( ( #88 ) );
#43 = ADVANCED_FACE( '', ( #89 ), #90, .T. );
#44 = PRESENTATION_STYLE_ASSIGNMENT( ( #91 ) );
#45 = ADVANCED_FACE( '', ( #92 ), #93, .T. );
#46 = PRESENTATION_STYLE_ASSIGNMENT( ( #94 ) );
#47 = ADVANCED_FACE( '', ( #95 ), #96, .T. );
#48 = PRESENTATION_STYLE_ASSIGNMENT( ( #97 ) );
#49 = ADVANCED_FACE( '', ( #98, #99 ), #100, .T. );
#50 = PRESENTATION_STYLE_ASSIGNMENT( ( #101 ) );
#51 = ADVANCED_FACE( '', ( #102 ), #103, .T. );
#52 = PRESENTATION_STYLE_ASSIGNMENT( ( #104 ) );
#53 = ADVANCED_FACE( '', ( #105 ), #106, .F. );
#54 = PRESENTATION_STYLE_ASSIGNMENT( ( #107 ) );
#55 = ADVANCED_FACE( '', ( #108, #109 ), #110, .F. );
#56 = PRESENTATION_STYLE_ASSIGNMENT( ( #111 ) );
#57 = ADVANCED_FACE( '', ( #112, #113 ), #114, .F. );
#58 = PRESENTATION_STYLE_ASSIGNMENT( ( #115 ) );
#59 = ADVANCED_FACE( '', ( #116, #117 ), #118, .T. );
#60 = PRESENTATION_STYLE_ASSIGNMENT( ( #119 ) );
#61 = ADVANCED_FACE( '', ( #120, #121 ), #122, .F. );
#62 = PRODUCT( '1', '1', 'PART-1-DESC', ( #123 ) );
#63 = PRODUCT_DEFINITION( 'NONE', 'NONE', #124, #2 );
#64 = MANIFOLD_SOLID_BREP( '1', #125 );
#65 = AXIS2_PLACEMENT_3D( '', #126, #127, #128 );
#68 = LENGTH_MEASURE_WITH_UNIT( LENGTH_MEASURE( 1.00000000000000 ), #129 );
#71 = DIMENSIONAL_EXPONENTS( 1.00000000000000, 0.000000000000000, 0.000000000000000, 0.000000000000000, 0.000000000000000, 0.000000000000000, 0.000000000000000 );
#73 = DIMENSIONAL_EXPONENTS( 0.000000000000000, 0.000000000000000, 0.000000000000000, 0.000000000000000, 0.000000000000000, 0.000000000000000, 0.000000000000000 );
#79 = SURFACE_STYLE_USAGE( .BOTH., #130 );
#80 = FACE_OUTER_BOUND( '', #131, .T. );
#81 = PLANE( '', #132 );
#82 = SURFACE_STYLE_USAGE( .BOTH., #133 );
#83 = FACE_OUTER_BOUND( '', #134, .T. );
#84 = PLANE( '', #135 );
#85 = SURFACE_STYLE_USAGE( .BOTH., #136 );
#86 = FACE_OUTER_BOUND( '', #137, .T. );
#87 = SPHERICAL_SURFACE( '', #138, 8.00000000000000 );
#88 = SURFACE_STYLE_USAGE( .BOTH., #139 );
#89 = FACE_OUTER_BOUND( '', #140, .T. );
#90 = PLANE( '', #141 );
#91 = SURFACE_STYLE_USAGE( .BOTH., #142 );
#92 = FACE_OUTER_BOUND( '', #143, .T. );
#93 = PLANE( '', #144 );
#94 = SURFACE_STYLE_USAGE( .BOTH., #145 );
#95 = FACE_OUTER_BOUND( '', #146, .T. );
#96 = PLANE( '', #147 );
#97 = SURFACE_STYLE_USAGE( .BOTH., #148 );
#98 = FACE_OUTER_BOUND( '', #149, .T. );
#99 = FACE_OUTER_BOUND( '', #150, .T. );
#100 = CYLINDRICAL_SURFACE( '', #151, 8.40000000000000 );
#101 = SURFACE_STYLE_USAGE( .BOTH., #152 );
#102 = FACE_OUTER_BOUND( '', #153, .T. );
#103 = PLANE( '', #154 );
#104 = SURFACE_STYLE_USAGE( .BOTH., #155 );
#105 = FACE_OUTER_BOUND( '', #156, .T. );
#106 = SPHERICAL_SURFACE( '', #157, 4.85640881872662 );
#107 = SURFACE_STYLE_USAGE( .BOTH., #158 );
#108 = FACE_OUTER_BOUND( '', #159, .T. );
#109 = FACE_OUTER_BOUND( '', #160, .T. );
#110 = CYLINDRICAL_SURFACE( '', #161, 4.85640881872662 );
#111 = SURFACE_STYLE_USAGE( .BOTH., #162 );
#112 = FACE_OUTER_BOUND( '', #163, .T. );
#113 = FACE_BOUND( '', #164, .T. );
#114 = PLANE( '', #165 );
#115 = SURFACE_STYLE_USAGE( .BOTH., #166 );
#116 = FACE_BOUND( '', #167, .T. );
#117 = FACE_OUTER_BOUND( '', #168, .T. );
#118 = CONICAL_SURFACE( '', #169, 8.40000000000000, 0.785398163397445 );
#119 = SURFACE_STYLE_USAGE( .BOTH., #170 );
#120 = FACE_OUTER_BOUND( '', #171, .T. );
#121 = FACE_BOUND( '', #172, .T. );
#122 = PLANE( '', #173 );
#123 = PRODUCT_CONTEXT( '', #23, 'mechanical' );
#124 = PRODUCT_DEFINITION_FORMATION_WITH_SPECIFIED_SOURCE( ' ', 'NONE', #62, .NOT_KNOWN. );
#125 = CLOSED_SHELL( '', ( #61, #57, #37, #51, #49, #39, #43, #45, #47, #55, #53, #41, #59 ) );
#126 = CARTESIAN_POINT( '', ( 0.000000000000000, 0.000000000000000, 0.000000000000000 ) );
#127 = DIRECTION( '', ( 0.000000000000000, 0.000000000000000, 1.00000000000000 ) );
#128 = DIRECTION( '', ( 1.00000000000000, 0.000000000000000, 0.000000000000000 ) );
#129 =  ( LENGTH_UNIT(  )NAMED_UNIT( #71 )SI_UNIT( .MILLI., .METRE. ) );
#130 = SURFACE_SIDE_STYLE( '', ( #175 ) );
#131 = EDGE_LOOP( '', ( #176, #177, #178, #179 ) );
#132 = AXIS2_PLACEMENT_3D( '', #180, #181, #182 );
#133 = SURFACE_SIDE_STYLE( '', ( #183 ) );
#134 = EDGE_LOOP( '', ( #184, #185, #186, #187 ) );
#135 = AXIS2_PLACEMENT_3D( '', #188, #189, #190 );
#136 = SURFACE_SIDE_STYLE( '', ( #191 ) );
#137 = EDGE_LOOP( '', ( #192 ) );
#138 = AXIS2_PLACEMENT_3D( '', #193, #194, #195 );
#139 = SURFACE_SIDE_STYLE( '', ( #196 ) );
#140 = EDGE_LOOP( '', ( #197, #198, #199, #200 ) );
#141 = AXIS2_PLACEMENT_3D( '', #201, #202, #203 );
#142 = SURFACE_SIDE_STYLE( '', ( #204 ) );
#143 = EDGE_LOOP( '', ( #205, #206, #207, #208 ) );
#144 = AXIS2_PLACEMENT_3D( '', #209, #210, #211 );
#145 = SURFACE_SIDE_STYLE( '', ( #212 ) );
#146 = EDGE_LOOP( '', ( #213, #214, #215, #216 ) );
#147 = AXIS2_PLACEMENT_3D( '', #217, #218, #219 );
#148 = SURFACE_SIDE_STYLE( '', ( #220 ) );
#149 = EDGE_LOOP( '', ( #221 ) );
#150 = EDGE_LOOP( '', ( #222 ) );
#151 = AXIS2_PLACEMENT_3D( '', #223, #224, #225 );
#152 = SURFACE_SIDE_STYLE( '', ( #226 ) );
#153 = EDGE_LOOP( '', ( #227, #228, #229, #230 ) );
#154 = AXIS2_PLACEMENT_3D( '', #231, #232, #233 );
#155 = SURFACE_SIDE_STYLE( '', ( #234 ) );
#156 = EDGE_LOOP( '', ( #235 ) );
#157 = AXIS2_PLACEMENT_3D( '', #236, #237, #238 );
#158 = SURFACE_SIDE_STYLE( '', ( #239 ) );
#159 = EDGE_LOOP( '', ( #240 ) );
#160 = EDGE_LOOP( '', ( #241 ) );
#161 = AXIS2_PLACEMENT_3D( '', #242, #243, #244 );
#162 = SURFACE_SIDE_STYLE( '', ( #245 ) );
#163 = EDGE_LOOP( '', ( #246 ) );
#164 = EDGE_LOOP( '', ( #247, #248, #249, #250, #251, #252 ) );
#165 = AXIS2_PLACEMENT_3D( '', #253, #254, #255 );
#166 = SURFACE_SIDE_STYLE( '', ( #256 ) );
#167 = EDGE_LOOP( '', ( #257 ) );
#168 = EDGE_LOOP( '', ( #258 ) );
#169 = AXIS2_PLACEMENT_3D( '', #259, #260, #261 );
#170 = SURFACE_SIDE_STYLE( '', ( #262 ) );
#171 = EDGE_LOOP( '', ( #263, #264, #265, #266, #267, #268 ) );
#172 = EDGE_LOOP( '', ( #269 ) );
#173 = AXIS2_PLACEMENT_3D( '', #270, #271, #272 );
#175 = SURFACE_STYLE_FILL_AREA( #273 );
#176 = ORIENTED_EDGE( '', *, *, #274, .F. );
#177 = ORIENTED_EDGE( '', *, *, #275, .F. );
#178 = ORIENTED_EDGE( '', *, *, #276, .T. );
#179 = ORIENTED_EDGE( '', *, *, #277, .T. );
#180 = CARTESIAN_POINT( '', ( -3.69504172281362, -6.40000000000000, 9.00000000000000 ) );
#181 = DIRECTION( '', ( 1.76052492039510E-015, 1.00000000000000, 0.000000000000000 ) );
#182 = DIRECTION( '', ( -1.00000000000000, 1.76052492039510E-015, 0.000000000000000 ) );
#183 = SURFACE_STYLE_FILL_AREA( #278 );
#184 = ORIENTED_EDGE( '', *, *, #279, .F. );
#185 = ORIENTED_EDGE( '', *, *, #280, .F. );
#186 = ORIENTED_EDGE( '', *, *, #281, .T. );
#187 = ORIENTED_EDGE( '', *, *, #282, .T. );
#188 = CARTESIAN_POINT( '', ( 7.39008344562724, 3.74002608295539E-014, 9.00000000000000 ) );
#189 = DIRECTION( '', ( -0.866025403784438, -0.500000000000001, 0.000000000000000 ) );
#190 = DIRECTION( '', ( 0.500000000000001, -0.866025403784438, 0.000000000000000 ) );
#191 = SURFACE_STYLE_FILL_AREA( #283 );
#192 = ORIENTED_EDGE( '', *, *, #284, .T. );
#193 = CARTESIAN_POINT( '', ( 0.000000000000000, 0.000000000000000, 7.00000000000000 ) );
#194 = DIRECTION( '', ( 0.000000000000000, 0.000000000000000, 1.00000000000000 ) );
#195 = DIRECTION( '', ( 1.00000000000000, 0.000000000000000, 0.000000000000000 ) );
#196 = SURFACE_STYLE_FILL_AREA( #285 );
#197 = ORIENTED_EDGE( '', *, *, #286, .F. );
#198 = ORIENTED_EDGE( '', *, *, #282, .F. );
#199 = ORIENTED_EDGE( '', *, *, #287, .T. );
#200 = ORIENTED_EDGE( '', *, *, #288, .T. );
#201 = CARTESIAN_POINT( '', ( 3.69504172281362, 6.40000000000000, 9.00000000000000 ) );
#202 = DIRECTION( '', ( 0.000000000000000, -1.00000000000000, 0.000000000000000 ) );
#203 = DIRECTION( '', ( 0.000000000000000, 0.000000000000000, -1.00000000000000 ) );
#204 = SURFACE_STYLE_FILL_AREA( #289 );
#205 = ORIENTED_EDGE( '', *, *, #290, .F. );
#206 = ORIENTED_EDGE( '', *, *, #288, .F. );
#207 = ORIENTED_EDGE( '', *, *, #291, .T. );
#208 = ORIENTED_EDGE( '', *, *, #292, .T. );
#209 = CARTESIAN_POINT( '', ( -3.69504172281362, 6.40000000000000, 9.00000000000000 ) );
#210 = DIRECTION( '', ( 0.866025403784438, -0.500000000000001, 0.000000000000000 ) );
#211 = DIRECTION( '', ( 0.500000000000001, 0.866025403784438, 0.000000000000000 ) );
#212 = SURFACE_STYLE_FILL_AREA( #293 );
#213 = ORIENTED_EDGE( '', *, *, #294, .F. );
#214 = ORIENTED_EDGE( '', *, *, #292, .F. );
#215 = ORIENTED_EDGE( '', *, *, #295, .T. );
#216 = ORIENTED_EDGE( '', *, *, #275, .T. );
#217 = CARTESIAN_POINT( '', ( -7.39008344562724, 3.83052850332658E-014, 9.00000000000000 ) );
#218 = DIRECTION( '', ( 0.866025403784439, 0.500000000000000, 0.000000000000000 ) );
#219 = DIRECTION( '', ( -0.500000000000000, 0.866025403784439, 0.000000000000000 ) );
#220 = SURFACE_STYLE_FILL_AREA( #296 );
#221 = ORIENTED_EDGE( '', *, *, #297, .F. );
#222 = ORIENTED_EDGE( '', *, *, #298, .T. );
#223 = CARTESIAN_POINT( '', ( 0.000000000000000, 0.000000000000000, 57.1500000000000 ) );
#224 = DIRECTION( '', ( -0.000000000000000, -0.000000000000000, -1.00000000000000 ) );
#225 = DIRECTION( '', ( 1.00000000000000, 0.000000000000000, 0.000000000000000 ) );
#226 = SURFACE_STYLE_FILL_AREA( #299 );
#227 = ORIENTED_EDGE( '', *, *, #300, .F. );
#228 = ORIENTED_EDGE( '', *, *, #277, .F. );
#229 = ORIENTED_EDGE( '', *, *, #301, .T. );
#230 = ORIENTED_EDGE( '', *, *, #280, .T. );
#231 = CARTESIAN_POINT( '', ( 3.69504172281362, -6.40000000000000, 9.00000000000000 ) );
#232 = DIRECTION( '', ( -0.866025403784439, 0.500000000000000, 0.000000000000000 ) );
#233 = DIRECTION( '', ( -0.500000000000000, -0.866025403784439, 0.000000000000000 ) );
#234 = SURFACE_STYLE_FILL_AREA( #302 );
#235 = ORIENTED_EDGE( '', *, *, #303, .F. );
#236 = CARTESIAN_POINT( '', ( 0.000000000000000, 0.000000000000000, 9.14359118127338 ) );
#237 = DIRECTION( '', ( 0.000000000000000, 0.000000000000000, 1.00000000000000 ) );
#238 = DIRECTION( '', ( 1.00000000000000, 0.000000000000000, 0.000000000000000 ) );
#239 = SURFACE_STYLE_FILL_AREA( #304 );
#240 = ORIENTED_EDGE( '', *, *, #303, .T. );
#241 = ORIENTED_EDGE( '', *, *, #305, .T. );
#242 = CARTESIAN_POINT( '', ( 0.000000000000000, 0.000000000000000, 57.1500000000000 ) );
#243 = DIRECTION( '', ( -0.000000000000000, -0.000000000000000, -1.00000000000000 ) );
#244 = DIRECTION( '', ( 1.00000000000000, 0.000000000000000, 0.000000000000000 ) );
#245 = SURFACE_STYLE_FILL_AREA( #306 );
#246 = ORIENTED_EDGE( '', *, *, #298, .F. );
#247 = ORIENTED_EDGE( '', *, *, #286, .T. );
#248 = ORIENTED_EDGE( '', *, *, #290, .T. );
#249 = ORIENTED_EDGE( '', *, *, #294, .T. );
#250 = ORIENTED_EDGE( '', *, *, #274, .T. );
#251 = ORIENTED_EDGE( '', *, *, #300, .T. );
#252 = ORIENTED_EDGE( '', *, *, #279, .T. );
#253 = CARTESIAN_POINT( '', ( 1.96575380895662E-015, 0.000000000000000, 0.000000000000000 ) );
#254 = DIRECTION( '', ( 0.000000000000000, 0.000000000000000, 1.00000000000000 ) );
#255 = DIRECTION( '', ( 1.00000000000000, 0.000000000000000, 0.000000000000000 ) );
#256 = SURFACE_STYLE_FILL_AREA( #307 );
#257 = ORIENTED_EDGE( '', *, *, #284, .F. );
#258 = ORIENTED_EDGE( '', *, *, #297, .T. );
#259 = CARTESIAN_POINT( '', ( 0.000000000000000, 0.000000000000000, 9.00000000000000 ) );
#260 = DIRECTION( '', ( -0.000000000000000, 0.000000000000000, -1.00000000000000 ) );
#261 = DIRECTION( '', ( -1.00000000000000, 0.000000000000000, 0.000000000000000 ) );
#262 = SURFACE_STYLE_FILL_AREA( #308 );
#263 = ORIENTED_EDGE( '', *, *, #287, .F. );
#264 = ORIENTED_EDGE( '', *, *, #281, .F. );
#265 = ORIENTED_EDGE( '', *, *, #301, .F. );
#266 = ORIENTED_EDGE( '', *, *, #276, .F. );
#267 = ORIENTED_EDGE( '', *, *, #295, .F. );
#268 = ORIENTED_EDGE( '', *, *, #291, .F. );
#269 = ORIENTED_EDGE( '', *, *, #305, .F. );
#270 = CARTESIAN_POINT( '', ( 0.000000000000000, 0.000000000000000, 9.00000000000000 ) );
#271 = DIRECTION( '', ( 0.000000000000000, 0.000000000000000, 1.00000000000000 ) );
#272 = DIRECTION( '', ( 1.00000000000000, 0.000000000000000, 0.000000000000000 ) );
#273 = FILL_AREA_STYLE( '', ( #309 ) );
#274 = EDGE_CURVE( '', #310, #311, #312, .T. );
#275 = EDGE_CURVE( '', #313, #310, #314, .T. );
#276 = EDGE_CURVE( '', #313, #315, #316, .T. );
#277 = EDGE_CURVE( '', #315, #311, #317, .T. );
#278 = FILL_AREA_STYLE( '', ( #318 ) );
#279 = EDGE_CURVE( '', #319, #320, #321, .T. );
#280 = EDGE_CURVE( '', #322, #319, #323, .T. );
#281 = EDGE_CURVE( '', #322, #324, #325, .T. );
#282 = EDGE_CURVE( '', #324, #320, #326, .T. );
#283 = FILL_AREA_STYLE( '', ( #327 ) );
#284 = EDGE_CURVE( '', #328, #328, #329, .T. );
#285 = FILL_AREA_STYLE( '', ( #330 ) );
#286 = EDGE_CURVE( '', #320, #331, #332, .T. );
#287 = EDGE_CURVE( '', #324, #333, #334, .T. );
#288 = EDGE_CURVE( '', #333, #331, #335, .T. );
#289 = FILL_AREA_STYLE( '', ( #336 ) );
#290 = EDGE_CURVE( '', #331, #337, #338, .T. );
#291 = EDGE_CURVE( '', #333, #339, #340, .T. );
#292 = EDGE_CURVE( '', #339, #337, #341, .T. );
#293 = FILL_AREA_STYLE( '', ( #342 ) );
#294 = EDGE_CURVE( '', #337, #310, #343, .T. );
#295 = EDGE_CURVE( '', #339, #313, #344, .T. );
#296 = FILL_AREA_STYLE( '', ( #345 ) );
#297 = EDGE_CURVE( '', #346, #346, #347, .T. );
#298 = EDGE_CURVE( '', #348, #348, #349, .T. );
#299 = FILL_AREA_STYLE( '', ( #350 ) );
#300 = EDGE_CURVE( '', #311, #319, #351, .T. );
#301 = EDGE_CURVE( '', #315, #322, #352, .T. );
#302 = FILL_AREA_STYLE( '', ( #353 ) );
#303 = EDGE_CURVE( '', #354, #354, #355, .T. );
#304 = FILL_AREA_STYLE( '', ( #356 ) );
#305 = EDGE_CURVE( '', #357, #357, #358, .F. );
#306 = FILL_AREA_STYLE( '', ( #359 ) );
#307 = FILL_AREA_STYLE( '', ( #360 ) );
#308 = FILL_AREA_STYLE( '', ( #361 ) );
#309 = FILL_AREA_STYLE_COLOUR( '', #362 );
#310 = VERTEX_POINT( '', #363 );
#311 = VERTEX_POINT( '', #364 );
#312 = LINE( '', #365, #366 );
#313 = VERTEX_POINT( '', #367 );
#314 = LINE( '', #368, #369 );
#315 = VERTEX_POINT( '', #370 );
#316 = LINE( '', #371, #372 );
#317 = LINE( '', #373, #374 );
#318 = FILL_AREA_STYLE_COLOUR( '', #375 );
#319 = VERTEX_POINT( '', #376 );
#320 = VERTEX_POINT( '', #377 );
#321 = LINE( '', #378, #379 );
#322 = VERTEX_POINT( '', #380 );
#323 = LINE( '', #381, #382 );
#324 = VERTEX_POINT( '', #383 );
#325 = LINE( '', #384, #385 );
#326 = LINE( '', #386, #387 );
#327 = FILL_AREA_STYLE_COLOUR( '', #388 );
#328 = VERTEX_POINT( '', #389 );
#329 = CIRCLE( '', #390, 7.42710574513201 );
#330 = FILL_AREA_STYLE_COLOUR( '', #391 );
#331 = VERTEX_POINT( '', #392 );
#332 = LINE( '', #393, #394 );
#333 = VERTEX_POINT( '', #395 );
#334 = LINE( '', #396, #397 );
#335 = LINE( '', #398, #399 );
#336 = FILL_AREA_STYLE_COLOUR( '', #400 );
#337 = VERTEX_POINT( '', #401 );
#338 = LINE( '', #402, #403 );
#339 = VERTEX_POINT( '', #404 );
#340 = LINE( '', #405, #406 );
#341 = LINE( '', #407, #408 );
#342 = FILL_AREA_STYLE_COLOUR( '', #409 );
#343 = LINE( '', #410, #411 );
#344 = LINE( '', #412, #413 );
#345 = FILL_AREA_STYLE_COLOUR( '', #414 );
#346 = VERTEX_POINT( '', #415 );
#347 = CIRCLE( '', #416, 8.40000000000000 );
#348 = VERTEX_POINT( '', #417 );
#349 = CIRCLE( '', #418, 8.40000000000000 );
#350 = FILL_AREA_STYLE_COLOUR( '', #419 );
#351 = LINE( '', #420, #421 );
#352 = LINE( '', #422, #423 );
#353 = FILL_AREA_STYLE_COLOUR( '', #424 );
#354 = VERTEX_POINT( '', #425 );
#355 = CIRCLE( '', #426, 4.85640881872662 );
#356 = FILL_AREA_STYLE_COLOUR( '', #427 );
#357 = VERTEX_POINT( '', #428 );
#358 = CIRCLE( '', #429, 4.85640881872662 );
#359 = FILL_AREA_STYLE_COLOUR( '', #430 );
#360 = FILL_AREA_STYLE_COLOUR( '', #431 );
#361 = FILL_AREA_STYLE_COLOUR( '', #432 );
#362 = COLOUR_RGB( '', 0.200000002980232, 0.200000002980232, 0.200000002980232 );
#363 = CARTESIAN_POINT( '', ( -3.69504172281362, -6.40000000000000, 0.000000000000000 ) );
#364 = CARTESIAN_POINT( '', ( 3.69504172281362, -6.40000000000000, 0.000000000000000 ) );
#365 = CARTESIAN_POINT( '', ( -3.69504172281362, -6.40000000000000, 0.000000000000000 ) );
#366 = VECTOR( '', #433, 1000.00000000000 );
#367 = CARTESIAN_POINT( '', ( -3.69504172281362, -6.40000000000000, 9.00000000000000 ) );
#368 = CARTESIAN_POINT( '', ( -3.69504172281362, -6.40000000000000, 9.00000000000000 ) );
#369 = VECTOR( '', #434, 1000.00000000000 );
#370 = CARTESIAN_POINT( '', ( 3.69504172281362, -6.40000000000000, 9.00000000000000 ) );
#371 = CARTESIAN_POINT( '', ( -3.69504172281362, -6.40000000000000, 9.00000000000000 ) );
#372 = VECTOR( '', #435, 1000.00000000000 );
#373 = CARTESIAN_POINT( '', ( 3.69504172281362, -6.40000000000000, 9.00000000000000 ) );
#374 = VECTOR( '', #436, 1000.00000000000 );
#375 = COLOUR_RGB( '', 0.200000002980232, 0.200000002980232, 0.200000002980232 );
#376 = CARTESIAN_POINT( '', ( 7.39008344562724, 3.72965547335013E-014, 0.000000000000000 ) );
#377 = CARTESIAN_POINT( '', ( 3.69504172281362, 6.40000000000000, 0.000000000000000 ) );
#378 = CARTESIAN_POINT( '', ( 7.39008344562724, 3.74002608295539E-014, 0.000000000000000 ) );
#379 = VECTOR( '', #437, 999.999999999999 );
#380 = CARTESIAN_POINT( '', ( 7.39008344562724, 3.72965547335013E-014, 9.00000000000000 ) );
#381 = CARTESIAN_POINT( '', ( 7.39008344562724, 3.72965547335013E-014, 9.00000000000000 ) );
#382 = VECTOR( '', #438, 1000.00000000000 );
#383 = CARTESIAN_POINT( '', ( 3.69504172281362, 6.40000000000000, 9.00000000000000 ) );
#384 = CARTESIAN_POINT( '', ( 7.39008344562724, 3.74002608295539E-014, 9.00000000000000 ) );
#385 = VECTOR( '', #439, 999.999999999999 );
#386 = CARTESIAN_POINT( '', ( 3.69504172281362, 6.40000000000000, 9.00000000000000 ) );
#387 = VECTOR( '', #440, 1000.00000000000 );
#388 = COLOUR_RGB( '', 0.200000002980232, 0.200000002980232, 0.200000002980232 );
#389 = CARTESIAN_POINT( '', ( 7.42710574513201, 0.000000000000000, 9.97289425486800 ) );
#390 = AXIS2_PLACEMENT_3D( '', #441, #442, #443 );
#391 = COLOUR_RGB( '', 0.200000002980232, 0.200000002980232, 0.200000002980232 );
#392 = CARTESIAN_POINT( '', ( -3.69504172281362, 6.40000000000000, 0.000000000000000 ) );
#393 = CARTESIAN_POINT( '', ( 3.69504172281362, 6.40000000000000, 0.000000000000000 ) );
#394 = VECTOR( '', #444, 1000.00000000000 );
#395 = CARTESIAN_POINT( '', ( -3.69504172281362, 6.40000000000000, 9.00000000000000 ) );
#396 = CARTESIAN_POINT( '', ( 3.69504172281362, 6.40000000000000, 9.00000000000000 ) );
#397 = VECTOR( '', #445, 1000.00000000000 );
#398 = CARTESIAN_POINT( '', ( -3.69504172281362, 6.40000000000000, 9.00000000000000 ) );
#399 = VECTOR( '', #446, 1000.00000000000 );
#400 = COLOUR_RGB( '', 0.200000002980232, 0.200000002980232, 0.200000002980232 );
#401 = CARTESIAN_POINT( '', ( -7.39008344562724, 3.81639164714897E-014, 0.000000000000000 ) );
#402 = CARTESIAN_POINT( '', ( -3.69504172281362, 6.40000000000000, 0.000000000000000 ) );
#403 = VECTOR( '', #447, 999.999999999999 );
#404 = CARTESIAN_POINT( '', ( -7.39008344562724, 3.81639164714897E-014, 9.00000000000000 ) );
#405 = CARTESIAN_POINT( '', ( -3.69504172281362, 6.40000000000000, 9.00000000000000 ) );
#406 = VECTOR( '', #448, 999.999999999999 );
#407 = CARTESIAN_POINT( '', ( -7.39008344562724, 3.81639164714897E-014, 9.00000000000000 ) );
#408 = VECTOR( '', #449, 1000.00000000000 );
#409 = COLOUR_RGB( '', 0.200000002980232, 0.200000002980232, 0.200000002980232 );
#410 = CARTESIAN_POINT( '', ( -7.39008344562724, 3.83052850332658E-014, 0.000000000000000 ) );
#411 = VECTOR( '', #450, 1000.00000000000 );
#412 = CARTESIAN_POINT( '', ( -7.39008344562724, 3.83052850332658E-014, 9.00000000000000 ) );
#413 = VECTOR( '', #451, 1000.00000000000 );
#414 = COLOUR_RGB( '', 0.200000002980232, 0.200000002980232, 0.200000002980232 );
#415 = CARTESIAN_POINT( '', ( 8.40000000000000, 0.000000000000000, 9.00000000000000 ) );
#416 = AXIS2_PLACEMENT_3D( '', #452, #453, #454 );
#417 = CARTESIAN_POINT( '', ( 8.40000000000000, 0.000000000000000, 0.000000000000000 ) );
#418 = AXIS2_PLACEMENT_3D( '', #455, #456, #457 );
#419 = COLOUR_RGB( '', 0.200000002980232, 0.200000002980232, 0.200000002980232 );
#420 = CARTESIAN_POINT( '', ( 3.69504172281362, -6.40000000000000, 0.000000000000000 ) );
#421 = VECTOR( '', #458, 1000.00000000000 );
#422 = CARTESIAN_POINT( '', ( 3.69504172281362, -6.40000000000000, 9.00000000000000 ) );
#423 = VECTOR( '', #459, 1000.00000000000 );
#424 = COLOUR_RGB( '', 0.200000002980232, 0.200000002980232, 0.200000002980232 );
#425 = CARTESIAN_POINT( '', ( 4.85640881872662, 0.000000000000000, 9.14359118127338 ) );
#426 = AXIS2_PLACEMENT_3D( '', #460, #461, #462 );
#427 = COLOUR_RGB( '', 0.200000002980232, 0.200000002980232, 0.200000002980232 );
#428 = CARTESIAN_POINT( '', ( 4.85640881872662, 0.000000000000000, 9.00000000000000 ) );
#429 = AXIS2_PLACEMENT_3D( '', #463, #464, #465 );
#430 = COLOUR_RGB( '', 0.200000002980232, 0.200000002980232, 0.200000002980232 );
#431 = COLOUR_RGB( '', 0.200000002980232, 0.200000002980232, 0.200000002980232 );
#432 = COLOUR_RGB( '', 0.200000002980232, 0.200000002980232, 0.200000002980232 );
#433 = DIRECTION( '', ( 1.00000000000000, -1.76052492039510E-015, 0.000000000000000 ) );
#434 = DIRECTION( '', ( 0.000000000000000, 0.000000000000000, -1.00000000000000 ) );
#435 = DIRECTION( '', ( 1.00000000000000, -1.76052492039510E-015, 0.000000000000000 ) );
#436 = DIRECTION( '', ( 0.000000000000000, 0.000000000000000, -1.00000000000000 ) );
#437 = DIRECTION( '', ( -0.500000000000001, 0.866025403784438, 0.000000000000000 ) );
#438 = DIRECTION( '', ( 0.000000000000000, 0.000000000000000, -1.00000000000000 ) );
#439 = DIRECTION( '', ( -0.500000000000001, 0.866025403784438, 0.000000000000000 ) );
#440 = DIRECTION( '', ( 0.000000000000000, 0.000000000000000, -1.00000000000000 ) );
#441 = CARTESIAN_POINT( '', ( 0.000000000000000, 0.000000000000000, 9.97289425486800 ) );
#442 = DIRECTION( '', ( 0.000000000000000, 0.000000000000000, 1.00000000000000 ) );
#443 = DIRECTION( '', ( 1.00000000000000, 0.000000000000000, 0.000000000000000 ) );
#444 = DIRECTION( '', ( -1.00000000000000, 0.000000000000000, 0.000000000000000 ) );
#445 = DIRECTION( '', ( -1.00000000000000, 0.000000000000000, 0.000000000000000 ) );
#446 = DIRECTION( '', ( 0.000000000000000, 0.000000000000000, -1.00000000000000 ) );
#447 = DIRECTION( '', ( -0.500000000000001, -0.866025403784438, 0.000000000000000 ) );
#448 = DIRECTION( '', ( -0.500000000000001, -0.866025403784438, 0.000000000000000 ) );
#449 = DIRECTION( '', ( 0.000000000000000, 0.000000000000000, -1.00000000000000 ) );
#450 = DIRECTION( '', ( 0.500000000000000, -0.866025403784439, 0.000000000000000 ) );
#451 = DIRECTION( '', ( 0.500000000000000, -0.866025403784439, 0.000000000000000 ) );
#452 = CARTESIAN_POINT( '', ( 0.000000000000000, 0.000000000000000, 9.00000000000000 ) );
#453 = DIRECTION( '', ( 0.000000000000000, 0.000000000000000, 1.00000000000000 ) );
#454 = DIRECTION( '', ( 1.00000000000000, 0.000000000000000, 0.000000000000000 ) );
#455 = CARTESIAN_POINT( '', ( 0.000000000000000, 0.000000000000000, 0.000000000000000 ) );
#456 = DIRECTION( '', ( 0.000000000000000, 0.000000000000000, 1.00000000000000 ) );
#457 = DIRECTION( '', ( 1.00000000000000, 0.000000000000000, 0.000000000000000 ) );
#458 = DIRECTION( '', ( 0.500000000000000, 0.866025403784439, 0.000000000000000 ) );
#459 = DIRECTION( '', ( 0.500000000000000, 0.866025403784439, 0.000000000000000 ) );
#460 = CARTESIAN_POINT( '', ( 0.000000000000000, 0.000000000000000, 9.14359118127338 ) );
#461 = DIRECTION( '', ( 0.000000000000000, 0.000000000000000, 1.00000000000000 ) );
#462 = DIRECTION( '', ( 1.00000000000000, 0.000000000000000, 0.000000000000000 ) );
#463 = CARTESIAN_POINT( '', ( 0.000000000000000, 0.000000000000000, 9.00000000000000 ) );
#464 = DIRECTION( '', ( 0.000000000000000, 0.000000000000000, 1.00000000000000 ) );
#465 = DIRECTION( '', ( 1.00000000000000, 0.000000000000000, 0.000000000000000 ) );
ENDSEC;
END-ISO-10303-21;
