ISO-10303-21;
HEADER;
FILE_DESCRIPTION( ( 'Unknown' ), '1' );
FILE_NAME( '//SBS2003/HD_Usb/Disegni/08_LIB/Users_3D/PROD_GAMM_3D/CD/7371459_CD17.stp', 'Unknown', ( 'Unknown' ), ( 'Unknown' ), 'PSStep 14.0', 'Unknown', '  ' );
FILE_SCHEMA( ( 'AUTOMOTIVE_DESIGN { 1 0 10303 214 1 1 1 1 }' ) );
ENDSEC;
DATA;
#1 = MECHANICAL_DESIGN_GEOMETRIC_PRESENTATION_REPRESENTATION( ' ', ( #10, #11, #12, #13, #14, #15, #16, #17, #18, #19, #20, #21, #22 ), #6 );
#2 = PRODUCT_DEFINITION_CONTEXT( '', #23, 'design' );
#3 = APPLICATION_PROTOCOL_DEFINITION( 'international standard', 'automotive_design', 2001, #23 );
#4 = PRODUCT_CATEGORY_RELATIONSHIP( 'NONE', 'NONE', #24, #25 );
#5 = SHAPE_DEFINITION_REPRESENTATION( #26, #27 );
#6 =  ( GEOMETRIC_REPRESENTATION_CONTEXT( 3 )GLOBAL_UNCERTAINTY_ASSIGNED_CONTEXT( ( #30 ) )GLOBAL_UNIT_ASSIGNED_CONTEXT( ( #32, #33, #34 ) )REPRESENTATION_CONTEXT( 'NONE', 'WORKSPACE' ) );
#10 = STYLED_ITEM( '', ( #36 ), #37 );
#11 = STYLED_ITEM( '', ( #38 ), #39 );
#12 = STYLED_ITEM( '', ( #40 ), #41 );
#13 = STYLED_ITEM( '', ( #42 ), #43 );
#14 = STYLED_ITEM( '', ( #44 ), #45 );
#15 = STYLED_ITEM( '', ( #46 ), #47 );
#16 = STYLED_ITEM( '', ( #48 ), #49 );
#17 = STYLED_ITEM( '', ( #50 ), #51 );
#18 = STYLED_ITEM( '', ( #52 ), #53 );
#19 = STYLED_ITEM( '', ( #54 ), #55 );
#20 = STYLED_ITEM( '', ( #56 ), #57 );
#21 = STYLED_ITEM( '', ( #58 ), #59 );
#22 = STYLED_ITEM( '', ( #60 ), #61 );
#23 = APPLICATION_CONTEXT( 'core data for automotive mechanical design processes' );
#24 = PRODUCT_CATEGORY( 'part', 'NONE' );
#25 = PRODUCT_RELATED_PRODUCT_CATEGORY( 'detail', ' ', ( #62 ) );
#26 = PRODUCT_DEFINITION_SHAPE( 'NONE', 'NONE', #63 );
#27 = ADVANCED_BREP_SHAPE_REPRESENTATION( '1', ( #64, #65 ), #6 );
#30 = UNCERTAINTY_MEASURE_WITH_UNIT( LENGTH_MEASURE( 0.00100000000000000 ), #32, '', '' );
#32 =  ( CONVERSION_BASED_UNIT( 'MILLIMETRE', #68 )LENGTH_UNIT(  )NAMED_UNIT( #71 ) );
#33 =  ( NAMED_UNIT( #73 )PLANE_ANGLE_UNIT(  )SI_UNIT( $, .RADIAN. ) );
#34 =  ( NAMED_UNIT( #73 )SI_UNIT( $, .STERADIAN. )SOLID_ANGLE_UNIT(  ) );
#36 = PRESENTATION_STYLE_ASSIGNMENT( ( #79 ) );
#37 = ADVANCED_FACE( '', ( #80 ), #81, .T. );
#38 = PRESENTATION_STYLE_ASSIGNMENT( ( #82 ) );
#39 = ADVANCED_FACE( '', ( #83 ), #84, .T. );
#40 = PRESENTATION_STYLE_ASSIGNMENT( ( #85 ) );
#41 = ADVANCED_FACE( '', ( #86 ), #87, .T. );
#42 = PRESENTATION_STYLE_ASSIGNMENT( ( #88 ) );
#43 = ADVANCED_FACE( '', ( #89, #90 ), #91, .F. );
#44 = PRESENTATION_STYLE_ASSIGNMENT( ( #92 ) );
#45 = ADVANCED_FACE( '', ( #93, #94 ), #95, .F. );
#46 = PRESENTATION_STYLE_ASSIGNMENT( ( #96 ) );
#47 = ADVANCED_FACE( '', ( #97, #98 ), #99, .T. );
#48 = PRESENTATION_STYLE_ASSIGNMENT( ( #100 ) );
#49 = ADVANCED_FACE( '', ( #101, #102 ), #103, .F. );
#50 = PRESENTATION_STYLE_ASSIGNMENT( ( #104 ) );
#51 = ADVANCED_FACE( '', ( #105 ), #106, .T. );
#52 = PRESENTATION_STYLE_ASSIGNMENT( ( #107 ) );
#53 = ADVANCED_FACE( '', ( #108 ), #109, .F. );
#54 = PRESENTATION_STYLE_ASSIGNMENT( ( #110 ) );
#55 = ADVANCED_FACE( '', ( #111 ), #112, .T. );
#56 = PRESENTATION_STYLE_ASSIGNMENT( ( #113 ) );
#57 = ADVANCED_FACE( '', ( #114, #115 ), #116, .T. );
#58 = PRESENTATION_STYLE_ASSIGNMENT( ( #117 ) );
#59 = ADVANCED_FACE( '', ( #118 ), #119, .T. );
#60 = PRESENTATION_STYLE_ASSIGNMENT( ( #120 ) );
#61 = ADVANCED_FACE( '', ( #121 ), #122, .T. );
#62 = PRODUCT( '1', '1', 'PART-1-DESC', ( #123 ) );
#63 = PRODUCT_DEFINITION( 'NONE', 'NONE', #124, #2 );
#64 = MANIFOLD_SOLID_BREP( '1', #125 );
#65 = AXIS2_PLACEMENT_3D( '', #126, #127, #128 );
#68 = LENGTH_MEASURE_WITH_UNIT( LENGTH_MEASURE( 1.00000000000000 ), #129 );
#71 = DIMENSIONAL_EXPONENTS( 1.00000000000000, 0.000000000000000, 0.000000000000000, 0.000000000000000, 0.000000000000000, 0.000000000000000, 0.000000000000000 );
#73 = DIMENSIONAL_EXPONENTS( 0.000000000000000, 0.000000000000000, 0.000000000000000, 0.000000000000000, 0.000000000000000, 0.000000000000000, 0.000000000000000 );
#79 = SURFACE_STYLE_USAGE( .BOTH., #130 );
#80 = FACE_OUTER_BOUND( '', #131, .T. );
#81 = PLANE( '', #132 );
#82 = SURFACE_STYLE_USAGE( .BOTH., #133 );
#83 = FACE_OUTER_BOUND( '', #134, .T. );
#84 = PLANE( '', #135 );
#85 = SURFACE_STYLE_USAGE( .BOTH., #136 );
#86 = FACE_OUTER_BOUND( '', #137, .T. );
#87 = PLANE( '', #138 );
#88 = SURFACE_STYLE_USAGE( .BOTH., #139 );
#89 = FACE_OUTER_BOUND( '', #140, .T. );
#90 = FACE_OUTER_BOUND( '', #141, .T. );
#91 = CYLINDRICAL_SURFACE( '', #142, 7.18134871982734 );
#92 = SURFACE_STYLE_USAGE( .BOTH., #143 );
#93 = FACE_OUTER_BOUND( '', #144, .T. );
#94 = FACE_BOUND( '', #145, .T. );
#95 = PLANE( '', #146 );
#96 = SURFACE_STYLE_USAGE( .BOTH., #147 );
#97 = FACE_OUTER_BOUND( '', #148, .T. );
#98 = FACE_OUTER_BOUND( '', #149, .T. );
#99 = CYLINDRICAL_SURFACE( '', #150, 10.6500000000000 );
#100 = SURFACE_STYLE_USAGE( .BOTH., #151 );
#101 = FACE_OUTER_BOUND( '', #152, .T. );
#102 = FACE_BOUND( '', #153, .T. );
#103 = PLANE( '', #154 );
#104 = SURFACE_STYLE_USAGE( .BOTH., #155 );
#105 = FACE_OUTER_BOUND( '', #156, .T. );
#106 = PLANE( '', #157 );
#107 = SURFACE_STYLE_USAGE( .BOTH., #158 );
#108 = FACE_OUTER_BOUND( '', #159, .T. );
#109 = SPHERICAL_SURFACE( '', #160, 7.18134871982734 );
#110 = SURFACE_STYLE_USAGE( .BOTH., #161 );
#111 = FACE_OUTER_BOUND( '', #162, .T. );
#112 = SPHERICAL_SURFACE( '', #163, 9.00000000000000 );
#113 = SURFACE_STYLE_USAGE( .BOTH., #164 );
#114 = FACE_BOUND( '', #165, .T. );
#115 = FACE_OUTER_BOUND( '', #166, .T. );
#116 = CONICAL_SURFACE( '', #167, 10.6500000000000, 0.785398163397450 );
#117 = SURFACE_STYLE_USAGE( .BOTH., #168 );
#118 = FACE_OUTER_BOUND( '', #169, .T. );
#119 = PLANE( '', #170 );
#120 = SURFACE_STYLE_USAGE( .BOTH., #171 );
#121 = FACE_OUTER_BOUND( '', #172, .T. );
#122 = PLANE( '', #173 );
#123 = PRODUCT_CONTEXT( '', #23, 'mechanical' );
#124 = PRODUCT_DEFINITION_FORMATION_WITH_SPECIFIED_SOURCE( ' ', 'NONE', #62, .NOT_KNOWN. );
#125 = CLOSED_SHELL( '', ( #49, #45, #37, #61, #47, #51, #59, #39, #41, #43, #53, #55, #57 ) );
#126 = CARTESIAN_POINT( '', ( 0.000000000000000, 0.000000000000000, 0.000000000000000 ) );
#127 = DIRECTION( '', ( 0.000000000000000, 0.000000000000000, 1.00000000000000 ) );
#128 = DIRECTION( '', ( 1.00000000000000, 0.000000000000000, 0.000000000000000 ) );
#129 =  ( LENGTH_UNIT(  )NAMED_UNIT( #71 )SI_UNIT( .MILLI., .METRE. ) );
#130 = SURFACE_SIDE_STYLE( '', ( #175 ) );
#131 = EDGE_LOOP( '', ( #176, #177, #178, #179 ) );
#132 = AXIS2_PLACEMENT_3D( '', #180, #181, #182 );
#133 = SURFACE_SIDE_STYLE( '', ( #183 ) );
#134 = EDGE_LOOP( '', ( #184, #185, #186, #187 ) );
#135 = AXIS2_PLACEMENT_3D( '', #188, #189, #190 );
#136 = SURFACE_SIDE_STYLE( '', ( #191 ) );
#137 = EDGE_LOOP( '', ( #192, #193, #194, #195 ) );
#138 = AXIS2_PLACEMENT_3D( '', #196, #197, #198 );
#139 = SURFACE_SIDE_STYLE( '', ( #199 ) );
#140 = EDGE_LOOP( '', ( #200 ) );
#141 = EDGE_LOOP( '', ( #201 ) );
#142 = AXIS2_PLACEMENT_3D( '', #202, #203, #204 );
#143 = SURFACE_SIDE_STYLE( '', ( #205 ) );
#144 = EDGE_LOOP( '', ( #206 ) );
#145 = EDGE_LOOP( '', ( #207, #208, #209, #210, #211, #212 ) );
#146 = AXIS2_PLACEMENT_3D( '', #213, #214, #215 );
#147 = SURFACE_SIDE_STYLE( '', ( #216 ) );
#148 = EDGE_LOOP( '', ( #217 ) );
#149 = EDGE_LOOP( '', ( #218 ) );
#150 = AXIS2_PLACEMENT_3D( '', #219, #220, #221 );
#151 = SURFACE_SIDE_STYLE( '', ( #222 ) );
#152 = EDGE_LOOP( '', ( #223, #224, #225, #226, #227, #228 ) );
#153 = EDGE_LOOP( '', ( #229 ) );
#154 = AXIS2_PLACEMENT_3D( '', #230, #231, #232 );
#155 = SURFACE_SIDE_STYLE( '', ( #233 ) );
#156 = EDGE_LOOP( '', ( #234, #235, #236, #237 ) );
#157 = AXIS2_PLACEMENT_3D( '', #238, #239, #240 );
#158 = SURFACE_SIDE_STYLE( '', ( #241 ) );
#159 = EDGE_LOOP( '', ( #242 ) );
#160 = AXIS2_PLACEMENT_3D( '', #243, #244, #245 );
#161 = SURFACE_SIDE_STYLE( '', ( #246 ) );
#162 = EDGE_LOOP( '', ( #247 ) );
#163 = AXIS2_PLACEMENT_3D( '', #248, #249, #250 );
#164 = SURFACE_SIDE_STYLE( '', ( #251 ) );
#165 = EDGE_LOOP( '', ( #252 ) );
#166 = EDGE_LOOP( '', ( #253 ) );
#167 = AXIS2_PLACEMENT_3D( '', #254, #255, #256 );
#168 = SURFACE_SIDE_STYLE( '', ( #257 ) );
#169 = EDGE_LOOP( '', ( #258, #259, #260, #261 ) );
#170 = AXIS2_PLACEMENT_3D( '', #262, #263, #264 );
#171 = SURFACE_SIDE_STYLE( '', ( #265 ) );
#172 = EDGE_LOOP( '', ( #266, #267, #268, #269 ) );
#173 = AXIS2_PLACEMENT_3D( '', #270, #271, #272 );
#175 = SURFACE_STYLE_FILL_AREA( #273 );
#176 = ORIENTED_EDGE( '', *, *, #274, .F. );
#177 = ORIENTED_EDGE( '', *, *, #275, .F. );
#178 = ORIENTED_EDGE( '', *, *, #276, .T. );
#179 = ORIENTED_EDGE( '', *, *, #277, .T. );
#180 = CARTESIAN_POINT( '', ( -4.82087474773338, -8.35000000000000, 9.00000000000000 ) );
#181 = DIRECTION( '', ( 1.43934332813141E-015, 1.00000000000000, 0.000000000000000 ) );
#182 = DIRECTION( '', ( -1.00000000000000, 1.43934332813141E-015, 0.000000000000000 ) );
#183 = SURFACE_STYLE_FILL_AREA( #278 );
#184 = ORIENTED_EDGE( '', *, *, #279, .F. );
#185 = ORIENTED_EDGE( '', *, *, #280, .F. );
#186 = ORIENTED_EDGE( '', *, *, #281, .T. );
#187 = ORIENTED_EDGE( '', *, *, #282, .T. );
#188 = CARTESIAN_POINT( '', ( -4.82087474773337, 8.35000000000000, 9.00000000000000 ) );
#189 = DIRECTION( '', ( 0.866025403784438, -0.500000000000000, 0.000000000000000 ) );
#190 = DIRECTION( '', ( 0.500000000000000, 0.866025403784438, 0.000000000000000 ) );
#191 = SURFACE_STYLE_FILL_AREA( #283 );
#192 = ORIENTED_EDGE( '', *, *, #284, .F. );
#193 = ORIENTED_EDGE( '', *, *, #282, .F. );
#194 = ORIENTED_EDGE( '', *, *, #285, .T. );
#195 = ORIENTED_EDGE( '', *, *, #275, .T. );
#196 = CARTESIAN_POINT( '', ( -9.64174949546676, 2.20989500437691E-014, 9.00000000000000 ) );
#197 = DIRECTION( '', ( 0.866025403784439, 0.500000000000000, 0.000000000000000 ) );
#198 = DIRECTION( '', ( -0.500000000000000, 0.866025403784439, 0.000000000000000 ) );
#199 = SURFACE_STYLE_FILL_AREA( #286 );
#200 = ORIENTED_EDGE( '', *, *, #287, .T. );
#201 = ORIENTED_EDGE( '', *, *, #288, .T. );
#202 = CARTESIAN_POINT( '', ( 0.000000000000000, 0.000000000000000, 57.1500000000000 ) );
#203 = DIRECTION( '', ( -0.000000000000000, -0.000000000000000, -1.00000000000000 ) );
#204 = DIRECTION( '', ( 1.00000000000000, 0.000000000000000, 0.000000000000000 ) );
#205 = SURFACE_STYLE_FILL_AREA( #289 );
#206 = ORIENTED_EDGE( '', *, *, #290, .F. );
#207 = ORIENTED_EDGE( '', *, *, #291, .T. );
#208 = ORIENTED_EDGE( '', *, *, #279, .T. );
#209 = ORIENTED_EDGE( '', *, *, #284, .T. );
#210 = ORIENTED_EDGE( '', *, *, #274, .T. );
#211 = ORIENTED_EDGE( '', *, *, #292, .T. );
#212 = ORIENTED_EDGE( '', *, *, #293, .T. );
#213 = CARTESIAN_POINT( '', ( 3.70047728493343E-015, 0.000000000000000, 0.000000000000000 ) );
#214 = DIRECTION( '', ( 0.000000000000000, 0.000000000000000, 1.00000000000000 ) );
#215 = DIRECTION( '', ( 1.00000000000000, 0.000000000000000, 0.000000000000000 ) );
#216 = SURFACE_STYLE_FILL_AREA( #294 );
#217 = ORIENTED_EDGE( '', *, *, #295, .F. );
#218 = ORIENTED_EDGE( '', *, *, #290, .T. );
#219 = CARTESIAN_POINT( '', ( 0.000000000000000, 0.000000000000000, 57.1500000000000 ) );
#220 = DIRECTION( '', ( -0.000000000000000, -0.000000000000000, -1.00000000000000 ) );
#221 = DIRECTION( '', ( 1.00000000000000, 0.000000000000000, 0.000000000000000 ) );
#222 = SURFACE_STYLE_FILL_AREA( #296 );
#223 = ORIENTED_EDGE( '', *, *, #297, .F. );
#224 = ORIENTED_EDGE( '', *, *, #298, .F. );
#225 = ORIENTED_EDGE( '', *, *, #299, .F. );
#226 = ORIENTED_EDGE( '', *, *, #276, .F. );
#227 = ORIENTED_EDGE( '', *, *, #285, .F. );
#228 = ORIENTED_EDGE( '', *, *, #281, .F. );
#229 = ORIENTED_EDGE( '', *, *, #288, .F. );
#230 = CARTESIAN_POINT( '', ( 0.000000000000000, 0.000000000000000, 9.00000000000000 ) );
#231 = DIRECTION( '', ( 0.000000000000000, 0.000000000000000, 1.00000000000000 ) );
#232 = DIRECTION( '', ( 1.00000000000000, 0.000000000000000, 0.000000000000000 ) );
#233 = SURFACE_STYLE_FILL_AREA( #300 );
#234 = ORIENTED_EDGE( '', *, *, #293, .F. );
#235 = ORIENTED_EDGE( '', *, *, #301, .F. );
#236 = ORIENTED_EDGE( '', *, *, #298, .T. );
#237 = ORIENTED_EDGE( '', *, *, #302, .T. );
#238 = CARTESIAN_POINT( '', ( 9.64174949546677, 2.09181762779887E-014, 9.00000000000000 ) );
#239 = DIRECTION( '', ( -0.866025403784438, -0.500000000000000, 0.000000000000000 ) );
#240 = DIRECTION( '', ( 0.500000000000000, -0.866025403784438, 0.000000000000000 ) );
#241 = SURFACE_STYLE_FILL_AREA( #303 );
#242 = ORIENTED_EDGE( '', *, *, #287, .F. );
#243 = CARTESIAN_POINT( '', ( 0.000000000000000, 0.000000000000000, 11.3186512801727 ) );
#244 = DIRECTION( '', ( 0.000000000000000, 0.000000000000000, 1.00000000000000 ) );
#245 = DIRECTION( '', ( 1.00000000000000, 0.000000000000000, 0.000000000000000 ) );
#246 = SURFACE_STYLE_FILL_AREA( #304 );
#247 = ORIENTED_EDGE( '', *, *, #305, .T. );
#248 = CARTESIAN_POINT( '', ( 0.000000000000000, 0.000000000000000, 10.5000000000000 ) );
#249 = DIRECTION( '', ( 0.000000000000000, 0.000000000000000, 1.00000000000000 ) );
#250 = DIRECTION( '', ( 1.00000000000000, 0.000000000000000, 0.000000000000000 ) );
#251 = SURFACE_STYLE_FILL_AREA( #306 );
#252 = ORIENTED_EDGE( '', *, *, #305, .F. );
#253 = ORIENTED_EDGE( '', *, *, #295, .T. );
#254 = CARTESIAN_POINT( '', ( 0.000000000000000, 0.000000000000000, 9.00000000000000 ) );
#255 = DIRECTION( '', ( -0.000000000000000, 0.000000000000000, -1.00000000000000 ) );
#256 = DIRECTION( '', ( -1.00000000000000, 0.000000000000000, 0.000000000000000 ) );
#257 = SURFACE_STYLE_FILL_AREA( #307 );
#258 = ORIENTED_EDGE( '', *, *, #291, .F. );
#259 = ORIENTED_EDGE( '', *, *, #302, .F. );
#260 = ORIENTED_EDGE( '', *, *, #297, .T. );
#261 = ORIENTED_EDGE( '', *, *, #280, .T. );
#262 = CARTESIAN_POINT( '', ( 4.82087474773338, 8.35000000000000, 9.00000000000000 ) );
#263 = DIRECTION( '', ( 0.000000000000000, -1.00000000000000, 0.000000000000000 ) );
#264 = DIRECTION( '', ( 0.000000000000000, 0.000000000000000, -1.00000000000000 ) );
#265 = SURFACE_STYLE_FILL_AREA( #308 );
#266 = ORIENTED_EDGE( '', *, *, #292, .F. );
#267 = ORIENTED_EDGE( '', *, *, #277, .F. );
#268 = ORIENTED_EDGE( '', *, *, #299, .T. );
#269 = ORIENTED_EDGE( '', *, *, #301, .T. );
#270 = CARTESIAN_POINT( '', ( 4.82087474773338, -8.35000000000000, 9.00000000000000 ) );
#271 = DIRECTION( '', ( -0.866025403784439, 0.500000000000000, 0.000000000000000 ) );
#272 = DIRECTION( '', ( -0.500000000000000, -0.866025403784439, 0.000000000000000 ) );
#273 = FILL_AREA_STYLE( '', ( #309 ) );
#274 = EDGE_CURVE( '', #310, #311, #312, .T. );
#275 = EDGE_CURVE( '', #313, #310, #314, .T. );
#276 = EDGE_CURVE( '', #313, #315, #316, .T. );
#277 = EDGE_CURVE( '', #315, #311, #317, .T. );
#278 = FILL_AREA_STYLE( '', ( #318 ) );
#279 = EDGE_CURVE( '', #319, #320, #321, .T. );
#280 = EDGE_CURVE( '', #322, #319, #323, .T. );
#281 = EDGE_CURVE( '', #322, #324, #325, .T. );
#282 = EDGE_CURVE( '', #324, #320, #326, .T. );
#283 = FILL_AREA_STYLE( '', ( #327 ) );
#284 = EDGE_CURVE( '', #320, #310, #328, .T. );
#285 = EDGE_CURVE( '', #324, #313, #329, .T. );
#286 = FILL_AREA_STYLE( '', ( #330 ) );
#287 = EDGE_CURVE( '', #331, #331, #332, .T. );
#288 = EDGE_CURVE( '', #333, #333, #334, .F. );
#289 = FILL_AREA_STYLE( '', ( #335 ) );
#290 = EDGE_CURVE( '', #336, #336, #337, .T. );
#291 = EDGE_CURVE( '', #338, #319, #339, .T. );
#292 = EDGE_CURVE( '', #311, #340, #341, .T. );
#293 = EDGE_CURVE( '', #340, #338, #342, .T. );
#294 = FILL_AREA_STYLE( '', ( #343 ) );
#295 = EDGE_CURVE( '', #344, #344, #345, .T. );
#296 = FILL_AREA_STYLE( '', ( #346 ) );
#297 = EDGE_CURVE( '', #347, #322, #348, .T. );
#298 = EDGE_CURVE( '', #349, #347, #350, .T. );
#299 = EDGE_CURVE( '', #315, #349, #351, .T. );
#300 = FILL_AREA_STYLE( '', ( #352 ) );
#301 = EDGE_CURVE( '', #349, #340, #353, .T. );
#302 = EDGE_CURVE( '', #347, #338, #354, .T. );
#303 = FILL_AREA_STYLE( '', ( #355 ) );
#304 = FILL_AREA_STYLE( '', ( #356 ) );
#305 = EDGE_CURVE( '', #357, #357, #358, .T. );
#306 = FILL_AREA_STYLE( '', ( #359 ) );
#307 = FILL_AREA_STYLE( '', ( #360 ) );
#308 = FILL_AREA_STYLE( '', ( #361 ) );
#309 = FILL_AREA_STYLE_COLOUR( '', #362 );
#310 = VERTEX_POINT( '', #363 );
#311 = VERTEX_POINT( '', #364 );
#312 = LINE( '', #365, #366 );
#313 = VERTEX_POINT( '', #367 );
#314 = LINE( '', #368, #369 );
#315 = VERTEX_POINT( '', #370 );
#316 = LINE( '', #371, #372 );
#317 = LINE( '', #373, #374 );
#318 = FILL_AREA_STYLE_COLOUR( '', #375 );
#319 = VERTEX_POINT( '', #376 );
#320 = VERTEX_POINT( '', #377 );
#321 = LINE( '', #378, #379 );
#322 = VERTEX_POINT( '', #380 );
#323 = LINE( '', #381, #382 );
#324 = VERTEX_POINT( '', #383 );
#325 = LINE( '', #384, #385 );
#326 = LINE( '', #386, #387 );
#327 = FILL_AREA_STYLE_COLOUR( '', #388 );
#328 = LINE( '', #389, #390 );
#329 = LINE( '', #391, #392 );
#330 = FILL_AREA_STYLE_COLOUR( '', #393 );
#331 = VERTEX_POINT( '', #394 );
#332 = CIRCLE( '', #395, 7.18134871982734 );
#333 = VERTEX_POINT( '', #396 );
#334 = CIRCLE( '', #397, 7.18134871982734 );
#335 = FILL_AREA_STYLE_COLOUR( '', #398 );
#336 = VERTEX_POINT( '', #399 );
#337 = CIRCLE( '', #400, 10.6500000000000 );
#338 = VERTEX_POINT( '', #401 );
#339 = LINE( '', #402, #403 );
#340 = VERTEX_POINT( '', #404 );
#341 = LINE( '', #405, #406 );
#342 = LINE( '', #407, #408 );
#343 = FILL_AREA_STYLE_COLOUR( '', #409 );
#344 = VERTEX_POINT( '', #410 );
#345 = CIRCLE( '', #411, 10.6500000000000 );
#346 = FILL_AREA_STYLE_COLOUR( '', #412 );
#347 = VERTEX_POINT( '', #413 );
#348 = LINE( '', #414, #415 );
#349 = VERTEX_POINT( '', #416 );
#350 = LINE( '', #417, #418 );
#351 = LINE( '', #419, #420 );
#352 = FILL_AREA_STYLE_COLOUR( '', #421 );
#353 = LINE( '', #422, #423 );
#354 = LINE( '', #424, #425 );
#355 = FILL_AREA_STYLE_COLOUR( '', #426 );
#356 = FILL_AREA_STYLE_COLOUR( '', #427 );
#357 = VERTEX_POINT( '', #428 );
#358 = CIRCLE( '', #429, 8.99872863091759 );
#359 = FILL_AREA_STYLE_COLOUR( '', #430 );
#360 = FILL_AREA_STYLE_COLOUR( '', #431 );
#361 = FILL_AREA_STYLE_COLOUR( '', #432 );
#362 = COLOUR_RGB( '', 0.200000002980232, 0.200000002980232, 0.200000002980232 );
#363 = CARTESIAN_POINT( '', ( -4.82087474773338, -8.35000000000000, 0.000000000000000 ) );
#364 = CARTESIAN_POINT( '', ( 4.82087474773338, -8.35000000000000, 0.000000000000000 ) );
#365 = CARTESIAN_POINT( '', ( -4.82087474773338, -8.35000000000000, 0.000000000000000 ) );
#366 = VECTOR( '', #433, 1000.00000000000 );
#367 = CARTESIAN_POINT( '', ( -4.82087474773338, -8.35000000000000, 9.00000000000000 ) );
#368 = CARTESIAN_POINT( '', ( -4.82087474773338, -8.35000000000000, 9.00000000000000 ) );
#369 = VECTOR( '', #434, 1000.00000000000 );
#370 = CARTESIAN_POINT( '', ( 4.82087474773338, -8.35000000000000, 9.00000000000000 ) );
#371 = CARTESIAN_POINT( '', ( -4.82087474773338, -8.35000000000000, 9.00000000000000 ) );
#372 = VECTOR( '', #435, 1000.00000000000 );
#373 = CARTESIAN_POINT( '', ( 4.82087474773338, -8.35000000000000, 9.00000000000000 ) );
#374 = VECTOR( '', #436, 1000.00000000000 );
#375 = COLOUR_RGB( '', 0.200000002980232, 0.200000002980232, 0.200000002980232 );
#376 = CARTESIAN_POINT( '', ( -4.82087474773337, 8.35000000000000, 0.000000000000000 ) );
#377 = CARTESIAN_POINT( '', ( -9.64174949546676, 2.25514051876985E-014, 0.000000000000000 ) );
#378 = CARTESIAN_POINT( '', ( -4.82087474773337, 8.35000000000000, 0.000000000000000 ) );
#379 = VECTOR( '', #437, 999.999999999999 );
#380 = CARTESIAN_POINT( '', ( -4.82087474773337, 8.35000000000000, 9.00000000000000 ) );
#381 = CARTESIAN_POINT( '', ( -4.82087474773337, 8.35000000000000, 9.00000000000000 ) );
#382 = VECTOR( '', #438, 1000.00000000000 );
#383 = CARTESIAN_POINT( '', ( -9.64174949546676, 2.25514051876985E-014, 9.00000000000000 ) );
#384 = CARTESIAN_POINT( '', ( -4.82087474773337, 8.35000000000000, 9.00000000000000 ) );
#385 = VECTOR( '', #439, 999.999999999999 );
#386 = CARTESIAN_POINT( '', ( -9.64174949546676, 2.25514051876985E-014, 9.00000000000000 ) );
#387 = VECTOR( '', #440, 1000.00000000000 );
#388 = COLOUR_RGB( '', 0.200000002980232, 0.200000002980232, 0.200000002980232 );
#389 = CARTESIAN_POINT( '', ( -9.64174949546676, 2.20989500437691E-014, 0.000000000000000 ) );
#390 = VECTOR( '', #441, 1000.00000000000 );
#391 = CARTESIAN_POINT( '', ( -9.64174949546676, 2.20989500437691E-014, 9.00000000000000 ) );
#392 = VECTOR( '', #442, 1000.00000000000 );
#393 = COLOUR_RGB( '', 0.200000002980232, 0.200000002980232, 0.200000002980232 );
#394 = CARTESIAN_POINT( '', ( 7.18134871982734, 0.000000000000000, 11.3186512801727 ) );
#395 = AXIS2_PLACEMENT_3D( '', #443, #444, #445 );
#396 = CARTESIAN_POINT( '', ( 7.18134871982734, 0.000000000000000, 9.00000000000000 ) );
#397 = AXIS2_PLACEMENT_3D( '', #446, #447, #448 );
#398 = COLOUR_RGB( '', 0.200000002980232, 0.200000002980232, 0.200000002980232 );
#399 = CARTESIAN_POINT( '', ( 10.6500000000000, 0.000000000000000, 0.000000000000000 ) );
#400 = AXIS2_PLACEMENT_3D( '', #449, #450, #451 );
#401 = CARTESIAN_POINT( '', ( 4.82087474773338, 8.35000000000000, 0.000000000000000 ) );
#402 = CARTESIAN_POINT( '', ( 4.82087474773338, 8.35000000000000, 0.000000000000000 ) );
#403 = VECTOR( '', #452, 1000.00000000000 );
#404 = CARTESIAN_POINT( '', ( 9.64174949546677, 2.08166817117217E-014, 0.000000000000000 ) );
#405 = CARTESIAN_POINT( '', ( 4.82087474773338, -8.35000000000000, 0.000000000000000 ) );
#406 = VECTOR( '', #453, 1000.00000000000 );
#407 = CARTESIAN_POINT( '', ( 9.64174949546677, 2.09181762779887E-014, 0.000000000000000 ) );
#408 = VECTOR( '', #454, 999.999999999999 );
#409 = COLOUR_RGB( '', 0.200000002980232, 0.200000002980232, 0.200000002980232 );
#410 = CARTESIAN_POINT( '', ( 10.6500000000000, 0.000000000000000, 9.00000000000000 ) );
#411 = AXIS2_PLACEMENT_3D( '', #455, #456, #457 );
#412 = COLOUR_RGB( '', 0.200000002980232, 0.200000002980232, 0.200000002980232 );
#413 = CARTESIAN_POINT( '', ( 4.82087474773339, 8.35000000000000, 9.00000000000000 ) );
#414 = CARTESIAN_POINT( '', ( 4.82087474773338, 8.35000000000000, 9.00000000000000 ) );
#415 = VECTOR( '', #458, 1000.00000000000 );
#416 = CARTESIAN_POINT( '', ( 9.64174949546677, 2.08166817117217E-014, 9.00000000000000 ) );
#417 = CARTESIAN_POINT( '', ( 9.64174949546677, 2.09181762779887E-014, 9.00000000000000 ) );
#418 = VECTOR( '', #459, 999.999999999999 );
#419 = CARTESIAN_POINT( '', ( 4.82087474773338, -8.35000000000000, 9.00000000000000 ) );
#420 = VECTOR( '', #460, 1000.00000000000 );
#421 = COLOUR_RGB( '', 0.200000002980232, 0.200000002980232, 0.200000002980232 );
#422 = CARTESIAN_POINT( '', ( 9.64174949546677, 2.08166817117217E-014, 9.00000000000000 ) );
#423 = VECTOR( '', #461, 1000.00000000000 );
#424 = CARTESIAN_POINT( '', ( 4.82087474773339, 8.35000000000000, 9.00000000000000 ) );
#425 = VECTOR( '', #462, 1000.00000000000 );
#426 = COLOUR_RGB( '', 0.200000002980232, 0.200000002980232, 0.200000002980232 );
#427 = COLOUR_RGB( '', 0.200000002980232, 0.200000002980232, 0.200000002980232 );
#428 = CARTESIAN_POINT( '', ( 8.99872863091759, 0.000000000000000, 10.6512713690824 ) );
#429 = AXIS2_PLACEMENT_3D( '', #463, #464, #465 );
#430 = COLOUR_RGB( '', 0.200000002980232, 0.200000002980232, 0.200000002980232 );
#431 = COLOUR_RGB( '', 0.200000002980232, 0.200000002980232, 0.200000002980232 );
#432 = COLOUR_RGB( '', 0.200000002980232, 0.200000002980232, 0.200000002980232 );
#433 = DIRECTION( '', ( 1.00000000000000, -1.43934332813141E-015, 0.000000000000000 ) );
#434 = DIRECTION( '', ( 0.000000000000000, 0.000000000000000, -1.00000000000000 ) );
#435 = DIRECTION( '', ( 1.00000000000000, -1.43934332813141E-015, 0.000000000000000 ) );
#436 = DIRECTION( '', ( 0.000000000000000, 0.000000000000000, -1.00000000000000 ) );
#437 = DIRECTION( '', ( -0.500000000000000, -0.866025403784438, 0.000000000000000 ) );
#438 = DIRECTION( '', ( 0.000000000000000, 0.000000000000000, -1.00000000000000 ) );
#439 = DIRECTION( '', ( -0.500000000000000, -0.866025403784438, 0.000000000000000 ) );
#440 = DIRECTION( '', ( 0.000000000000000, 0.000000000000000, -1.00000000000000 ) );
#441 = DIRECTION( '', ( 0.500000000000000, -0.866025403784439, 0.000000000000000 ) );
#442 = DIRECTION( '', ( 0.500000000000000, -0.866025403784439, 0.000000000000000 ) );
#443 = CARTESIAN_POINT( '', ( 0.000000000000000, 0.000000000000000, 11.3186512801727 ) );
#444 = DIRECTION( '', ( 0.000000000000000, 0.000000000000000, 1.00000000000000 ) );
#445 = DIRECTION( '', ( 1.00000000000000, 0.000000000000000, 0.000000000000000 ) );
#446 = CARTESIAN_POINT( '', ( 0.000000000000000, 0.000000000000000, 9.00000000000000 ) );
#447 = DIRECTION( '', ( 0.000000000000000, 0.000000000000000, 1.00000000000000 ) );
#448 = DIRECTION( '', ( 1.00000000000000, 0.000000000000000, 0.000000000000000 ) );
#449 = CARTESIAN_POINT( '', ( 0.000000000000000, 0.000000000000000, 0.000000000000000 ) );
#450 = DIRECTION( '', ( 0.000000000000000, 0.000000000000000, 1.00000000000000 ) );
#451 = DIRECTION( '', ( 1.00000000000000, 0.000000000000000, 0.000000000000000 ) );
#452 = DIRECTION( '', ( -1.00000000000000, 0.000000000000000, 0.000000000000000 ) );
#453 = DIRECTION( '', ( 0.500000000000000, 0.866025403784439, 0.000000000000000 ) );
#454 = DIRECTION( '', ( -0.500000000000000, 0.866025403784438, 0.000000000000000 ) );
#455 = CARTESIAN_POINT( '', ( 0.000000000000000, 0.000000000000000, 9.00000000000000 ) );
#456 = DIRECTION( '', ( 0.000000000000000, 0.000000000000000, 1.00000000000000 ) );
#457 = DIRECTION( '', ( 1.00000000000000, 0.000000000000000, 0.000000000000000 ) );
#458 = DIRECTION( '', ( -1.00000000000000, 0.000000000000000, 0.000000000000000 ) );
#459 = DIRECTION( '', ( -0.500000000000000, 0.866025403784438, 0.000000000000000 ) );
#460 = DIRECTION( '', ( 0.500000000000000, 0.866025403784439, 0.000000000000000 ) );
#461 = DIRECTION( '', ( 0.000000000000000, 0.000000000000000, -1.00000000000000 ) );
#462 = DIRECTION( '', ( 0.000000000000000, 0.000000000000000, -1.00000000000000 ) );
#463 = CARTESIAN_POINT( '', ( 0.000000000000000, 0.000000000000000, 10.6512713690824 ) );
#464 = DIRECTION( '', ( 0.000000000000000, 0.000000000000000, 1.00000000000000 ) );
#465 = DIRECTION( '', ( 1.00000000000000, 0.000000000000000, 0.000000000000000 ) );
ENDSEC;
END-ISO-10303-21;
