ISO-10303-21;
HEADER;
FILE_DESCRIPTION( ( 'Unknown' ), '1' );
FILE_NAME( '//SBS2003/HD_Usb/Disegni/08_LIB/Users_3D/PROD_GAMM_3D/CD/7371461_CD19.stp', 'Unknown', ( 'Unknown' ), ( 'Unknown' ), 'PSStep 14.0', 'Unknown', '  ' );
FILE_SCHEMA( ( 'AUTOMOTIVE_DESIGN { 1 0 10303 214 1 1 1 1 }' ) );
ENDSEC;
DATA;
#1 = MECHANICAL_DESIGN_GEOMETRIC_PRESENTATION_REPRESENTATION( ' ', ( #10, #11, #12, #13, #14, #15, #16, #17, #18, #19, #20, #21, #22 ), #6 );
#2 = PRODUCT_DEFINITION_CONTEXT( '', #23, 'design' );
#3 = APPLICATION_PROTOCOL_DEFINITION( 'international standard', 'automotive_design', 2001, #23 );
#4 = PRODUCT_CATEGORY_RELATIONSHIP( 'NONE', 'NONE', #24, #25 );
#5 = SHAPE_DEFINITION_REPRESENTATION( #26, #27 );
#6 =  ( GEOMETRIC_REPRESENTATION_CONTEXT( 3 )GLOBAL_UNCERTAINTY_ASSIGNED_CONTEXT( ( #30 ) )GLOBAL_UNIT_ASSIGNED_CONTEXT( ( #32, #33, #34 ) )REPRESENTATION_CONTEXT( 'NONE', 'WORKSPACE' ) );
#10 = STYLED_ITEM( '', ( #36 ), #37 );
#11 = STYLED_ITEM( '', ( #38 ), #39 );
#12 = STYLED_ITEM( '', ( #40 ), #41 );
#13 = STYLED_ITEM( '', ( #42 ), #43 );
#14 = STYLED_ITEM( '', ( #44 ), #45 );
#15 = STYLED_ITEM( '', ( #46 ), #47 );
#16 = STYLED_ITEM( '', ( #48 ), #49 );
#17 = STYLED_ITEM( '', ( #50 ), #51 );
#18 = STYLED_ITEM( '', ( #52 ), #53 );
#19 = STYLED_ITEM( '', ( #54 ), #55 );
#20 = STYLED_ITEM( '', ( #56 ), #57 );
#21 = STYLED_ITEM( '', ( #58 ), #59 );
#22 = STYLED_ITEM( '', ( #60 ), #61 );
#23 = APPLICATION_CONTEXT( 'core data for automotive mechanical design processes' );
#24 = PRODUCT_CATEGORY( 'part', 'NONE' );
#25 = PRODUCT_RELATED_PRODUCT_CATEGORY( 'detail', ' ', ( #62 ) );
#26 = PRODUCT_DEFINITION_SHAPE( 'NONE', 'NONE', #63 );
#27 = ADVANCED_BREP_SHAPE_REPRESENTATION( '1', ( #64, #65 ), #6 );
#30 = UNCERTAINTY_MEASURE_WITH_UNIT( LENGTH_MEASURE( 0.00100000000000000 ), #32, '', '' );
#32 =  ( CONVERSION_BASED_UNIT( 'MILLIMETRE', #68 )LENGTH_UNIT(  )NAMED_UNIT( #71 ) );
#33 =  ( NAMED_UNIT( #73 )PLANE_ANGLE_UNIT(  )SI_UNIT( $, .RADIAN. ) );
#34 =  ( NAMED_UNIT( #73 )SI_UNIT( $, .STERADIAN. )SOLID_ANGLE_UNIT(  ) );
#36 = PRESENTATION_STYLE_ASSIGNMENT( ( #79 ) );
#37 = ADVANCED_FACE( '', ( #80, #81 ), #82, .F. );
#38 = PRESENTATION_STYLE_ASSIGNMENT( ( #83 ) );
#39 = ADVANCED_FACE( '', ( #84 ), #85, .T. );
#40 = PRESENTATION_STYLE_ASSIGNMENT( ( #86 ) );
#41 = ADVANCED_FACE( '', ( #87 ), #88, .F. );
#42 = PRESENTATION_STYLE_ASSIGNMENT( ( #89 ) );
#43 = ADVANCED_FACE( '', ( #90 ), #91, .T. );
#44 = PRESENTATION_STYLE_ASSIGNMENT( ( #92 ) );
#45 = ADVANCED_FACE( '', ( #93 ), #94, .T. );
#46 = PRESENTATION_STYLE_ASSIGNMENT( ( #95 ) );
#47 = ADVANCED_FACE( '', ( #96, #97 ), #98, .F. );
#48 = PRESENTATION_STYLE_ASSIGNMENT( ( #99 ) );
#49 = ADVANCED_FACE( '', ( #100 ), #101, .T. );
#50 = PRESENTATION_STYLE_ASSIGNMENT( ( #102 ) );
#51 = ADVANCED_FACE( '', ( #103 ), #104, .T. );
#52 = PRESENTATION_STYLE_ASSIGNMENT( ( #105 ) );
#53 = ADVANCED_FACE( '', ( #106 ), #107, .T. );
#54 = PRESENTATION_STYLE_ASSIGNMENT( ( #108 ) );
#55 = ADVANCED_FACE( '', ( #109, #110 ), #111, .F. );
#56 = PRESENTATION_STYLE_ASSIGNMENT( ( #112 ) );
#57 = ADVANCED_FACE( '', ( #113, #114 ), #115, .T. );
#58 = PRESENTATION_STYLE_ASSIGNMENT( ( #116 ) );
#59 = ADVANCED_FACE( '', ( #117, #118 ), #119, .T. );
#60 = PRESENTATION_STYLE_ASSIGNMENT( ( #120 ) );
#61 = ADVANCED_FACE( '', ( #121 ), #122, .T. );
#62 = PRODUCT( '1', '1', 'PART-1-DESC', ( #123 ) );
#63 = PRODUCT_DEFINITION( 'NONE', 'NONE', #124, #2 );
#64 = MANIFOLD_SOLID_BREP( '1', #125 );
#65 = AXIS2_PLACEMENT_3D( '', #126, #127, #128 );
#68 = LENGTH_MEASURE_WITH_UNIT( LENGTH_MEASURE( 1.00000000000000 ), #129 );
#71 = DIMENSIONAL_EXPONENTS( 1.00000000000000, 0.000000000000000, 0.000000000000000, 0.000000000000000, 0.000000000000000, 0.000000000000000, 0.000000000000000 );
#73 = DIMENSIONAL_EXPONENTS( 0.000000000000000, 0.000000000000000, 0.000000000000000, 0.000000000000000, 0.000000000000000, 0.000000000000000, 0.000000000000000 );
#79 = SURFACE_STYLE_USAGE( .BOTH., #130 );
#80 = FACE_OUTER_BOUND( '', #131, .T. );
#81 = FACE_BOUND( '', #132, .T. );
#82 = PLANE( '', #133 );
#83 = SURFACE_STYLE_USAGE( .BOTH., #134 );
#84 = FACE_OUTER_BOUND( '', #135, .T. );
#85 = PLANE( '', #136 );
#86 = SURFACE_STYLE_USAGE( .BOTH., #137 );
#87 = FACE_OUTER_BOUND( '', #138, .T. );
#88 = SPHERICAL_SURFACE( '', #139, 8.68134871982734 );
#89 = SURFACE_STYLE_USAGE( .BOTH., #140 );
#90 = FACE_OUTER_BOUND( '', #141, .T. );
#91 = PLANE( '', #142 );
#92 = SURFACE_STYLE_USAGE( .BOTH., #143 );
#93 = FACE_OUTER_BOUND( '', #144, .T. );
#94 = PLANE( '', #145 );
#95 = SURFACE_STYLE_USAGE( .BOTH., #146 );
#96 = FACE_OUTER_BOUND( '', #147, .T. );
#97 = FACE_BOUND( '', #148, .T. );
#98 = PLANE( '', #149 );
#99 = SURFACE_STYLE_USAGE( .BOTH., #150 );
#100 = FACE_OUTER_BOUND( '', #151, .T. );
#101 = PLANE( '', #152 );
#102 = SURFACE_STYLE_USAGE( .BOTH., #153 );
#103 = FACE_OUTER_BOUND( '', #154, .T. );
#104 = PLANE( '', #155 );
#105 = SURFACE_STYLE_USAGE( .BOTH., #156 );
#106 = FACE_OUTER_BOUND( '', #157, .T. );
#107 = PLANE( '', #158 );
#108 = SURFACE_STYLE_USAGE( .BOTH., #159 );
#109 = FACE_OUTER_BOUND( '', #160, .T. );
#110 = FACE_OUTER_BOUND( '', #161, .T. );
#111 = CYLINDRICAL_SURFACE( '', #162, 8.68134871982734 );
#112 = SURFACE_STYLE_USAGE( .BOTH., #163 );
#113 = FACE_OUTER_BOUND( '', #164, .T. );
#114 = FACE_OUTER_BOUND( '', #165, .T. );
#115 = CYLINDRICAL_SURFACE( '', #166, 11.8000000000000 );
#116 = SURFACE_STYLE_USAGE( .BOTH., #167 );
#117 = FACE_BOUND( '', #168, .T. );
#118 = FACE_OUTER_BOUND( '', #169, .T. );
#119 = CONICAL_SURFACE( '', #170, 11.8000000000000, 0.785398163397451 );
#120 = SURFACE_STYLE_USAGE( .BOTH., #171 );
#121 = FACE_OUTER_BOUND( '', #172, .T. );
#122 = SPHERICAL_SURFACE( '', #173, 11.0000000000000 );
#123 = PRODUCT_CONTEXT( '', #23, 'mechanical' );
#124 = PRODUCT_DEFINITION_FORMATION_WITH_SPECIFIED_SOURCE( ' ', 'NONE', #62, .NOT_KNOWN. );
#125 = CLOSED_SHELL( '', ( #37, #47, #43, #51, #57, #39, #49, #53, #45, #55, #41, #61, #59 ) );
#126 = CARTESIAN_POINT( '', ( 0.000000000000000, 0.000000000000000, 0.000000000000000 ) );
#127 = DIRECTION( '', ( 0.000000000000000, 0.000000000000000, 1.00000000000000 ) );
#128 = DIRECTION( '', ( 1.00000000000000, 0.000000000000000, 0.000000000000000 ) );
#129 =  ( LENGTH_UNIT(  )NAMED_UNIT( #71 )SI_UNIT( .MILLI., .METRE. ) );
#130 = SURFACE_SIDE_STYLE( '', ( #175 ) );
#131 = EDGE_LOOP( '', ( #176, #177, #178, #179, #180, #181 ) );
#132 = EDGE_LOOP( '', ( #182 ) );
#133 = AXIS2_PLACEMENT_3D( '', #183, #184, #185 );
#134 = SURFACE_SIDE_STYLE( '', ( #186 ) );
#135 = EDGE_LOOP( '', ( #187, #188, #189, #190 ) );
#136 = AXIS2_PLACEMENT_3D( '', #191, #192, #193 );
#137 = SURFACE_SIDE_STYLE( '', ( #194 ) );
#138 = EDGE_LOOP( '', ( #195 ) );
#139 = AXIS2_PLACEMENT_3D( '', #196, #197, #198 );
#140 = SURFACE_SIDE_STYLE( '', ( #199 ) );
#141 = EDGE_LOOP( '', ( #200, #201, #202, #203 ) );
#142 = AXIS2_PLACEMENT_3D( '', #204, #205, #206 );
#143 = SURFACE_SIDE_STYLE( '', ( #207 ) );
#144 = EDGE_LOOP( '', ( #208, #209, #210, #211 ) );
#145 = AXIS2_PLACEMENT_3D( '', #212, #213, #214 );
#146 = SURFACE_SIDE_STYLE( '', ( #215 ) );
#147 = EDGE_LOOP( '', ( #216 ) );
#148 = EDGE_LOOP( '', ( #217, #218, #219, #220, #221, #222 ) );
#149 = AXIS2_PLACEMENT_3D( '', #223, #224, #225 );
#150 = SURFACE_SIDE_STYLE( '', ( #226 ) );
#151 = EDGE_LOOP( '', ( #227, #228, #229, #230 ) );
#152 = AXIS2_PLACEMENT_3D( '', #231, #232, #233 );
#153 = SURFACE_SIDE_STYLE( '', ( #234 ) );
#154 = EDGE_LOOP( '', ( #235, #236, #237, #238 ) );
#155 = AXIS2_PLACEMENT_3D( '', #239, #240, #241 );
#156 = SURFACE_SIDE_STYLE( '', ( #242 ) );
#157 = EDGE_LOOP( '', ( #243, #244, #245, #246 ) );
#158 = AXIS2_PLACEMENT_3D( '', #247, #248, #249 );
#159 = SURFACE_SIDE_STYLE( '', ( #250 ) );
#160 = EDGE_LOOP( '', ( #251 ) );
#161 = EDGE_LOOP( '', ( #252 ) );
#162 = AXIS2_PLACEMENT_3D( '', #253, #254, #255 );
#163 = SURFACE_SIDE_STYLE( '', ( #256 ) );
#164 = EDGE_LOOP( '', ( #257 ) );
#165 = EDGE_LOOP( '', ( #258 ) );
#166 = AXIS2_PLACEMENT_3D( '', #259, #260, #261 );
#167 = SURFACE_SIDE_STYLE( '', ( #262 ) );
#168 = EDGE_LOOP( '', ( #263 ) );
#169 = EDGE_LOOP( '', ( #264 ) );
#170 = AXIS2_PLACEMENT_3D( '', #265, #266, #267 );
#171 = SURFACE_SIDE_STYLE( '', ( #268 ) );
#172 = EDGE_LOOP( '', ( #269 ) );
#173 = AXIS2_PLACEMENT_3D( '', #270, #271, #272 );
#175 = SURFACE_STYLE_FILL_AREA( #273 );
#176 = ORIENTED_EDGE( '', *, *, #274, .F. );
#177 = ORIENTED_EDGE( '', *, *, #275, .F. );
#178 = ORIENTED_EDGE( '', *, *, #276, .F. );
#179 = ORIENTED_EDGE( '', *, *, #277, .F. );
#180 = ORIENTED_EDGE( '', *, *, #278, .F. );
#181 = ORIENTED_EDGE( '', *, *, #279, .F. );
#182 = ORIENTED_EDGE( '', *, *, #280, .F. );
#183 = CARTESIAN_POINT( '', ( 0.000000000000000, 0.000000000000000, 11.0000000000000 ) );
#184 = DIRECTION( '', ( 0.000000000000000, 0.000000000000000, 1.00000000000000 ) );
#185 = DIRECTION( '', ( 1.00000000000000, 0.000000000000000, 0.000000000000000 ) );
#186 = SURFACE_STYLE_FILL_AREA( #281 );
#187 = ORIENTED_EDGE( '', *, *, #282, .F. );
#188 = ORIENTED_EDGE( '', *, *, #283, .F. );
#189 = ORIENTED_EDGE( '', *, *, #275, .T. );
#190 = ORIENTED_EDGE( '', *, *, #284, .T. );
#191 = CARTESIAN_POINT( '', ( 10.7964500338460, 3.13176702942916E-014, 11.0000000000000 ) );
#192 = DIRECTION( '', ( -0.866025403784438, -0.500000000000000, 0.000000000000000 ) );
#193 = DIRECTION( '', ( 0.500000000000000, -0.866025403784438, 0.000000000000000 ) );
#194 = SURFACE_STYLE_FILL_AREA( #285 );
#195 = ORIENTED_EDGE( '', *, *, #286, .F. );
#196 = CARTESIAN_POINT( '', ( 0.000000000000000, 0.000000000000000, 11.3186512801727 ) );
#197 = DIRECTION( '', ( 0.000000000000000, 0.000000000000000, 1.00000000000000 ) );
#198 = DIRECTION( '', ( 1.00000000000000, 0.000000000000000, 0.000000000000000 ) );
#199 = SURFACE_STYLE_FILL_AREA( #287 );
#200 = ORIENTED_EDGE( '', *, *, #288, .F. );
#201 = ORIENTED_EDGE( '', *, *, #289, .F. );
#202 = ORIENTED_EDGE( '', *, *, #277, .T. );
#203 = ORIENTED_EDGE( '', *, *, #290, .T. );
#204 = CARTESIAN_POINT( '', ( -5.39822501692301, -9.35000000000000, 11.0000000000000 ) );
#205 = DIRECTION( '', ( 1.28540286522965E-015, 1.00000000000000, 0.000000000000000 ) );
#206 = DIRECTION( '', ( -1.00000000000000, 1.28540286522965E-015, 0.000000000000000 ) );
#207 = SURFACE_STYLE_FILL_AREA( #291 );
#208 = ORIENTED_EDGE( '', *, *, #292, .F. );
#209 = ORIENTED_EDGE( '', *, *, #293, .F. );
#210 = ORIENTED_EDGE( '', *, *, #278, .T. );
#211 = ORIENTED_EDGE( '', *, *, #289, .T. );
#212 = CARTESIAN_POINT( '', ( -10.7964500338460, 3.26398540919021E-014, 11.0000000000000 ) );
#213 = DIRECTION( '', ( 0.866025403784439, 0.500000000000000, 0.000000000000000 ) );
#214 = DIRECTION( '', ( -0.500000000000000, 0.866025403784439, 0.000000000000000 ) );
#215 = SURFACE_STYLE_FILL_AREA( #294 );
#216 = ORIENTED_EDGE( '', *, *, #295, .F. );
#217 = ORIENTED_EDGE( '', *, *, #296, .T. );
#218 = ORIENTED_EDGE( '', *, *, #297, .T. );
#219 = ORIENTED_EDGE( '', *, *, #292, .T. );
#220 = ORIENTED_EDGE( '', *, *, #288, .T. );
#221 = ORIENTED_EDGE( '', *, *, #298, .T. );
#222 = ORIENTED_EDGE( '', *, *, #282, .T. );
#223 = CARTESIAN_POINT( '', ( 2.83311554694503E-015, 0.000000000000000, 0.000000000000000 ) );
#224 = DIRECTION( '', ( 0.000000000000000, 0.000000000000000, 1.00000000000000 ) );
#225 = DIRECTION( '', ( 1.00000000000000, 0.000000000000000, 0.000000000000000 ) );
#226 = SURFACE_STYLE_FILL_AREA( #299 );
#227 = ORIENTED_EDGE( '', *, *, #296, .F. );
#228 = ORIENTED_EDGE( '', *, *, #284, .F. );
#229 = ORIENTED_EDGE( '', *, *, #274, .T. );
#230 = ORIENTED_EDGE( '', *, *, #300, .T. );
#231 = CARTESIAN_POINT( '', ( 5.39822501692302, 9.35000000000000, 11.0000000000000 ) );
#232 = DIRECTION( '', ( 0.000000000000000, -1.00000000000000, 0.000000000000000 ) );
#233 = DIRECTION( '', ( 0.000000000000000, 0.000000000000000, -1.00000000000000 ) );
#234 = SURFACE_STYLE_FILL_AREA( #301 );
#235 = ORIENTED_EDGE( '', *, *, #298, .F. );
#236 = ORIENTED_EDGE( '', *, *, #290, .F. );
#237 = ORIENTED_EDGE( '', *, *, #276, .T. );
#238 = ORIENTED_EDGE( '', *, *, #283, .T. );
#239 = CARTESIAN_POINT( '', ( 5.39822501692302, -9.35000000000000, 11.0000000000000 ) );
#240 = DIRECTION( '', ( -0.866025403784439, 0.500000000000000, 0.000000000000000 ) );
#241 = DIRECTION( '', ( -0.500000000000000, -0.866025403784439, 0.000000000000000 ) );
#242 = SURFACE_STYLE_FILL_AREA( #302 );
#243 = ORIENTED_EDGE( '', *, *, #297, .F. );
#244 = ORIENTED_EDGE( '', *, *, #300, .F. );
#245 = ORIENTED_EDGE( '', *, *, #279, .T. );
#246 = ORIENTED_EDGE( '', *, *, #293, .T. );
#247 = CARTESIAN_POINT( '', ( -5.39822501692301, 9.35000000000000, 11.0000000000000 ) );
#248 = DIRECTION( '', ( 0.866025403784438, -0.500000000000000, 0.000000000000000 ) );
#249 = DIRECTION( '', ( 0.500000000000000, 0.866025403784438, 0.000000000000000 ) );
#250 = SURFACE_STYLE_FILL_AREA( #303 );
#251 = ORIENTED_EDGE( '', *, *, #286, .T. );
#252 = ORIENTED_EDGE( '', *, *, #280, .T. );
#253 = CARTESIAN_POINT( '', ( 0.000000000000000, 0.000000000000000, 57.1500000000000 ) );
#254 = DIRECTION( '', ( -0.000000000000000, -0.000000000000000, -1.00000000000000 ) );
#255 = DIRECTION( '', ( 1.00000000000000, 0.000000000000000, 0.000000000000000 ) );
#256 = SURFACE_STYLE_FILL_AREA( #304 );
#257 = ORIENTED_EDGE( '', *, *, #305, .F. );
#258 = ORIENTED_EDGE( '', *, *, #295, .T. );
#259 = CARTESIAN_POINT( '', ( 0.000000000000000, 0.000000000000000, 57.1500000000000 ) );
#260 = DIRECTION( '', ( -0.000000000000000, -0.000000000000000, -1.00000000000000 ) );
#261 = DIRECTION( '', ( 1.00000000000000, 0.000000000000000, 0.000000000000000 ) );
#262 = SURFACE_STYLE_FILL_AREA( #306 );
#263 = ORIENTED_EDGE( '', *, *, #307, .F. );
#264 = ORIENTED_EDGE( '', *, *, #305, .T. );
#265 = CARTESIAN_POINT( '', ( 0.000000000000000, 0.000000000000000, 11.0000000000000 ) );
#266 = DIRECTION( '', ( -0.000000000000000, 0.000000000000000, -1.00000000000000 ) );
#267 = DIRECTION( '', ( -1.00000000000000, 0.000000000000000, 0.000000000000000 ) );
#268 = SURFACE_STYLE_FILL_AREA( #308 );
#269 = ORIENTED_EDGE( '', *, *, #307, .T. );
#270 = CARTESIAN_POINT( '', ( 0.000000000000000, 0.000000000000000, 10.5000000000000 ) );
#271 = DIRECTION( '', ( 0.000000000000000, 0.000000000000000, 1.00000000000000 ) );
#272 = DIRECTION( '', ( 1.00000000000000, 0.000000000000000, 0.000000000000000 ) );
#273 = FILL_AREA_STYLE( '', ( #309 ) );
#274 = EDGE_CURVE( '', #310, #311, #312, .T. );
#275 = EDGE_CURVE( '', #313, #310, #314, .T. );
#276 = EDGE_CURVE( '', #315, #313, #316, .T. );
#277 = EDGE_CURVE( '', #317, #315, #318, .T. );
#278 = EDGE_CURVE( '', #319, #317, #320, .T. );
#279 = EDGE_CURVE( '', #311, #319, #321, .T. );
#280 = EDGE_CURVE( '', #322, #322, #323, .F. );
#281 = FILL_AREA_STYLE( '', ( #324 ) );
#282 = EDGE_CURVE( '', #325, #326, #327, .T. );
#283 = EDGE_CURVE( '', #313, #325, #328, .T. );
#284 = EDGE_CURVE( '', #310, #326, #329, .T. );
#285 = FILL_AREA_STYLE( '', ( #330 ) );
#286 = EDGE_CURVE( '', #331, #331, #332, .T. );
#287 = FILL_AREA_STYLE( '', ( #333 ) );
#288 = EDGE_CURVE( '', #334, #335, #336, .T. );
#289 = EDGE_CURVE( '', #317, #334, #337, .T. );
#290 = EDGE_CURVE( '', #315, #335, #338, .T. );
#291 = FILL_AREA_STYLE( '', ( #339 ) );
#292 = EDGE_CURVE( '', #340, #334, #341, .T. );
#293 = EDGE_CURVE( '', #319, #340, #342, .T. );
#294 = FILL_AREA_STYLE( '', ( #343 ) );
#295 = EDGE_CURVE( '', #344, #344, #345, .T. );
#296 = EDGE_CURVE( '', #326, #346, #347, .T. );
#297 = EDGE_CURVE( '', #346, #340, #348, .T. );
#298 = EDGE_CURVE( '', #335, #325, #349, .T. );
#299 = FILL_AREA_STYLE( '', ( #350 ) );
#300 = EDGE_CURVE( '', #311, #346, #351, .T. );
#301 = FILL_AREA_STYLE( '', ( #352 ) );
#302 = FILL_AREA_STYLE( '', ( #353 ) );
#303 = FILL_AREA_STYLE( '', ( #354 ) );
#304 = FILL_AREA_STYLE( '', ( #355 ) );
#305 = EDGE_CURVE( '', #356, #356, #357, .T. );
#306 = FILL_AREA_STYLE( '', ( #358 ) );
#307 = EDGE_CURVE( '', #359, #359, #360, .T. );
#308 = FILL_AREA_STYLE( '', ( #361 ) );
#309 = FILL_AREA_STYLE_COLOUR( '', #362 );
#310 = VERTEX_POINT( '', #363 );
#311 = VERTEX_POINT( '', #364 );
#312 = LINE( '', #365, #366 );
#313 = VERTEX_POINT( '', #367 );
#314 = LINE( '', #368, #369 );
#315 = VERTEX_POINT( '', #370 );
#316 = LINE( '', #371, #372 );
#317 = VERTEX_POINT( '', #373 );
#318 = LINE( '', #374, #375 );
#319 = VERTEX_POINT( '', #376 );
#320 = LINE( '', #377, #378 );
#321 = LINE( '', #379, #380 );
#322 = VERTEX_POINT( '', #381 );
#323 = CIRCLE( '', #382, 8.68134871982734 );
#324 = FILL_AREA_STYLE_COLOUR( '', #383 );
#325 = VERTEX_POINT( '', #384 );
#326 = VERTEX_POINT( '', #385 );
#327 = LINE( '', #386, #387 );
#328 = LINE( '', #388, #389 );
#329 = LINE( '', #390, #391 );
#330 = FILL_AREA_STYLE_COLOUR( '', #392 );
#331 = VERTEX_POINT( '', #393 );
#332 = CIRCLE( '', #394, 8.68134871982734 );
#333 = FILL_AREA_STYLE_COLOUR( '', #395 );
#334 = VERTEX_POINT( '', #396 );
#335 = VERTEX_POINT( '', #397 );
#336 = LINE( '', #398, #399 );
#337 = LINE( '', #400, #401 );
#338 = LINE( '', #402, #403 );
#339 = FILL_AREA_STYLE_COLOUR( '', #404 );
#340 = VERTEX_POINT( '', #405 );
#341 = LINE( '', #406, #407 );
#342 = LINE( '', #408, #409 );
#343 = FILL_AREA_STYLE_COLOUR( '', #410 );
#344 = VERTEX_POINT( '', #411 );
#345 = CIRCLE( '', #412, 11.8000000000000 );
#346 = VERTEX_POINT( '', #413 );
#347 = LINE( '', #414, #415 );
#348 = LINE( '', #416, #417 );
#349 = LINE( '', #418, #419 );
#350 = FILL_AREA_STYLE_COLOUR( '', #420 );
#351 = LINE( '', #421, #422 );
#352 = FILL_AREA_STYLE_COLOUR( '', #423 );
#353 = FILL_AREA_STYLE_COLOUR( '', #424 );
#354 = FILL_AREA_STYLE_COLOUR( '', #425 );
#355 = FILL_AREA_STYLE_COLOUR( '', #426 );
#356 = VERTEX_POINT( '', #427 );
#357 = CIRCLE( '', #428, 11.8000000000000 );
#358 = FILL_AREA_STYLE_COLOUR( '', #429 );
#359 = VERTEX_POINT( '', #430 );
#360 = CIRCLE( '', #431, 10.9120898773543 );
#361 = FILL_AREA_STYLE_COLOUR( '', #432 );
#362 = COLOUR_RGB( '', 0.200000002980232, 0.200000002980232, 0.200000002980232 );
#363 = CARTESIAN_POINT( '', ( 5.39822501692302, 9.35000000000000, 11.0000000000000 ) );
#364 = CARTESIAN_POINT( '', ( -5.39822501692301, 9.35000000000000, 11.0000000000000 ) );
#365 = CARTESIAN_POINT( '', ( 5.39822501692302, 9.35000000000000, 11.0000000000000 ) );
#366 = VECTOR( '', #433, 1000.00000000000 );
#367 = CARTESIAN_POINT( '', ( 10.7964500338460, 3.12250225675825E-014, 11.0000000000000 ) );
#368 = CARTESIAN_POINT( '', ( 10.7964500338460, 3.13176702942916E-014, 11.0000000000000 ) );
#369 = VECTOR( '', #434, 999.999999999999 );
#370 = CARTESIAN_POINT( '', ( 5.39822501692302, -9.35000000000000, 11.0000000000000 ) );
#371 = CARTESIAN_POINT( '', ( 5.39822501692302, -9.35000000000000, 11.0000000000000 ) );
#372 = VECTOR( '', #435, 1000.00000000000 );
#373 = CARTESIAN_POINT( '', ( -5.39822501692301, -9.35000000000000, 11.0000000000000 ) );
#374 = CARTESIAN_POINT( '', ( -5.39822501692301, -9.35000000000000, 11.0000000000000 ) );
#375 = VECTOR( '', #436, 1000.00000000000 );
#376 = CARTESIAN_POINT( '', ( -10.7964500338460, 3.12250225675825E-014, 11.0000000000000 ) );
#377 = CARTESIAN_POINT( '', ( -10.7964500338460, 3.26398540919021E-014, 11.0000000000000 ) );
#378 = VECTOR( '', #437, 1000.00000000000 );
#379 = CARTESIAN_POINT( '', ( -5.39822501692301, 9.35000000000000, 11.0000000000000 ) );
#380 = VECTOR( '', #438, 999.999999999999 );
#381 = CARTESIAN_POINT( '', ( 8.68134871982734, 0.000000000000000, 11.0000000000000 ) );
#382 = AXIS2_PLACEMENT_3D( '', #439, #440, #441 );
#383 = COLOUR_RGB( '', 0.200000002980232, 0.200000002980232, 0.200000002980232 );
#384 = CARTESIAN_POINT( '', ( 10.7964500338460, 3.12250225675825E-014, 0.000000000000000 ) );
#385 = CARTESIAN_POINT( '', ( 5.39822501692302, 9.35000000000000, 0.000000000000000 ) );
#386 = CARTESIAN_POINT( '', ( 10.7964500338460, 3.13176702942916E-014, 0.000000000000000 ) );
#387 = VECTOR( '', #442, 999.999999999999 );
#388 = CARTESIAN_POINT( '', ( 10.7964500338460, 3.12250225675825E-014, 11.0000000000000 ) );
#389 = VECTOR( '', #443, 1000.00000000000 );
#390 = CARTESIAN_POINT( '', ( 5.39822501692302, 9.35000000000000, 11.0000000000000 ) );
#391 = VECTOR( '', #444, 1000.00000000000 );
#392 = COLOUR_RGB( '', 0.200000002980232, 0.200000002980232, 0.200000002980232 );
#393 = CARTESIAN_POINT( '', ( 8.68134871982734, 0.000000000000000, 11.3186512801727 ) );
#394 = AXIS2_PLACEMENT_3D( '', #445, #446, #447 );
#395 = COLOUR_RGB( '', 0.200000002980232, 0.200000002980232, 0.200000002980232 );
#396 = CARTESIAN_POINT( '', ( -5.39822501692301, -9.35000000000000, 0.000000000000000 ) );
#397 = CARTESIAN_POINT( '', ( 5.39822501692302, -9.35000000000000, 0.000000000000000 ) );
#398 = CARTESIAN_POINT( '', ( -5.39822501692301, -9.35000000000000, 0.000000000000000 ) );
#399 = VECTOR( '', #448, 1000.00000000000 );
#400 = CARTESIAN_POINT( '', ( -5.39822501692301, -9.35000000000000, 11.0000000000000 ) );
#401 = VECTOR( '', #449, 1000.00000000000 );
#402 = CARTESIAN_POINT( '', ( 5.39822501692302, -9.35000000000000, 11.0000000000000 ) );
#403 = VECTOR( '', #450, 1000.00000000000 );
#404 = COLOUR_RGB( '', 0.200000002980232, 0.200000002980232, 0.200000002980232 );
#405 = CARTESIAN_POINT( '', ( -10.7964500338460, 3.12250225675825E-014, 0.000000000000000 ) );
#406 = CARTESIAN_POINT( '', ( -10.7964500338460, 3.26398540919021E-014, 0.000000000000000 ) );
#407 = VECTOR( '', #451, 1000.00000000000 );
#408 = CARTESIAN_POINT( '', ( -10.7964500338460, 3.12250225675825E-014, 11.0000000000000 ) );
#409 = VECTOR( '', #452, 1000.00000000000 );
#410 = COLOUR_RGB( '', 0.200000002980232, 0.200000002980232, 0.200000002980232 );
#411 = CARTESIAN_POINT( '', ( 11.8000000000000, 0.000000000000000, 0.000000000000000 ) );
#412 = AXIS2_PLACEMENT_3D( '', #453, #454, #455 );
#413 = CARTESIAN_POINT( '', ( -5.39822501692301, 9.35000000000000, 0.000000000000000 ) );
#414 = CARTESIAN_POINT( '', ( 5.39822501692302, 9.35000000000000, 0.000000000000000 ) );
#415 = VECTOR( '', #456, 1000.00000000000 );
#416 = CARTESIAN_POINT( '', ( -5.39822501692301, 9.35000000000000, 0.000000000000000 ) );
#417 = VECTOR( '', #457, 999.999999999999 );
#418 = CARTESIAN_POINT( '', ( 5.39822501692302, -9.35000000000000, 0.000000000000000 ) );
#419 = VECTOR( '', #458, 1000.00000000000 );
#420 = COLOUR_RGB( '', 0.200000002980232, 0.200000002980232, 0.200000002980232 );
#421 = CARTESIAN_POINT( '', ( -5.39822501692301, 9.35000000000000, 11.0000000000000 ) );
#422 = VECTOR( '', #459, 1000.00000000000 );
#423 = COLOUR_RGB( '', 0.200000002980232, 0.200000002980232, 0.200000002980232 );
#424 = COLOUR_RGB( '', 0.200000002980232, 0.200000002980232, 0.200000002980232 );
#425 = COLOUR_RGB( '', 0.200000002980232, 0.200000002980232, 0.200000002980232 );
#426 = COLOUR_RGB( '', 0.200000002980232, 0.200000002980232, 0.200000002980232 );
#427 = CARTESIAN_POINT( '', ( 11.8000000000000, 0.000000000000000, 11.0000000000000 ) );
#428 = AXIS2_PLACEMENT_3D( '', #460, #461, #462 );
#429 = COLOUR_RGB( '', 0.200000002980232, 0.200000002980232, 0.200000002980232 );
#430 = CARTESIAN_POINT( '', ( 10.9120898773543, 0.000000000000000, 11.8879101226457 ) );
#431 = AXIS2_PLACEMENT_3D( '', #463, #464, #465 );
#432 = COLOUR_RGB( '', 0.200000002980232, 0.200000002980232, 0.200000002980232 );
#433 = DIRECTION( '', ( -1.00000000000000, 0.000000000000000, 0.000000000000000 ) );
#434 = DIRECTION( '', ( -0.500000000000000, 0.866025403784438, 0.000000000000000 ) );
#435 = DIRECTION( '', ( 0.500000000000000, 0.866025403784439, 0.000000000000000 ) );
#436 = DIRECTION( '', ( 1.00000000000000, -1.28540286522965E-015, 0.000000000000000 ) );
#437 = DIRECTION( '', ( 0.500000000000000, -0.866025403784439, 0.000000000000000 ) );
#438 = DIRECTION( '', ( -0.500000000000000, -0.866025403784438, 0.000000000000000 ) );
#439 = CARTESIAN_POINT( '', ( 0.000000000000000, 0.000000000000000, 11.0000000000000 ) );
#440 = DIRECTION( '', ( 0.000000000000000, 0.000000000000000, 1.00000000000000 ) );
#441 = DIRECTION( '', ( 1.00000000000000, 0.000000000000000, 0.000000000000000 ) );
#442 = DIRECTION( '', ( -0.500000000000000, 0.866025403784438, 0.000000000000000 ) );
#443 = DIRECTION( '', ( 0.000000000000000, 0.000000000000000, -1.00000000000000 ) );
#444 = DIRECTION( '', ( 0.000000000000000, 0.000000000000000, -1.00000000000000 ) );
#445 = CARTESIAN_POINT( '', ( 0.000000000000000, 0.000000000000000, 11.3186512801727 ) );
#446 = DIRECTION( '', ( 0.000000000000000, 0.000000000000000, 1.00000000000000 ) );
#447 = DIRECTION( '', ( 1.00000000000000, 0.000000000000000, 0.000000000000000 ) );
#448 = DIRECTION( '', ( 1.00000000000000, -1.28540286522965E-015, 0.000000000000000 ) );
#449 = DIRECTION( '', ( 0.000000000000000, 0.000000000000000, -1.00000000000000 ) );
#450 = DIRECTION( '', ( 0.000000000000000, 0.000000000000000, -1.00000000000000 ) );
#451 = DIRECTION( '', ( 0.500000000000000, -0.866025403784439, 0.000000000000000 ) );
#452 = DIRECTION( '', ( 0.000000000000000, 0.000000000000000, -1.00000000000000 ) );
#453 = CARTESIAN_POINT( '', ( 0.000000000000000, 0.000000000000000, 0.000000000000000 ) );
#454 = DIRECTION( '', ( 0.000000000000000, 0.000000000000000, 1.00000000000000 ) );
#455 = DIRECTION( '', ( 1.00000000000000, 0.000000000000000, 0.000000000000000 ) );
#456 = DIRECTION( '', ( -1.00000000000000, 0.000000000000000, 0.000000000000000 ) );
#457 = DIRECTION( '', ( -0.500000000000000, -0.866025403784438, 0.000000000000000 ) );
#458 = DIRECTION( '', ( 0.500000000000000, 0.866025403784439, 0.000000000000000 ) );
#459 = DIRECTION( '', ( 0.000000000000000, 0.000000000000000, -1.00000000000000 ) );
#460 = CARTESIAN_POINT( '', ( 0.000000000000000, 0.000000000000000, 11.0000000000000 ) );
#461 = DIRECTION( '', ( 0.000000000000000, 0.000000000000000, 1.00000000000000 ) );
#462 = DIRECTION( '', ( 1.00000000000000, 0.000000000000000, 0.000000000000000 ) );
#463 = CARTESIAN_POINT( '', ( 0.000000000000000, 0.000000000000000, 11.8879101226457 ) );
#464 = DIRECTION( '', ( 0.000000000000000, 0.000000000000000, 1.00000000000000 ) );
#465 = DIRECTION( '', ( 1.00000000000000, 0.000000000000000, 0.000000000000000 ) );
ENDSEC;
END-ISO-10303-21;
