ISO-10303-21;
HEADER;
FILE_DESCRIPTION( ( 'Unknown' ), '1' );
FILE_NAME( '//SBS2003/HD_Usb/Disegni/08_LIB/Users_3D/PROD_GAMM_3D/CD/7371463_CD22.stp', 'Unknown', ( 'Unknown' ), ( 'Unknown' ), 'PSStep 14.0', 'Unknown', '  ' );
FILE_SCHEMA( ( 'AUTOMOTIVE_DESIGN { 1 0 10303 214 1 1 1 1 }' ) );
ENDSEC;
DATA;
#1 = MECHANICAL_DESIGN_GEOMETRIC_PRESENTATION_REPRESENTATION( ' ', ( #10, #11, #12, #13, #14, #15, #16, #17, #18, #19, #20, #21, #22 ), #6 );
#2 = PRODUCT_DEFINITION_CONTEXT( '', #23, 'design' );
#3 = APPLICATION_PROTOCOL_DEFINITION( 'international standard', 'automotive_design', 2001, #23 );
#4 = PRODUCT_CATEGORY_RELATIONSHIP( 'NONE', 'NONE', #24, #25 );
#5 = SHAPE_DEFINITION_REPRESENTATION( #26, #27 );
#6 =  ( GEOMETRIC_REPRESENTATION_CONTEXT( 3 )GLOBAL_UNCERTAINTY_ASSIGNED_CONTEXT( ( #30 ) )GLOBAL_UNIT_ASSIGNED_CONTEXT( ( #32, #33, #34 ) )REPRESENTATION_CONTEXT( 'NONE', 'WORKSPACE' ) );
#10 = STYLED_ITEM( '', ( #36 ), #37 );
#11 = STYLED_ITEM( '', ( #38 ), #39 );
#12 = STYLED_ITEM( '', ( #40 ), #41 );
#13 = STYLED_ITEM( '', ( #42 ), #43 );
#14 = STYLED_ITEM( '', ( #44 ), #45 );
#15 = STYLED_ITEM( '', ( #46 ), #47 );
#16 = STYLED_ITEM( '', ( #48 ), #49 );
#17 = STYLED_ITEM( '', ( #50 ), #51 );
#18 = STYLED_ITEM( '', ( #52 ), #53 );
#19 = STYLED_ITEM( '', ( #54 ), #55 );
#20 = STYLED_ITEM( '', ( #56 ), #57 );
#21 = STYLED_ITEM( '', ( #58 ), #59 );
#22 = STYLED_ITEM( '', ( #60 ), #61 );
#23 = APPLICATION_CONTEXT( 'core data for automotive mechanical design processes' );
#24 = PRODUCT_CATEGORY( 'part', 'NONE' );
#25 = PRODUCT_RELATED_PRODUCT_CATEGORY( 'detail', ' ', ( #62 ) );
#26 = PRODUCT_DEFINITION_SHAPE( 'NONE', 'NONE', #63 );
#27 = ADVANCED_BREP_SHAPE_REPRESENTATION( '1', ( #64, #65 ), #6 );
#30 = UNCERTAINTY_MEASURE_WITH_UNIT( LENGTH_MEASURE( 0.00100000000000000 ), #32, '', '' );
#32 =  ( CONVERSION_BASED_UNIT( 'MILLIMETRE', #68 )LENGTH_UNIT(  )NAMED_UNIT( #71 ) );
#33 =  ( NAMED_UNIT( #73 )PLANE_ANGLE_UNIT(  )SI_UNIT( $, .RADIAN. ) );
#34 =  ( NAMED_UNIT( #73 )SI_UNIT( $, .STERADIAN. )SOLID_ANGLE_UNIT(  ) );
#36 = PRESENTATION_STYLE_ASSIGNMENT( ( #79 ) );
#37 = ADVANCED_FACE( '', ( #80, #81 ), #82, .F. );
#38 = PRESENTATION_STYLE_ASSIGNMENT( ( #83 ) );
#39 = ADVANCED_FACE( '', ( #84, #85 ), #86, .T. );
#40 = PRESENTATION_STYLE_ASSIGNMENT( ( #87 ) );
#41 = ADVANCED_FACE( '', ( #88, #89 ), #90, .F. );
#42 = PRESENTATION_STYLE_ASSIGNMENT( ( #91 ) );
#43 = ADVANCED_FACE( '', ( #92 ), #93, .T. );
#44 = PRESENTATION_STYLE_ASSIGNMENT( ( #94 ) );
#45 = ADVANCED_FACE( '', ( #95 ), #96, .T. );
#46 = PRESENTATION_STYLE_ASSIGNMENT( ( #97 ) );
#47 = ADVANCED_FACE( '', ( #98 ), #99, .T. );
#48 = PRESENTATION_STYLE_ASSIGNMENT( ( #100 ) );
#49 = ADVANCED_FACE( '', ( #101, #102 ), #103, .F. );
#50 = PRESENTATION_STYLE_ASSIGNMENT( ( #104 ) );
#51 = ADVANCED_FACE( '', ( #105 ), #106, .T. );
#52 = PRESENTATION_STYLE_ASSIGNMENT( ( #107 ) );
#53 = ADVANCED_FACE( '', ( #108 ), #109, .T. );
#54 = PRESENTATION_STYLE_ASSIGNMENT( ( #110 ) );
#55 = ADVANCED_FACE( '', ( #111 ), #112, .T. );
#56 = PRESENTATION_STYLE_ASSIGNMENT( ( #113 ) );
#57 = ADVANCED_FACE( '', ( #114, #115 ), #116, .T. );
#58 = PRESENTATION_STYLE_ASSIGNMENT( ( #117 ) );
#59 = ADVANCED_FACE( '', ( #118 ), #119, .T. );
#60 = PRESENTATION_STYLE_ASSIGNMENT( ( #120 ) );
#61 = ADVANCED_FACE( '', ( #121 ), #122, .F. );
#62 = PRODUCT( '1', '1', 'PART-1-DESC', ( #123 ) );
#63 = PRODUCT_DEFINITION( 'NONE', 'NONE', #124, #2 );
#64 = MANIFOLD_SOLID_BREP( '1', #125 );
#65 = AXIS2_PLACEMENT_3D( '', #126, #127, #128 );
#68 = LENGTH_MEASURE_WITH_UNIT( LENGTH_MEASURE( 1.00000000000000 ), #129 );
#71 = DIMENSIONAL_EXPONENTS( 1.00000000000000, 0.000000000000000, 0.000000000000000, 0.000000000000000, 0.000000000000000, 0.000000000000000, 0.000000000000000 );
#73 = DIMENSIONAL_EXPONENTS( 0.000000000000000, 0.000000000000000, 0.000000000000000, 0.000000000000000, 0.000000000000000, 0.000000000000000, 0.000000000000000 );
#79 = SURFACE_STYLE_USAGE( .BOTH., #130 );
#80 = FACE_OUTER_BOUND( '', #131, .T. );
#81 = FACE_BOUND( '', #132, .T. );
#82 = PLANE( '', #133 );
#83 = SURFACE_STYLE_USAGE( .BOTH., #134 );
#84 = FACE_BOUND( '', #135, .T. );
#85 = FACE_OUTER_BOUND( '', #136, .T. );
#86 = CONICAL_SURFACE( '', #137, 13.7500000000000, 0.785398163397451 );
#87 = SURFACE_STYLE_USAGE( .BOTH., #138 );
#88 = FACE_OUTER_BOUND( '', #139, .T. );
#89 = FACE_BOUND( '', #140, .T. );
#90 = PLANE( '', #141 );
#91 = SURFACE_STYLE_USAGE( .BOTH., #142 );
#92 = FACE_OUTER_BOUND( '', #143, .T. );
#93 = PLANE( '', #144 );
#94 = SURFACE_STYLE_USAGE( .BOTH., #145 );
#95 = FACE_OUTER_BOUND( '', #146, .T. );
#96 = PLANE( '', #147 );
#97 = SURFACE_STYLE_USAGE( .BOTH., #148 );
#98 = FACE_OUTER_BOUND( '', #149, .T. );
#99 = SPHERICAL_SURFACE( '', #150, 12.0000000000000 );
#100 = SURFACE_STYLE_USAGE( .BOTH., #151 );
#101 = FACE_OUTER_BOUND( '', #152, .T. );
#102 = FACE_OUTER_BOUND( '', #153, .T. );
#103 = CYLINDRICAL_SURFACE( '', #154, 10.4058872060100 );
#104 = SURFACE_STYLE_USAGE( .BOTH., #155 );
#105 = FACE_OUTER_BOUND( '', #156, .T. );
#106 = PLANE( '', #157 );
#107 = SURFACE_STYLE_USAGE( .BOTH., #158 );
#108 = FACE_OUTER_BOUND( '', #159, .T. );
#109 = PLANE( '', #160 );
#110 = SURFACE_STYLE_USAGE( .BOTH., #161 );
#111 = FACE_OUTER_BOUND( '', #162, .T. );
#112 = PLANE( '', #163 );
#113 = SURFACE_STYLE_USAGE( .BOTH., #164 );
#114 = FACE_OUTER_BOUND( '', #165, .T. );
#115 = FACE_OUTER_BOUND( '', #166, .T. );
#116 = CYLINDRICAL_SURFACE( '', #167, 13.7500000000000 );
#117 = SURFACE_STYLE_USAGE( .BOTH., #168 );
#118 = FACE_OUTER_BOUND( '', #169, .T. );
#119 = PLANE( '', #170 );
#120 = SURFACE_STYLE_USAGE( .BOTH., #171 );
#121 = FACE_OUTER_BOUND( '', #172, .T. );
#122 = SPHERICAL_SURFACE( '', #173, 10.4058872060100 );
#123 = PRODUCT_CONTEXT( '', #23, 'mechanical' );
#124 = PRODUCT_DEFINITION_FORMATION_WITH_SPECIFIED_SOURCE( ' ', 'NONE', #62, .NOT_KNOWN. );
#125 = CLOSED_SHELL( '', ( #41, #37, #55, #59, #57, #51, #43, #45, #53, #49, #61, #47, #39 ) );
#126 = CARTESIAN_POINT( '', ( 0.000000000000000, 0.000000000000000, 0.000000000000000 ) );
#127 = DIRECTION( '', ( 0.000000000000000, 0.000000000000000, 1.00000000000000 ) );
#128 = DIRECTION( '', ( 1.00000000000000, 0.000000000000000, 0.000000000000000 ) );
#129 =  ( LENGTH_UNIT(  )NAMED_UNIT( #71 )SI_UNIT( .MILLI., .METRE. ) );
#130 = SURFACE_SIDE_STYLE( '', ( #175 ) );
#131 = EDGE_LOOP( '', ( #176 ) );
#132 = EDGE_LOOP( '', ( #177, #178, #179, #180, #181, #182 ) );
#133 = AXIS2_PLACEMENT_3D( '', #183, #184, #185 );
#134 = SURFACE_SIDE_STYLE( '', ( #186 ) );
#135 = EDGE_LOOP( '', ( #187 ) );
#136 = EDGE_LOOP( '', ( #188 ) );
#137 = AXIS2_PLACEMENT_3D( '', #189, #190, #191 );
#138 = SURFACE_SIDE_STYLE( '', ( #192 ) );
#139 = EDGE_LOOP( '', ( #193, #194, #195, #196, #197, #198 ) );
#140 = EDGE_LOOP( '', ( #199 ) );
#141 = AXIS2_PLACEMENT_3D( '', #200, #201, #202 );
#142 = SURFACE_SIDE_STYLE( '', ( #203 ) );
#143 = EDGE_LOOP( '', ( #204, #205, #206, #207 ) );
#144 = AXIS2_PLACEMENT_3D( '', #208, #209, #210 );
#145 = SURFACE_SIDE_STYLE( '', ( #211 ) );
#146 = EDGE_LOOP( '', ( #212, #213, #214, #215 ) );
#147 = AXIS2_PLACEMENT_3D( '', #216, #217, #218 );
#148 = SURFACE_SIDE_STYLE( '', ( #219 ) );
#149 = EDGE_LOOP( '', ( #220 ) );
#150 = AXIS2_PLACEMENT_3D( '', #221, #222, #223 );
#151 = SURFACE_SIDE_STYLE( '', ( #224 ) );
#152 = EDGE_LOOP( '', ( #225 ) );
#153 = EDGE_LOOP( '', ( #226 ) );
#154 = AXIS2_PLACEMENT_3D( '', #227, #228, #229 );
#155 = SURFACE_SIDE_STYLE( '', ( #230 ) );
#156 = EDGE_LOOP( '', ( #231, #232, #233, #234 ) );
#157 = AXIS2_PLACEMENT_3D( '', #235, #236, #237 );
#158 = SURFACE_SIDE_STYLE( '', ( #238 ) );
#159 = EDGE_LOOP( '', ( #239, #240, #241, #242 ) );
#160 = AXIS2_PLACEMENT_3D( '', #243, #244, #245 );
#161 = SURFACE_SIDE_STYLE( '', ( #246 ) );
#162 = EDGE_LOOP( '', ( #247, #248, #249, #250 ) );
#163 = AXIS2_PLACEMENT_3D( '', #251, #252, #253 );
#164 = SURFACE_SIDE_STYLE( '', ( #254 ) );
#165 = EDGE_LOOP( '', ( #255 ) );
#166 = EDGE_LOOP( '', ( #256 ) );
#167 = AXIS2_PLACEMENT_3D( '', #257, #258, #259 );
#168 = SURFACE_SIDE_STYLE( '', ( #260 ) );
#169 = EDGE_LOOP( '', ( #261, #262, #263, #264 ) );
#170 = AXIS2_PLACEMENT_3D( '', #265, #266, #267 );
#171 = SURFACE_SIDE_STYLE( '', ( #268 ) );
#172 = EDGE_LOOP( '', ( #269 ) );
#173 = AXIS2_PLACEMENT_3D( '', #270, #271, #272 );
#175 = SURFACE_STYLE_FILL_AREA( #273 );
#176 = ORIENTED_EDGE( '', *, *, #274, .F. );
#177 = ORIENTED_EDGE( '', *, *, #275, .T. );
#178 = ORIENTED_EDGE( '', *, *, #276, .T. );
#179 = ORIENTED_EDGE( '', *, *, #277, .T. );
#180 = ORIENTED_EDGE( '', *, *, #278, .T. );
#181 = ORIENTED_EDGE( '', *, *, #279, .T. );
#182 = ORIENTED_EDGE( '', *, *, #280, .T. );
#183 = CARTESIAN_POINT( '', ( 2.83311554694503E-015, 0.000000000000000, 0.000000000000000 ) );
#184 = DIRECTION( '', ( 0.000000000000000, 0.000000000000000, 1.00000000000000 ) );
#185 = DIRECTION( '', ( 1.00000000000000, 0.000000000000000, 0.000000000000000 ) );
#186 = SURFACE_STYLE_FILL_AREA( #281 );
#187 = ORIENTED_EDGE( '', *, *, #282, .F. );
#188 = ORIENTED_EDGE( '', *, *, #283, .T. );
#189 = CARTESIAN_POINT( '', ( 0.000000000000000, 0.000000000000000, 12.0000000000000 ) );
#190 = DIRECTION( '', ( -0.000000000000000, 0.000000000000000, -1.00000000000000 ) );
#191 = DIRECTION( '', ( -1.00000000000000, 0.000000000000000, 0.000000000000000 ) );
#192 = SURFACE_STYLE_FILL_AREA( #284 );
#193 = ORIENTED_EDGE( '', *, *, #285, .F. );
#194 = ORIENTED_EDGE( '', *, *, #286, .F. );
#195 = ORIENTED_EDGE( '', *, *, #287, .F. );
#196 = ORIENTED_EDGE( '', *, *, #288, .F. );
#197 = ORIENTED_EDGE( '', *, *, #289, .F. );
#198 = ORIENTED_EDGE( '', *, *, #290, .F. );
#199 = ORIENTED_EDGE( '', *, *, #291, .F. );
#200 = CARTESIAN_POINT( '', ( 0.000000000000000, 0.000000000000000, 12.0000000000000 ) );
#201 = DIRECTION( '', ( 0.000000000000000, 0.000000000000000, 1.00000000000000 ) );
#202 = DIRECTION( '', ( 1.00000000000000, 0.000000000000000, 0.000000000000000 ) );
#203 = SURFACE_STYLE_FILL_AREA( #292 );
#204 = ORIENTED_EDGE( '', *, *, #275, .F. );
#205 = ORIENTED_EDGE( '', *, *, #293, .F. );
#206 = ORIENTED_EDGE( '', *, *, #285, .T. );
#207 = ORIENTED_EDGE( '', *, *, #294, .T. );
#208 = CARTESIAN_POINT( '', ( 6.26425042070746, 10.8500000000000, 12.0000000000000 ) );
#209 = DIRECTION( '', ( 0.000000000000000, -1.00000000000000, 0.000000000000000 ) );
#210 = DIRECTION( '', ( 0.000000000000000, 0.000000000000000, -1.00000000000000 ) );
#211 = SURFACE_STYLE_FILL_AREA( #295 );
#212 = ORIENTED_EDGE( '', *, *, #276, .F. );
#213 = ORIENTED_EDGE( '', *, *, #294, .F. );
#214 = ORIENTED_EDGE( '', *, *, #290, .T. );
#215 = ORIENTED_EDGE( '', *, *, #296, .T. );
#216 = CARTESIAN_POINT( '', ( -6.26425042070745, 10.8500000000000, 12.0000000000000 ) );
#217 = DIRECTION( '', ( 0.866025403784438, -0.500000000000000, 0.000000000000000 ) );
#218 = DIRECTION( '', ( 0.500000000000000, 0.866025403784438, 0.000000000000000 ) );
#219 = SURFACE_STYLE_FILL_AREA( #297 );
#220 = ORIENTED_EDGE( '', *, *, #282, .T. );
#221 = CARTESIAN_POINT( '', ( 0.000000000000000, 0.000000000000000, 12.0000000000000 ) );
#222 = DIRECTION( '', ( 0.000000000000000, 0.000000000000000, 1.00000000000000 ) );
#223 = DIRECTION( '', ( 1.00000000000000, 0.000000000000000, 0.000000000000000 ) );
#224 = SURFACE_STYLE_FILL_AREA( #298 );
#225 = ORIENTED_EDGE( '', *, *, #299, .T. );
#226 = ORIENTED_EDGE( '', *, *, #291, .T. );
#227 = CARTESIAN_POINT( '', ( 0.000000000000000, 0.000000000000000, 57.1500000000000 ) );
#228 = DIRECTION( '', ( -0.000000000000000, -0.000000000000000, -1.00000000000000 ) );
#229 = DIRECTION( '', ( 1.00000000000000, 0.000000000000000, 0.000000000000000 ) );
#230 = SURFACE_STYLE_FILL_AREA( #300 );
#231 = ORIENTED_EDGE( '', *, *, #280, .F. );
#232 = ORIENTED_EDGE( '', *, *, #301, .F. );
#233 = ORIENTED_EDGE( '', *, *, #286, .T. );
#234 = ORIENTED_EDGE( '', *, *, #293, .T. );
#235 = CARTESIAN_POINT( '', ( 12.5285008414149, 4.41007888071448E-014, 12.0000000000000 ) );
#236 = DIRECTION( '', ( -0.866025403784438, -0.500000000000000, 0.000000000000000 ) );
#237 = DIRECTION( '', ( 0.500000000000000, -0.866025403784438, 0.000000000000000 ) );
#238 = SURFACE_STYLE_FILL_AREA( #302 );
#239 = ORIENTED_EDGE( '', *, *, #277, .F. );
#240 = ORIENTED_EDGE( '', *, *, #296, .F. );
#241 = ORIENTED_EDGE( '', *, *, #289, .T. );
#242 = ORIENTED_EDGE( '', *, *, #303, .T. );
#243 = CARTESIAN_POINT( '', ( -12.5285008414149, 4.56350876525002E-014, 12.0000000000000 ) );
#244 = DIRECTION( '', ( 0.866025403784439, 0.500000000000000, 0.000000000000000 ) );
#245 = DIRECTION( '', ( -0.500000000000000, 0.866025403784439, 0.000000000000000 ) );
#246 = SURFACE_STYLE_FILL_AREA( #304 );
#247 = ORIENTED_EDGE( '', *, *, #278, .F. );
#248 = ORIENTED_EDGE( '', *, *, #303, .F. );
#249 = ORIENTED_EDGE( '', *, *, #288, .T. );
#250 = ORIENTED_EDGE( '', *, *, #305, .T. );
#251 = CARTESIAN_POINT( '', ( -6.26425042070746, -10.8500000000000, 12.0000000000000 ) );
#252 = DIRECTION( '', ( 1.52308392498698E-015, 1.00000000000000, 0.000000000000000 ) );
#253 = DIRECTION( '', ( -1.00000000000000, 1.52308392498698E-015, 0.000000000000000 ) );
#254 = SURFACE_STYLE_FILL_AREA( #306 );
#255 = ORIENTED_EDGE( '', *, *, #283, .F. );
#256 = ORIENTED_EDGE( '', *, *, #274, .T. );
#257 = CARTESIAN_POINT( '', ( 0.000000000000000, 0.000000000000000, 57.1500000000000 ) );
#258 = DIRECTION( '', ( -0.000000000000000, -0.000000000000000, -1.00000000000000 ) );
#259 = DIRECTION( '', ( 1.00000000000000, 0.000000000000000, 0.000000000000000 ) );
#260 = SURFACE_STYLE_FILL_AREA( #307 );
#261 = ORIENTED_EDGE( '', *, *, #279, .F. );
#262 = ORIENTED_EDGE( '', *, *, #305, .F. );
#263 = ORIENTED_EDGE( '', *, *, #287, .T. );
#264 = ORIENTED_EDGE( '', *, *, #301, .T. );
#265 = CARTESIAN_POINT( '', ( 6.26425042070746, -10.8500000000000, 12.0000000000000 ) );
#266 = DIRECTION( '', ( -0.866025403784439, 0.500000000000000, 0.000000000000000 ) );
#267 = DIRECTION( '', ( -0.500000000000000, -0.866025403784439, 0.000000000000000 ) );
#268 = SURFACE_STYLE_FILL_AREA( #308 );
#269 = ORIENTED_EDGE( '', *, *, #299, .F. );
#270 = CARTESIAN_POINT( '', ( 0.000000000000000, 0.000000000000000, 12.0941127939900 ) );
#271 = DIRECTION( '', ( 0.000000000000000, 0.000000000000000, 1.00000000000000 ) );
#272 = DIRECTION( '', ( 1.00000000000000, 0.000000000000000, 0.000000000000000 ) );
#273 = FILL_AREA_STYLE( '', ( #309 ) );
#274 = EDGE_CURVE( '', #310, #310, #311, .T. );
#275 = EDGE_CURVE( '', #312, #313, #314, .T. );
#276 = EDGE_CURVE( '', #313, #315, #316, .T. );
#277 = EDGE_CURVE( '', #315, #317, #318, .T. );
#278 = EDGE_CURVE( '', #317, #319, #320, .T. );
#279 = EDGE_CURVE( '', #319, #321, #322, .T. );
#280 = EDGE_CURVE( '', #321, #312, #323, .T. );
#281 = FILL_AREA_STYLE( '', ( #324 ) );
#282 = EDGE_CURVE( '', #325, #325, #326, .T. );
#283 = EDGE_CURVE( '', #327, #327, #328, .T. );
#284 = FILL_AREA_STYLE( '', ( #329 ) );
#285 = EDGE_CURVE( '', #330, #331, #332, .T. );
#286 = EDGE_CURVE( '', #333, #330, #334, .T. );
#287 = EDGE_CURVE( '', #335, #333, #336, .T. );
#288 = EDGE_CURVE( '', #337, #335, #338, .T. );
#289 = EDGE_CURVE( '', #339, #337, #340, .T. );
#290 = EDGE_CURVE( '', #331, #339, #341, .T. );
#291 = EDGE_CURVE( '', #342, #342, #343, .F. );
#292 = FILL_AREA_STYLE( '', ( #344 ) );
#293 = EDGE_CURVE( '', #330, #312, #345, .T. );
#294 = EDGE_CURVE( '', #331, #313, #346, .T. );
#295 = FILL_AREA_STYLE( '', ( #347 ) );
#296 = EDGE_CURVE( '', #339, #315, #348, .T. );
#297 = FILL_AREA_STYLE( '', ( #349 ) );
#298 = FILL_AREA_STYLE( '', ( #350 ) );
#299 = EDGE_CURVE( '', #351, #351, #352, .T. );
#300 = FILL_AREA_STYLE( '', ( #353 ) );
#301 = EDGE_CURVE( '', #333, #321, #354, .T. );
#302 = FILL_AREA_STYLE( '', ( #355 ) );
#303 = EDGE_CURVE( '', #337, #317, #356, .T. );
#304 = FILL_AREA_STYLE( '', ( #357 ) );
#305 = EDGE_CURVE( '', #335, #319, #358, .T. );
#306 = FILL_AREA_STYLE( '', ( #359 ) );
#307 = FILL_AREA_STYLE( '', ( #360 ) );
#308 = FILL_AREA_STYLE( '', ( #361 ) );
#309 = FILL_AREA_STYLE_COLOUR( '', #362 );
#310 = VERTEX_POINT( '', #363 );
#311 = CIRCLE( '', #364, 13.7500000000000 );
#312 = VERTEX_POINT( '', #365 );
#313 = VERTEX_POINT( '', #366 );
#314 = LINE( '', #367, #368 );
#315 = VERTEX_POINT( '', #369 );
#316 = LINE( '', #370, #371 );
#317 = VERTEX_POINT( '', #372 );
#318 = LINE( '', #373, #374 );
#319 = VERTEX_POINT( '', #375 );
#320 = LINE( '', #376, #377 );
#321 = VERTEX_POINT( '', #378 );
#322 = LINE( '', #379, #380 );
#323 = LINE( '', #381, #382 );
#324 = FILL_AREA_STYLE_COLOUR( '', #383 );
#325 = VERTEX_POINT( '', #384 );
#326 = CIRCLE( '', #385, 11.8483665660194 );
#327 = VERTEX_POINT( '', #386 );
#328 = CIRCLE( '', #387, 13.7500000000000 );
#329 = FILL_AREA_STYLE_COLOUR( '', #388 );
#330 = VERTEX_POINT( '', #389 );
#331 = VERTEX_POINT( '', #390 );
#332 = LINE( '', #391, #392 );
#333 = VERTEX_POINT( '', #393 );
#334 = LINE( '', #394, #395 );
#335 = VERTEX_POINT( '', #396 );
#336 = LINE( '', #397, #398 );
#337 = VERTEX_POINT( '', #399 );
#338 = LINE( '', #400, #401 );
#339 = VERTEX_POINT( '', #402 );
#340 = LINE( '', #403, #404 );
#341 = LINE( '', #405, #406 );
#342 = VERTEX_POINT( '', #407 );
#343 = CIRCLE( '', #408, 10.4058872060100 );
#344 = FILL_AREA_STYLE_COLOUR( '', #409 );
#345 = LINE( '', #410, #411 );
#346 = LINE( '', #412, #413 );
#347 = FILL_AREA_STYLE_COLOUR( '', #414 );
#348 = LINE( '', #415, #416 );
#349 = FILL_AREA_STYLE_COLOUR( '', #417 );
#350 = FILL_AREA_STYLE_COLOUR( '', #418 );
#351 = VERTEX_POINT( '', #419 );
#352 = CIRCLE( '', #420, 10.4058872060100 );
#353 = FILL_AREA_STYLE_COLOUR( '', #421 );
#354 = LINE( '', #422, #423 );
#355 = FILL_AREA_STYLE_COLOUR( '', #424 );
#356 = LINE( '', #425, #426 );
#357 = FILL_AREA_STYLE_COLOUR( '', #427 );
#358 = LINE( '', #428, #429 );
#359 = FILL_AREA_STYLE_COLOUR( '', #430 );
#360 = FILL_AREA_STYLE_COLOUR( '', #431 );
#361 = FILL_AREA_STYLE_COLOUR( '', #432 );
#362 = COLOUR_RGB( '', 0.200000002980232, 0.200000002980232, 0.200000002980232 );
#363 = CARTESIAN_POINT( '', ( 13.7500000000000, 0.000000000000000, 0.000000000000000 ) );
#364 = AXIS2_PLACEMENT_3D( '', #433, #434, #435 );
#365 = CARTESIAN_POINT( '', ( 6.26425042070746, 10.8500000000000, 0.000000000000000 ) );
#366 = CARTESIAN_POINT( '', ( -6.26425042070745, 10.8500000000000, 0.000000000000000 ) );
#367 = CARTESIAN_POINT( '', ( 6.26425042070746, 10.8500000000000, 0.000000000000000 ) );
#368 = VECTOR( '', #436, 1000.00000000000 );
#369 = CARTESIAN_POINT( '', ( -12.5285008414149, 4.51028103753970E-014, 0.000000000000000 ) );
#370 = CARTESIAN_POINT( '', ( -6.26425042070745, 10.8500000000000, 0.000000000000000 ) );
#371 = VECTOR( '', #437, 999.999999999999 );
#372 = CARTESIAN_POINT( '', ( -6.26425042070745, -10.8500000000000, 0.000000000000000 ) );
#373 = CARTESIAN_POINT( '', ( -12.5285008414149, 4.56350876525002E-014, 0.000000000000000 ) );
#374 = VECTOR( '', #438, 1000.00000000000 );
#375 = CARTESIAN_POINT( '', ( 6.26425042070746, -10.8500000000000, 0.000000000000000 ) );
#376 = CARTESIAN_POINT( '', ( -6.26425042070746, -10.8500000000000, 0.000000000000000 ) );
#377 = VECTOR( '', #439, 1000.00000000000 );
#378 = CARTESIAN_POINT( '', ( 12.5285008414149, 4.33680868994202E-014, 0.000000000000000 ) );
#379 = CARTESIAN_POINT( '', ( 6.26425042070746, -10.8500000000000, 0.000000000000000 ) );
#380 = VECTOR( '', #440, 1000.00000000000 );
#381 = CARTESIAN_POINT( '', ( 12.5285008414149, 4.41007888071448E-014, 0.000000000000000 ) );
#382 = VECTOR( '', #441, 999.999999999999 );
#383 = COLOUR_RGB( '', 0.200000002980232, 0.200000002980232, 0.200000002980232 );
#384 = CARTESIAN_POINT( '', ( 11.8483665660194, 0.000000000000000, 13.9016334339806 ) );
#385 = AXIS2_PLACEMENT_3D( '', #442, #443, #444 );
#386 = CARTESIAN_POINT( '', ( 13.7500000000000, 0.000000000000000, 12.0000000000000 ) );
#387 = AXIS2_PLACEMENT_3D( '', #445, #446, #447 );
#388 = COLOUR_RGB( '', 0.200000002980232, 0.200000002980232, 0.200000002980232 );
#389 = CARTESIAN_POINT( '', ( 6.26425042070746, 10.8500000000000, 12.0000000000000 ) );
#390 = CARTESIAN_POINT( '', ( -6.26425042070745, 10.8500000000000, 12.0000000000000 ) );
#391 = CARTESIAN_POINT( '', ( 6.26425042070746, 10.8500000000000, 12.0000000000000 ) );
#392 = VECTOR( '', #448, 1000.00000000000 );
#393 = CARTESIAN_POINT( '', ( 12.5285008414149, 4.33680868994202E-014, 12.0000000000000 ) );
#394 = CARTESIAN_POINT( '', ( 12.5285008414149, 4.41007888071448E-014, 12.0000000000000 ) );
#395 = VECTOR( '', #449, 999.999999999999 );
#396 = CARTESIAN_POINT( '', ( 6.26425042070746, -10.8500000000000, 12.0000000000000 ) );
#397 = CARTESIAN_POINT( '', ( 6.26425042070746, -10.8500000000000, 12.0000000000000 ) );
#398 = VECTOR( '', #450, 1000.00000000000 );
#399 = CARTESIAN_POINT( '', ( -6.26425042070745, -10.8500000000000, 12.0000000000000 ) );
#400 = CARTESIAN_POINT( '', ( -6.26425042070746, -10.8500000000000, 12.0000000000000 ) );
#401 = VECTOR( '', #451, 1000.00000000000 );
#402 = CARTESIAN_POINT( '', ( -12.5285008414149, 4.51028103753970E-014, 12.0000000000000 ) );
#403 = CARTESIAN_POINT( '', ( -12.5285008414149, 4.56350876525002E-014, 12.0000000000000 ) );
#404 = VECTOR( '', #452, 1000.00000000000 );
#405 = CARTESIAN_POINT( '', ( -6.26425042070745, 10.8500000000000, 12.0000000000000 ) );
#406 = VECTOR( '', #453, 999.999999999999 );
#407 = CARTESIAN_POINT( '', ( 10.4058872060100, 0.000000000000000, 12.0000000000000 ) );
#408 = AXIS2_PLACEMENT_3D( '', #454, #455, #456 );
#409 = COLOUR_RGB( '', 0.200000002980232, 0.200000002980232, 0.200000002980232 );
#410 = CARTESIAN_POINT( '', ( 6.26425042070746, 10.8500000000000, 12.0000000000000 ) );
#411 = VECTOR( '', #457, 1000.00000000000 );
#412 = CARTESIAN_POINT( '', ( -6.26425042070745, 10.8500000000000, 12.0000000000000 ) );
#413 = VECTOR( '', #458, 1000.00000000000 );
#414 = COLOUR_RGB( '', 0.200000002980232, 0.200000002980232, 0.200000002980232 );
#415 = CARTESIAN_POINT( '', ( -12.5285008414149, 4.51028103753970E-014, 12.0000000000000 ) );
#416 = VECTOR( '', #459, 1000.00000000000 );
#417 = COLOUR_RGB( '', 0.200000002980232, 0.200000002980232, 0.200000002980232 );
#418 = COLOUR_RGB( '', 0.200000002980232, 0.200000002980232, 0.200000002980232 );
#419 = CARTESIAN_POINT( '', ( 10.4058872060100, 0.000000000000000, 12.0941127939900 ) );
#420 = AXIS2_PLACEMENT_3D( '', #460, #461, #462 );
#421 = COLOUR_RGB( '', 0.200000002980232, 0.200000002980232, 0.200000002980232 );
#422 = CARTESIAN_POINT( '', ( 12.5285008414149, 4.33680868994202E-014, 12.0000000000000 ) );
#423 = VECTOR( '', #463, 1000.00000000000 );
#424 = COLOUR_RGB( '', 0.200000002980232, 0.200000002980232, 0.200000002980232 );
#425 = CARTESIAN_POINT( '', ( -6.26425042070745, -10.8500000000000, 12.0000000000000 ) );
#426 = VECTOR( '', #464, 1000.00000000000 );
#427 = COLOUR_RGB( '', 0.200000002980232, 0.200000002980232, 0.200000002980232 );
#428 = CARTESIAN_POINT( '', ( 6.26425042070746, -10.8500000000000, 12.0000000000000 ) );
#429 = VECTOR( '', #465, 1000.00000000000 );
#430 = COLOUR_RGB( '', 0.200000002980232, 0.200000002980232, 0.200000002980232 );
#431 = COLOUR_RGB( '', 0.200000002980232, 0.200000002980232, 0.200000002980232 );
#432 = COLOUR_RGB( '', 0.200000002980232, 0.200000002980232, 0.200000002980232 );
#433 = CARTESIAN_POINT( '', ( 0.000000000000000, 0.000000000000000, 0.000000000000000 ) );
#434 = DIRECTION( '', ( 0.000000000000000, 0.000000000000000, 1.00000000000000 ) );
#435 = DIRECTION( '', ( 1.00000000000000, 0.000000000000000, 0.000000000000000 ) );
#436 = DIRECTION( '', ( -1.00000000000000, 0.000000000000000, 0.000000000000000 ) );
#437 = DIRECTION( '', ( -0.500000000000000, -0.866025403784438, 0.000000000000000 ) );
#438 = DIRECTION( '', ( 0.500000000000000, -0.866025403784439, 0.000000000000000 ) );
#439 = DIRECTION( '', ( 1.00000000000000, -1.52308392498698E-015, 0.000000000000000 ) );
#440 = DIRECTION( '', ( 0.500000000000000, 0.866025403784439, 0.000000000000000 ) );
#441 = DIRECTION( '', ( -0.500000000000000, 0.866025403784438, 0.000000000000000 ) );
#442 = CARTESIAN_POINT( '', ( 0.000000000000000, 0.000000000000000, 13.9016334339806 ) );
#443 = DIRECTION( '', ( 0.000000000000000, 0.000000000000000, 1.00000000000000 ) );
#444 = DIRECTION( '', ( 1.00000000000000, 0.000000000000000, 0.000000000000000 ) );
#445 = CARTESIAN_POINT( '', ( 0.000000000000000, 0.000000000000000, 12.0000000000000 ) );
#446 = DIRECTION( '', ( 0.000000000000000, 0.000000000000000, 1.00000000000000 ) );
#447 = DIRECTION( '', ( 1.00000000000000, 0.000000000000000, 0.000000000000000 ) );
#448 = DIRECTION( '', ( -1.00000000000000, 0.000000000000000, 0.000000000000000 ) );
#449 = DIRECTION( '', ( -0.500000000000000, 0.866025403784438, 0.000000000000000 ) );
#450 = DIRECTION( '', ( 0.500000000000000, 0.866025403784439, 0.000000000000000 ) );
#451 = DIRECTION( '', ( 1.00000000000000, -1.52308392498698E-015, 0.000000000000000 ) );
#452 = DIRECTION( '', ( 0.500000000000000, -0.866025403784439, 0.000000000000000 ) );
#453 = DIRECTION( '', ( -0.500000000000000, -0.866025403784438, 0.000000000000000 ) );
#454 = CARTESIAN_POINT( '', ( 0.000000000000000, 0.000000000000000, 12.0000000000000 ) );
#455 = DIRECTION( '', ( 0.000000000000000, 0.000000000000000, 1.00000000000000 ) );
#456 = DIRECTION( '', ( 1.00000000000000, 0.000000000000000, 0.000000000000000 ) );
#457 = DIRECTION( '', ( 0.000000000000000, 0.000000000000000, -1.00000000000000 ) );
#458 = DIRECTION( '', ( 0.000000000000000, 0.000000000000000, -1.00000000000000 ) );
#459 = DIRECTION( '', ( 0.000000000000000, 0.000000000000000, -1.00000000000000 ) );
#460 = CARTESIAN_POINT( '', ( 0.000000000000000, 0.000000000000000, 12.0941127939900 ) );
#461 = DIRECTION( '', ( 0.000000000000000, 0.000000000000000, 1.00000000000000 ) );
#462 = DIRECTION( '', ( 1.00000000000000, 0.000000000000000, 0.000000000000000 ) );
#463 = DIRECTION( '', ( 0.000000000000000, 0.000000000000000, -1.00000000000000 ) );
#464 = DIRECTION( '', ( 0.000000000000000, 0.000000000000000, -1.00000000000000 ) );
#465 = DIRECTION( '', ( 0.000000000000000, 0.000000000000000, -1.00000000000000 ) );
ENDSEC;
END-ISO-10303-21;
