ISO-10303-21;
HEADER;
FILE_DESCRIPTION( ( 'Unknown' ), '1' );
FILE_NAME( '//SBS2003/HD_Usb/Disegni/08_LIB/Users_3D/PROD_GAMM_3D/CD/7371471_CD32.stp', 'Unknown', ( 'Unknown' ), ( 'Unknown' ), 'PSStep 14.0', 'Unknown', '  ' );
FILE_SCHEMA( ( 'AUTOMOTIVE_DESIGN { 1 0 10303 214 1 1 1 1 }' ) );
ENDSEC;
DATA;
#1 = MECHANICAL_DESIGN_GEOMETRIC_PRESENTATION_REPRESENTATION( ' ', ( #10, #11, #12, #13, #14, #15, #16, #17, #18, #19, #20, #21, #22 ), #6 );
#2 = PRODUCT_DEFINITION_CONTEXT( '', #23, 'design' );
#3 = APPLICATION_PROTOCOL_DEFINITION( 'international standard', 'automotive_design', 2001, #23 );
#4 = PRODUCT_CATEGORY_RELATIONSHIP( 'NONE', 'NONE', #24, #25 );
#5 = SHAPE_DEFINITION_REPRESENTATION( #26, #27 );
#6 =  ( GEOMETRIC_REPRESENTATION_CONTEXT( 3 )GLOBAL_UNCERTAINTY_ASSIGNED_CONTEXT( ( #30 ) )GLOBAL_UNIT_ASSIGNED_CONTEXT( ( #32, #33, #34 ) )REPRESENTATION_CONTEXT( 'NONE', 'WORKSPACE' ) );
#10 = STYLED_ITEM( '', ( #36 ), #37 );
#11 = STYLED_ITEM( '', ( #38 ), #39 );
#12 = STYLED_ITEM( '', ( #40 ), #41 );
#13 = STYLED_ITEM( '', ( #42 ), #43 );
#14 = STYLED_ITEM( '', ( #44 ), #45 );
#15 = STYLED_ITEM( '', ( #46 ), #47 );
#16 = STYLED_ITEM( '', ( #48 ), #49 );
#17 = STYLED_ITEM( '', ( #50 ), #51 );
#18 = STYLED_ITEM( '', ( #52 ), #53 );
#19 = STYLED_ITEM( '', ( #54 ), #55 );
#20 = STYLED_ITEM( '', ( #56 ), #57 );
#21 = STYLED_ITEM( '', ( #58 ), #59 );
#22 = STYLED_ITEM( '', ( #60 ), #61 );
#23 = APPLICATION_CONTEXT( 'core data for automotive mechanical design processes' );
#24 = PRODUCT_CATEGORY( 'part', 'NONE' );
#25 = PRODUCT_RELATED_PRODUCT_CATEGORY( 'detail', ' ', ( #62 ) );
#26 = PRODUCT_DEFINITION_SHAPE( 'NONE', 'NONE', #63 );
#27 = ADVANCED_BREP_SHAPE_REPRESENTATION( '1', ( #64, #65 ), #6 );
#30 = UNCERTAINTY_MEASURE_WITH_UNIT( LENGTH_MEASURE( 0.00100000000000000 ), #32, '', '' );
#32 =  ( CONVERSION_BASED_UNIT( 'MILLIMETRE', #68 )LENGTH_UNIT(  )NAMED_UNIT( #71 ) );
#33 =  ( NAMED_UNIT( #73 )PLANE_ANGLE_UNIT(  )SI_UNIT( $, .RADIAN. ) );
#34 =  ( NAMED_UNIT( #73 )SI_UNIT( $, .STERADIAN. )SOLID_ANGLE_UNIT(  ) );
#36 = PRESENTATION_STYLE_ASSIGNMENT( ( #79 ) );
#37 = ADVANCED_FACE( '', ( #80 ), #81, .T. );
#38 = PRESENTATION_STYLE_ASSIGNMENT( ( #82 ) );
#39 = ADVANCED_FACE( '', ( #83 ), #84, .T. );
#40 = PRESENTATION_STYLE_ASSIGNMENT( ( #85 ) );
#41 = ADVANCED_FACE( '', ( #86 ), #87, .T. );
#42 = PRESENTATION_STYLE_ASSIGNMENT( ( #88 ) );
#43 = ADVANCED_FACE( '', ( #89, #90 ), #91, .F. );
#44 = PRESENTATION_STYLE_ASSIGNMENT( ( #92 ) );
#45 = ADVANCED_FACE( '', ( #93 ), #94, .T. );
#46 = PRESENTATION_STYLE_ASSIGNMENT( ( #95 ) );
#47 = ADVANCED_FACE( '', ( #96 ), #97, .T. );
#48 = PRESENTATION_STYLE_ASSIGNMENT( ( #98 ) );
#49 = ADVANCED_FACE( '', ( #99, #100 ), #101, .T. );
#50 = PRESENTATION_STYLE_ASSIGNMENT( ( #102 ) );
#51 = ADVANCED_FACE( '', ( #103, #104 ), #105, .F. );
#52 = PRESENTATION_STYLE_ASSIGNMENT( ( #106 ) );
#53 = ADVANCED_FACE( '', ( #107, #108 ), #109, .F. );
#54 = PRESENTATION_STYLE_ASSIGNMENT( ( #110 ) );
#55 = ADVANCED_FACE( '', ( #111 ), #112, .T. );
#56 = PRESENTATION_STYLE_ASSIGNMENT( ( #113 ) );
#57 = ADVANCED_FACE( '', ( #114 ), #115, .T. );
#58 = PRESENTATION_STYLE_ASSIGNMENT( ( #116 ) );
#59 = ADVANCED_FACE( '', ( #117 ), #118, .F. );
#60 = PRESENTATION_STYLE_ASSIGNMENT( ( #119 ) );
#61 = ADVANCED_FACE( '', ( #120, #121 ), #122, .T. );
#62 = PRODUCT( '1', '1', 'PART-1-DESC', ( #123 ) );
#63 = PRODUCT_DEFINITION( 'NONE', 'NONE', #124, #2 );
#64 = MANIFOLD_SOLID_BREP( '1', #125 );
#65 = AXIS2_PLACEMENT_3D( '', #126, #127, #128 );
#68 = LENGTH_MEASURE_WITH_UNIT( LENGTH_MEASURE( 1.00000000000000 ), #129 );
#71 = DIMENSIONAL_EXPONENTS( 1.00000000000000, 0.000000000000000, 0.000000000000000, 0.000000000000000, 0.000000000000000, 0.000000000000000, 0.000000000000000 );
#73 = DIMENSIONAL_EXPONENTS( 0.000000000000000, 0.000000000000000, 0.000000000000000, 0.000000000000000, 0.000000000000000, 0.000000000000000, 0.000000000000000 );
#79 = SURFACE_STYLE_USAGE( .BOTH., #130 );
#80 = FACE_OUTER_BOUND( '', #131, .T. );
#81 = PLANE( '', #132 );
#82 = SURFACE_STYLE_USAGE( .BOTH., #133 );
#83 = FACE_OUTER_BOUND( '', #134, .T. );
#84 = SPHERICAL_SURFACE( '', #135, 18.0000000000000 );
#85 = SURFACE_STYLE_USAGE( .BOTH., #136 );
#86 = FACE_OUTER_BOUND( '', #137, .T. );
#87 = PLANE( '', #138 );
#88 = SURFACE_STYLE_USAGE( .BOTH., #139 );
#89 = FACE_OUTER_BOUND( '', #140, .T. );
#90 = FACE_BOUND( '', #141, .T. );
#91 = PLANE( '', #142 );
#92 = SURFACE_STYLE_USAGE( .BOTH., #143 );
#93 = FACE_OUTER_BOUND( '', #144, .T. );
#94 = PLANE( '', #145 );
#95 = SURFACE_STYLE_USAGE( .BOTH., #146 );
#96 = FACE_OUTER_BOUND( '', #147, .T. );
#97 = PLANE( '', #148 );
#98 = SURFACE_STYLE_USAGE( .BOTH., #149 );
#99 = FACE_OUTER_BOUND( '', #150, .T. );
#100 = FACE_OUTER_BOUND( '', #151, .T. );
#101 = CYLINDRICAL_SURFACE( '', #152, 19.8500000000000 );
#102 = SURFACE_STYLE_USAGE( .BOTH., #153 );
#103 = FACE_OUTER_BOUND( '', #154, .T. );
#104 = FACE_BOUND( '', #155, .T. );
#105 = PLANE( '', #156 );
#106 = SURFACE_STYLE_USAGE( .BOTH., #157 );
#107 = FACE_OUTER_BOUND( '', #158, .T. );
#108 = FACE_OUTER_BOUND( '', #159, .T. );
#109 = CYLINDRICAL_SURFACE( '', #160, 14.5920791596445 );
#110 = SURFACE_STYLE_USAGE( .BOTH., #161 );
#111 = FACE_OUTER_BOUND( '', #162, .T. );
#112 = PLANE( '', #163 );
#113 = SURFACE_STYLE_USAGE( .BOTH., #164 );
#114 = FACE_OUTER_BOUND( '', #165, .T. );
#115 = PLANE( '', #166 );
#116 = SURFACE_STYLE_USAGE( .BOTH., #167 );
#117 = FACE_OUTER_BOUND( '', #168, .T. );
#118 = SPHERICAL_SURFACE( '', #169, 14.5920791596445 );
#119 = SURFACE_STYLE_USAGE( .BOTH., #170 );
#120 = FACE_BOUND( '', #171, .T. );
#121 = FACE_OUTER_BOUND( '', #172, .T. );
#122 = CONICAL_SURFACE( '', #173, 19.8500000000000, 0.785398163397450 );
#123 = PRODUCT_CONTEXT( '', #23, 'mechanical' );
#124 = PRODUCT_DEFINITION_FORMATION_WITH_SPECIFIED_SOURCE( ' ', 'NONE', #62, .NOT_KNOWN. );
#125 = CLOSED_SHELL( '', ( #51, #43, #41, #55, #49, #37, #47, #57, #45, #53, #59, #39, #61 ) );
#126 = CARTESIAN_POINT( '', ( 0.000000000000000, 0.000000000000000, 0.000000000000000 ) );
#127 = DIRECTION( '', ( 0.000000000000000, 0.000000000000000, 1.00000000000000 ) );
#128 = DIRECTION( '', ( 1.00000000000000, 0.000000000000000, 0.000000000000000 ) );
#129 =  ( LENGTH_UNIT(  )NAMED_UNIT( #71 )SI_UNIT( .MILLI., .METRE. ) );
#130 = SURFACE_SIDE_STYLE( '', ( #175 ) );
#131 = EDGE_LOOP( '', ( #176, #177, #178, #179 ) );
#132 = AXIS2_PLACEMENT_3D( '', #180, #181, #182 );
#133 = SURFACE_SIDE_STYLE( '', ( #183 ) );
#134 = EDGE_LOOP( '', ( #184 ) );
#135 = AXIS2_PLACEMENT_3D( '', #185, #186, #187 );
#136 = SURFACE_SIDE_STYLE( '', ( #188 ) );
#137 = EDGE_LOOP( '', ( #189, #190, #191, #192 ) );
#138 = AXIS2_PLACEMENT_3D( '', #193, #194, #195 );
#139 = SURFACE_SIDE_STYLE( '', ( #196 ) );
#140 = EDGE_LOOP( '', ( #197 ) );
#141 = EDGE_LOOP( '', ( #198, #199, #200, #201, #202, #203 ) );
#142 = AXIS2_PLACEMENT_3D( '', #204, #205, #206 );
#143 = SURFACE_SIDE_STYLE( '', ( #207 ) );
#144 = EDGE_LOOP( '', ( #208, #209, #210, #211 ) );
#145 = AXIS2_PLACEMENT_3D( '', #212, #213, #214 );
#146 = SURFACE_SIDE_STYLE( '', ( #215 ) );
#147 = EDGE_LOOP( '', ( #216, #217, #218, #219 ) );
#148 = AXIS2_PLACEMENT_3D( '', #220, #221, #222 );
#149 = SURFACE_SIDE_STYLE( '', ( #223 ) );
#150 = EDGE_LOOP( '', ( #224 ) );
#151 = EDGE_LOOP( '', ( #225 ) );
#152 = AXIS2_PLACEMENT_3D( '', #226, #227, #228 );
#153 = SURFACE_SIDE_STYLE( '', ( #229 ) );
#154 = EDGE_LOOP( '', ( #230, #231, #232, #233, #234, #235 ) );
#155 = EDGE_LOOP( '', ( #236 ) );
#156 = AXIS2_PLACEMENT_3D( '', #237, #238, #239 );
#157 = SURFACE_SIDE_STYLE( '', ( #240 ) );
#158 = EDGE_LOOP( '', ( #241 ) );
#159 = EDGE_LOOP( '', ( #242 ) );
#160 = AXIS2_PLACEMENT_3D( '', #243, #244, #245 );
#161 = SURFACE_SIDE_STYLE( '', ( #246 ) );
#162 = EDGE_LOOP( '', ( #247, #248, #249, #250 ) );
#163 = AXIS2_PLACEMENT_3D( '', #251, #252, #253 );
#164 = SURFACE_SIDE_STYLE( '', ( #254 ) );
#165 = EDGE_LOOP( '', ( #255, #256, #257, #258 ) );
#166 = AXIS2_PLACEMENT_3D( '', #259, #260, #261 );
#167 = SURFACE_SIDE_STYLE( '', ( #262 ) );
#168 = EDGE_LOOP( '', ( #263 ) );
#169 = AXIS2_PLACEMENT_3D( '', #264, #265, #266 );
#170 = SURFACE_SIDE_STYLE( '', ( #267 ) );
#171 = EDGE_LOOP( '', ( #268 ) );
#172 = EDGE_LOOP( '', ( #269 ) );
#173 = AXIS2_PLACEMENT_3D( '', #270, #271, #272 );
#175 = SURFACE_STYLE_FILL_AREA( #273 );
#176 = ORIENTED_EDGE( '', *, *, #274, .F. );
#177 = ORIENTED_EDGE( '', *, *, #275, .F. );
#178 = ORIENTED_EDGE( '', *, *, #276, .T. );
#179 = ORIENTED_EDGE( '', *, *, #277, .T. );
#180 = CARTESIAN_POINT( '', ( 18.3597385602302, 9.79223021465102E-014, 19.0000000000000 ) );
#181 = DIRECTION( '', ( -0.866025403784438, -0.500000000000001, 0.000000000000000 ) );
#182 = DIRECTION( '', ( 0.500000000000001, -0.866025403784438, 0.000000000000000 ) );
#183 = SURFACE_STYLE_FILL_AREA( #278 );
#184 = ORIENTED_EDGE( '', *, *, #279, .T. );
#185 = CARTESIAN_POINT( '', ( 0.000000000000000, 0.000000000000000, 18.2000000000000 ) );
#186 = DIRECTION( '', ( 0.000000000000000, 0.000000000000000, 1.00000000000000 ) );
#187 = DIRECTION( '', ( 1.00000000000000, 0.000000000000000, 0.000000000000000 ) );
#188 = SURFACE_STYLE_FILL_AREA( #280 );
#189 = ORIENTED_EDGE( '', *, *, #281, .F. );
#190 = ORIENTED_EDGE( '', *, *, #282, .F. );
#191 = ORIENTED_EDGE( '', *, *, #283, .T. );
#192 = ORIENTED_EDGE( '', *, *, #284, .T. );
#193 = CARTESIAN_POINT( '', ( -9.17986928011509, -15.9000000000000, 19.0000000000000 ) );
#194 = DIRECTION( '', ( 1.51176311822606E-015, 1.00000000000000, 0.000000000000000 ) );
#195 = DIRECTION( '', ( -1.00000000000000, 1.51176311822607E-015, 0.000000000000000 ) );
#196 = SURFACE_STYLE_FILL_AREA( #285 );
#197 = ORIENTED_EDGE( '', *, *, #286, .F. );
#198 = ORIENTED_EDGE( '', *, *, #287, .T. );
#199 = ORIENTED_EDGE( '', *, *, #288, .T. );
#200 = ORIENTED_EDGE( '', *, *, #289, .T. );
#201 = ORIENTED_EDGE( '', *, *, #281, .T. );
#202 = ORIENTED_EDGE( '', *, *, #290, .T. );
#203 = ORIENTED_EDGE( '', *, *, #274, .T. );
#204 = CARTESIAN_POINT( '', ( 2.83311554694503E-015, 0.000000000000000, 0.000000000000000 ) );
#205 = DIRECTION( '', ( 0.000000000000000, 0.000000000000000, 1.00000000000000 ) );
#206 = DIRECTION( '', ( 1.00000000000000, 0.000000000000000, 0.000000000000000 ) );
#207 = SURFACE_STYLE_FILL_AREA( #291 );
#208 = ORIENTED_EDGE( '', *, *, #289, .F. );
#209 = ORIENTED_EDGE( '', *, *, #292, .F. );
#210 = ORIENTED_EDGE( '', *, *, #293, .T. );
#211 = ORIENTED_EDGE( '', *, *, #282, .T. );
#212 = CARTESIAN_POINT( '', ( -18.3597385602302, 1.00170721652607E-013, 19.0000000000000 ) );
#213 = DIRECTION( '', ( 0.866025403784439, 0.500000000000000, 0.000000000000000 ) );
#214 = DIRECTION( '', ( -0.500000000000000, 0.866025403784439, 0.000000000000000 ) );
#215 = SURFACE_STYLE_FILL_AREA( #294 );
#216 = ORIENTED_EDGE( '', *, *, #287, .F. );
#217 = ORIENTED_EDGE( '', *, *, #277, .F. );
#218 = ORIENTED_EDGE( '', *, *, #295, .T. );
#219 = ORIENTED_EDGE( '', *, *, #296, .T. );
#220 = CARTESIAN_POINT( '', ( 9.17986928011509, 15.9000000000000, 19.0000000000000 ) );
#221 = DIRECTION( '', ( 0.000000000000000, -1.00000000000000, 0.000000000000000 ) );
#222 = DIRECTION( '', ( 0.000000000000000, 0.000000000000000, -1.00000000000000 ) );
#223 = SURFACE_STYLE_FILL_AREA( #297 );
#224 = ORIENTED_EDGE( '', *, *, #298, .F. );
#225 = ORIENTED_EDGE( '', *, *, #286, .T. );
#226 = CARTESIAN_POINT( '', ( 0.000000000000000, 0.000000000000000, 57.1500000000000 ) );
#227 = DIRECTION( '', ( -0.000000000000000, -0.000000000000000, -1.00000000000000 ) );
#228 = DIRECTION( '', ( 1.00000000000000, 0.000000000000000, 0.000000000000000 ) );
#229 = SURFACE_STYLE_FILL_AREA( #299 );
#230 = ORIENTED_EDGE( '', *, *, #295, .F. );
#231 = ORIENTED_EDGE( '', *, *, #276, .F. );
#232 = ORIENTED_EDGE( '', *, *, #300, .F. );
#233 = ORIENTED_EDGE( '', *, *, #283, .F. );
#234 = ORIENTED_EDGE( '', *, *, #293, .F. );
#235 = ORIENTED_EDGE( '', *, *, #301, .F. );
#236 = ORIENTED_EDGE( '', *, *, #302, .F. );
#237 = CARTESIAN_POINT( '', ( 0.000000000000000, 0.000000000000000, 19.0000000000000 ) );
#238 = DIRECTION( '', ( 0.000000000000000, 0.000000000000000, 1.00000000000000 ) );
#239 = DIRECTION( '', ( 1.00000000000000, 0.000000000000000, 0.000000000000000 ) );
#240 = SURFACE_STYLE_FILL_AREA( #303 );
#241 = ORIENTED_EDGE( '', *, *, #304, .T. );
#242 = ORIENTED_EDGE( '', *, *, #302, .T. );
#243 = CARTESIAN_POINT( '', ( 0.000000000000000, 0.000000000000000, 57.1500000000000 ) );
#244 = DIRECTION( '', ( -0.000000000000000, -0.000000000000000, -1.00000000000000 ) );
#245 = DIRECTION( '', ( 1.00000000000000, 0.000000000000000, 0.000000000000000 ) );
#246 = SURFACE_STYLE_FILL_AREA( #305 );
#247 = ORIENTED_EDGE( '', *, *, #290, .F. );
#248 = ORIENTED_EDGE( '', *, *, #284, .F. );
#249 = ORIENTED_EDGE( '', *, *, #300, .T. );
#250 = ORIENTED_EDGE( '', *, *, #275, .T. );
#251 = CARTESIAN_POINT( '', ( 9.17986928011509, -15.9000000000000, 19.0000000000000 ) );
#252 = DIRECTION( '', ( -0.866025403784439, 0.500000000000000, 0.000000000000000 ) );
#253 = DIRECTION( '', ( -0.500000000000000, -0.866025403784439, 0.000000000000000 ) );
#254 = SURFACE_STYLE_FILL_AREA( #306 );
#255 = ORIENTED_EDGE( '', *, *, #288, .F. );
#256 = ORIENTED_EDGE( '', *, *, #296, .F. );
#257 = ORIENTED_EDGE( '', *, *, #301, .T. );
#258 = ORIENTED_EDGE( '', *, *, #292, .T. );
#259 = CARTESIAN_POINT( '', ( -9.17986928011508, 15.9000000000000, 19.0000000000000 ) );
#260 = DIRECTION( '', ( 0.866025403784438, -0.500000000000001, 0.000000000000000 ) );
#261 = DIRECTION( '', ( 0.500000000000001, 0.866025403784438, 0.000000000000000 ) );
#262 = SURFACE_STYLE_FILL_AREA( #307 );
#263 = ORIENTED_EDGE( '', *, *, #304, .F. );
#264 = CARTESIAN_POINT( '', ( 0.000000000000000, 0.000000000000000, 19.4079208403555 ) );
#265 = DIRECTION( '', ( 0.000000000000000, 0.000000000000000, 1.00000000000000 ) );
#266 = DIRECTION( '', ( 1.00000000000000, 0.000000000000000, 0.000000000000000 ) );
#267 = SURFACE_STYLE_FILL_AREA( #308 );
#268 = ORIENTED_EDGE( '', *, *, #279, .F. );
#269 = ORIENTED_EDGE( '', *, *, #298, .T. );
#270 = CARTESIAN_POINT( '', ( 0.000000000000000, 0.000000000000000, 19.0000000000000 ) );
#271 = DIRECTION( '', ( -0.000000000000000, 0.000000000000000, -1.00000000000000 ) );
#272 = DIRECTION( '', ( -1.00000000000000, 0.000000000000000, 0.000000000000000 ) );
#273 = FILL_AREA_STYLE( '', ( #309 ) );
#274 = EDGE_CURVE( '', #310, #311, #312, .T. );
#275 = EDGE_CURVE( '', #313, #310, #314, .T. );
#276 = EDGE_CURVE( '', #313, #315, #316, .T. );
#277 = EDGE_CURVE( '', #315, #311, #317, .T. );
#278 = FILL_AREA_STYLE( '', ( #318 ) );
#279 = EDGE_CURVE( '', #319, #319, #320, .T. );
#280 = FILL_AREA_STYLE( '', ( #321 ) );
#281 = EDGE_CURVE( '', #322, #323, #324, .T. );
#282 = EDGE_CURVE( '', #325, #322, #326, .T. );
#283 = EDGE_CURVE( '', #325, #327, #328, .T. );
#284 = EDGE_CURVE( '', #327, #323, #329, .T. );
#285 = FILL_AREA_STYLE( '', ( #330 ) );
#286 = EDGE_CURVE( '', #331, #331, #332, .T. );
#287 = EDGE_CURVE( '', #311, #333, #334, .T. );
#288 = EDGE_CURVE( '', #333, #335, #336, .T. );
#289 = EDGE_CURVE( '', #335, #322, #337, .T. );
#290 = EDGE_CURVE( '', #323, #310, #338, .T. );
#291 = FILL_AREA_STYLE( '', ( #339 ) );
#292 = EDGE_CURVE( '', #340, #335, #341, .T. );
#293 = EDGE_CURVE( '', #340, #325, #342, .T. );
#294 = FILL_AREA_STYLE( '', ( #343 ) );
#295 = EDGE_CURVE( '', #315, #344, #345, .T. );
#296 = EDGE_CURVE( '', #344, #333, #346, .T. );
#297 = FILL_AREA_STYLE( '', ( #347 ) );
#298 = EDGE_CURVE( '', #348, #348, #349, .T. );
#299 = FILL_AREA_STYLE( '', ( #350 ) );
#300 = EDGE_CURVE( '', #327, #313, #351, .T. );
#301 = EDGE_CURVE( '', #344, #340, #352, .T. );
#302 = EDGE_CURVE( '', #353, #353, #354, .F. );
#303 = FILL_AREA_STYLE( '', ( #355 ) );
#304 = EDGE_CURVE( '', #356, #356, #357, .T. );
#305 = FILL_AREA_STYLE( '', ( #358 ) );
#306 = FILL_AREA_STYLE( '', ( #359 ) );
#307 = FILL_AREA_STYLE( '', ( #360 ) );
#308 = FILL_AREA_STYLE( '', ( #361 ) );
#309 = FILL_AREA_STYLE_COLOUR( '', #362 );
#310 = VERTEX_POINT( '', #363 );
#311 = VERTEX_POINT( '', #364 );
#312 = LINE( '', #365, #366 );
#313 = VERTEX_POINT( '', #367 );
#314 = LINE( '', #368, #369 );
#315 = VERTEX_POINT( '', #370 );
#316 = LINE( '', #371, #372 );
#317 = LINE( '', #373, #374 );
#318 = FILL_AREA_STYLE_COLOUR( '', #375 );
#319 = VERTEX_POINT( '', #376 );
#320 = CIRCLE( '', #377, 17.7677397509251 );
#321 = FILL_AREA_STYLE_COLOUR( '', #378 );
#322 = VERTEX_POINT( '', #379 );
#323 = VERTEX_POINT( '', #380 );
#324 = LINE( '', #381, #382 );
#325 = VERTEX_POINT( '', #383 );
#326 = LINE( '', #384, #385 );
#327 = VERTEX_POINT( '', #386 );
#328 = LINE( '', #387, #388 );
#329 = LINE( '', #389, #390 );
#330 = FILL_AREA_STYLE_COLOUR( '', #391 );
#331 = VERTEX_POINT( '', #392 );
#332 = CIRCLE( '', #393, 19.8500000000000 );
#333 = VERTEX_POINT( '', #394 );
#334 = LINE( '', #395, #396 );
#335 = VERTEX_POINT( '', #397 );
#336 = LINE( '', #398, #399 );
#337 = LINE( '', #400, #401 );
#338 = LINE( '', #402, #403 );
#339 = FILL_AREA_STYLE_COLOUR( '', #404 );
#340 = VERTEX_POINT( '', #405 );
#341 = LINE( '', #406, #407 );
#342 = LINE( '', #408, #409 );
#343 = FILL_AREA_STYLE_COLOUR( '', #410 );
#344 = VERTEX_POINT( '', #411 );
#345 = LINE( '', #412, #413 );
#346 = LINE( '', #414, #415 );
#347 = FILL_AREA_STYLE_COLOUR( '', #416 );
#348 = VERTEX_POINT( '', #417 );
#349 = CIRCLE( '', #418, 19.8500000000000 );
#350 = FILL_AREA_STYLE_COLOUR( '', #419 );
#351 = LINE( '', #420, #421 );
#352 = LINE( '', #422, #423 );
#353 = VERTEX_POINT( '', #424 );
#354 = CIRCLE( '', #425, 14.5920791596445 );
#355 = FILL_AREA_STYLE_COLOUR( '', #426 );
#356 = VERTEX_POINT( '', #427 );
#357 = CIRCLE( '', #428, 14.5920791596445 );
#358 = FILL_AREA_STYLE_COLOUR( '', #429 );
#359 = FILL_AREA_STYLE_COLOUR( '', #430 );
#360 = FILL_AREA_STYLE_COLOUR( '', #431 );
#361 = FILL_AREA_STYLE_COLOUR( '', #432 );
#362 = COLOUR_RGB( '', 0.200000002980232, 0.200000002980232, 0.200000002980232 );
#363 = CARTESIAN_POINT( '', ( 18.3597385602302, 9.71445146547012E-014, 0.000000000000000 ) );
#364 = CARTESIAN_POINT( '', ( 9.17986928011509, 15.9000000000000, 0.000000000000000 ) );
#365 = CARTESIAN_POINT( '', ( 18.3597385602302, 9.79223021465102E-014, 0.000000000000000 ) );
#366 = VECTOR( '', #433, 999.999999999999 );
#367 = CARTESIAN_POINT( '', ( 18.3597385602302, 9.71445146547012E-014, 19.0000000000000 ) );
#368 = CARTESIAN_POINT( '', ( 18.3597385602302, 9.71445146547012E-014, 19.0000000000000 ) );
#369 = VECTOR( '', #434, 1000.00000000000 );
#370 = CARTESIAN_POINT( '', ( 9.17986928011509, 15.9000000000000, 19.0000000000000 ) );
#371 = CARTESIAN_POINT( '', ( 18.3597385602302, 9.79223021465102E-014, 19.0000000000000 ) );
#372 = VECTOR( '', #435, 999.999999999999 );
#373 = CARTESIAN_POINT( '', ( 9.17986928011509, 15.9000000000000, 19.0000000000000 ) );
#374 = VECTOR( '', #436, 1000.00000000000 );
#375 = COLOUR_RGB( '', 0.200000002980232, 0.200000002980232, 0.200000002980232 );
#376 = CARTESIAN_POINT( '', ( 17.7677397509251, 0.000000000000000, 21.0822602490749 ) );
#377 = AXIS2_PLACEMENT_3D( '', #437, #438, #439 );
#378 = COLOUR_RGB( '', 0.200000002980232, 0.200000002980232, 0.200000002980232 );
#379 = CARTESIAN_POINT( '', ( -9.17986928011509, -15.9000000000000, 0.000000000000000 ) );
#380 = CARTESIAN_POINT( '', ( 9.17986928011509, -15.9000000000000, 0.000000000000000 ) );
#381 = CARTESIAN_POINT( '', ( -9.17986928011509, -15.9000000000000, 0.000000000000000 ) );
#382 = VECTOR( '', #440, 1000.00000000000 );
#383 = CARTESIAN_POINT( '', ( -9.17986928011509, -15.9000000000000, 19.0000000000000 ) );
#384 = CARTESIAN_POINT( '', ( -9.17986928011509, -15.9000000000000, 19.0000000000000 ) );
#385 = VECTOR( '', #441, 1000.00000000000 );
#386 = CARTESIAN_POINT( '', ( 9.17986928011509, -15.9000000000000, 19.0000000000000 ) );
#387 = CARTESIAN_POINT( '', ( -9.17986928011509, -15.9000000000000, 19.0000000000000 ) );
#388 = VECTOR( '', #442, 1000.00000000000 );
#389 = CARTESIAN_POINT( '', ( 9.17986928011509, -15.9000000000000, 19.0000000000000 ) );
#390 = VECTOR( '', #443, 1000.00000000000 );
#391 = COLOUR_RGB( '', 0.200000002980232, 0.200000002980232, 0.200000002980232 );
#392 = CARTESIAN_POINT( '', ( 19.8500000000000, 0.000000000000000, 0.000000000000000 ) );
#393 = AXIS2_PLACEMENT_3D( '', #444, #445, #446 );
#394 = CARTESIAN_POINT( '', ( -9.17986928011508, 15.9000000000000, 0.000000000000000 ) );
#395 = CARTESIAN_POINT( '', ( 9.17986928011509, 15.9000000000000, 0.000000000000000 ) );
#396 = VECTOR( '', #447, 1000.00000000000 );
#397 = CARTESIAN_POINT( '', ( -18.3597385602302, 1.00613961606655E-013, 0.000000000000000 ) );
#398 = CARTESIAN_POINT( '', ( -9.17986928011508, 15.9000000000000, 0.000000000000000 ) );
#399 = VECTOR( '', #448, 999.999999999999 );
#400 = CARTESIAN_POINT( '', ( -18.3597385602302, 1.00170721652607E-013, 0.000000000000000 ) );
#401 = VECTOR( '', #449, 1000.00000000000 );
#402 = CARTESIAN_POINT( '', ( 9.17986928011509, -15.9000000000000, 0.000000000000000 ) );
#403 = VECTOR( '', #450, 1000.00000000000 );
#404 = COLOUR_RGB( '', 0.200000002980232, 0.200000002980232, 0.200000002980232 );
#405 = CARTESIAN_POINT( '', ( -18.3597385602302, 1.00613961606655E-013, 19.0000000000000 ) );
#406 = CARTESIAN_POINT( '', ( -18.3597385602302, 1.00613961606655E-013, 19.0000000000000 ) );
#407 = VECTOR( '', #451, 1000.00000000000 );
#408 = CARTESIAN_POINT( '', ( -18.3597385602302, 1.00170721652607E-013, 19.0000000000000 ) );
#409 = VECTOR( '', #452, 1000.00000000000 );
#410 = COLOUR_RGB( '', 0.200000002980232, 0.200000002980232, 0.200000002980232 );
#411 = CARTESIAN_POINT( '', ( -9.17986928011508, 15.9000000000000, 19.0000000000000 ) );
#412 = CARTESIAN_POINT( '', ( 9.17986928011509, 15.9000000000000, 19.0000000000000 ) );
#413 = VECTOR( '', #453, 1000.00000000000 );
#414 = CARTESIAN_POINT( '', ( -9.17986928011508, 15.9000000000000, 19.0000000000000 ) );
#415 = VECTOR( '', #454, 1000.00000000000 );
#416 = COLOUR_RGB( '', 0.200000002980232, 0.200000002980232, 0.200000002980232 );
#417 = CARTESIAN_POINT( '', ( 19.8500000000000, 0.000000000000000, 19.0000000000000 ) );
#418 = AXIS2_PLACEMENT_3D( '', #455, #456, #457 );
#419 = COLOUR_RGB( '', 0.200000002980232, 0.200000002980232, 0.200000002980232 );
#420 = CARTESIAN_POINT( '', ( 9.17986928011509, -15.9000000000000, 19.0000000000000 ) );
#421 = VECTOR( '', #458, 1000.00000000000 );
#422 = CARTESIAN_POINT( '', ( -9.17986928011508, 15.9000000000000, 19.0000000000000 ) );
#423 = VECTOR( '', #459, 999.999999999999 );
#424 = CARTESIAN_POINT( '', ( 14.5920791596445, 0.000000000000000, 19.0000000000000 ) );
#425 = AXIS2_PLACEMENT_3D( '', #460, #461, #462 );
#426 = COLOUR_RGB( '', 0.200000002980232, 0.200000002980232, 0.200000002980232 );
#427 = CARTESIAN_POINT( '', ( 14.5920791596445, 0.000000000000000, 19.4079208403555 ) );
#428 = AXIS2_PLACEMENT_3D( '', #463, #464, #465 );
#429 = COLOUR_RGB( '', 0.200000002980232, 0.200000002980232, 0.200000002980232 );
#430 = COLOUR_RGB( '', 0.200000002980232, 0.200000002980232, 0.200000002980232 );
#431 = COLOUR_RGB( '', 0.200000002980232, 0.200000002980232, 0.200000002980232 );
#432 = COLOUR_RGB( '', 0.200000002980232, 0.200000002980232, 0.200000002980232 );
#433 = DIRECTION( '', ( -0.500000000000001, 0.866025403784438, 0.000000000000000 ) );
#434 = DIRECTION( '', ( 0.000000000000000, 0.000000000000000, -1.00000000000000 ) );
#435 = DIRECTION( '', ( -0.500000000000001, 0.866025403784438, 0.000000000000000 ) );
#436 = DIRECTION( '', ( 0.000000000000000, 0.000000000000000, -1.00000000000000 ) );
#437 = CARTESIAN_POINT( '', ( 0.000000000000000, 0.000000000000000, 21.0822602490749 ) );
#438 = DIRECTION( '', ( 0.000000000000000, 0.000000000000000, 1.00000000000000 ) );
#439 = DIRECTION( '', ( 1.00000000000000, 0.000000000000000, 0.000000000000000 ) );
#440 = DIRECTION( '', ( 1.00000000000000, -1.51176311822607E-015, 0.000000000000000 ) );
#441 = DIRECTION( '', ( 0.000000000000000, 0.000000000000000, -1.00000000000000 ) );
#442 = DIRECTION( '', ( 1.00000000000000, -1.51176311822607E-015, 0.000000000000000 ) );
#443 = DIRECTION( '', ( 0.000000000000000, 0.000000000000000, -1.00000000000000 ) );
#444 = CARTESIAN_POINT( '', ( 0.000000000000000, 0.000000000000000, 0.000000000000000 ) );
#445 = DIRECTION( '', ( 0.000000000000000, 0.000000000000000, 1.00000000000000 ) );
#446 = DIRECTION( '', ( 1.00000000000000, 0.000000000000000, 0.000000000000000 ) );
#447 = DIRECTION( '', ( -1.00000000000000, 0.000000000000000, 0.000000000000000 ) );
#448 = DIRECTION( '', ( -0.500000000000001, -0.866025403784438, 0.000000000000000 ) );
#449 = DIRECTION( '', ( 0.500000000000000, -0.866025403784439, 0.000000000000000 ) );
#450 = DIRECTION( '', ( 0.500000000000000, 0.866025403784439, 0.000000000000000 ) );
#451 = DIRECTION( '', ( 0.000000000000000, 0.000000000000000, -1.00000000000000 ) );
#452 = DIRECTION( '', ( 0.500000000000000, -0.866025403784439, 0.000000000000000 ) );
#453 = DIRECTION( '', ( -1.00000000000000, 0.000000000000000, 0.000000000000000 ) );
#454 = DIRECTION( '', ( 0.000000000000000, 0.000000000000000, -1.00000000000000 ) );
#455 = CARTESIAN_POINT( '', ( 0.000000000000000, 0.000000000000000, 19.0000000000000 ) );
#456 = DIRECTION( '', ( 0.000000000000000, 0.000000000000000, 1.00000000000000 ) );
#457 = DIRECTION( '', ( 1.00000000000000, 0.000000000000000, 0.000000000000000 ) );
#458 = DIRECTION( '', ( 0.500000000000000, 0.866025403784439, 0.000000000000000 ) );
#459 = DIRECTION( '', ( -0.500000000000001, -0.866025403784438, 0.000000000000000 ) );
#460 = CARTESIAN_POINT( '', ( 0.000000000000000, 0.000000000000000, 19.0000000000000 ) );
#461 = DIRECTION( '', ( 0.000000000000000, 0.000000000000000, 1.00000000000000 ) );
#462 = DIRECTION( '', ( 1.00000000000000, 0.000000000000000, 0.000000000000000 ) );
#463 = CARTESIAN_POINT( '', ( 0.000000000000000, 0.000000000000000, 19.4079208403555 ) );
#464 = DIRECTION( '', ( 0.000000000000000, 0.000000000000000, 1.00000000000000 ) );
#465 = DIRECTION( '', ( 1.00000000000000, 0.000000000000000, 0.000000000000000 ) );
ENDSEC;
END-ISO-10303-21;
