ISO-10303-21;
HEADER;
FILE_DESCRIPTION( ( 'Unknown' ), '1' );
FILE_NAME( '//SBS2003/HD_Usb/Disegni/08_LIB/Users_3D/PROD_GAMM_3D/CD/7371473_CD36.stp', 'Unknown', ( 'Unknown' ), ( 'Unknown' ), 'PSStep 14.0', 'Unknown', '  ' );
FILE_SCHEMA( ( 'AUTOMOTIVE_DESIGN { 1 0 10303 214 1 1 1 1 }' ) );
ENDSEC;
DATA;
#1 = MECHANICAL_DESIGN_GEOMETRIC_PRESENTATION_REPRESENTATION( ' ', ( #10, #11, #12, #13, #14, #15, #16, #17, #18, #19, #20, #21, #22 ), #6 );
#2 = PRODUCT_DEFINITION_CONTEXT( '', #23, 'design' );
#3 = APPLICATION_PROTOCOL_DEFINITION( 'international standard', 'automotive_design', 2001, #23 );
#4 = PRODUCT_CATEGORY_RELATIONSHIP( 'NONE', 'NONE', #24, #25 );
#5 = SHAPE_DEFINITION_REPRESENTATION( #26, #27 );
#6 =  ( GEOMETRIC_REPRESENTATION_CONTEXT( 3 )GLOBAL_UNCERTAINTY_ASSIGNED_CONTEXT( ( #30 ) )GLOBAL_UNIT_ASSIGNED_CONTEXT( ( #32, #33, #34 ) )REPRESENTATION_CONTEXT( 'NONE', 'WORKSPACE' ) );
#10 = STYLED_ITEM( '', ( #36 ), #37 );
#11 = STYLED_ITEM( '', ( #38 ), #39 );
#12 = STYLED_ITEM( '', ( #40 ), #41 );
#13 = STYLED_ITEM( '', ( #42 ), #43 );
#14 = STYLED_ITEM( '', ( #44 ), #45 );
#15 = STYLED_ITEM( '', ( #46 ), #47 );
#16 = STYLED_ITEM( '', ( #48 ), #49 );
#17 = STYLED_ITEM( '', ( #50 ), #51 );
#18 = STYLED_ITEM( '', ( #52 ), #53 );
#19 = STYLED_ITEM( '', ( #54 ), #55 );
#20 = STYLED_ITEM( '', ( #56 ), #57 );
#21 = STYLED_ITEM( '', ( #58 ), #59 );
#22 = STYLED_ITEM( '', ( #60 ), #61 );
#23 = APPLICATION_CONTEXT( 'core data for automotive mechanical design processes' );
#24 = PRODUCT_CATEGORY( 'part', 'NONE' );
#25 = PRODUCT_RELATED_PRODUCT_CATEGORY( 'detail', ' ', ( #62 ) );
#26 = PRODUCT_DEFINITION_SHAPE( 'NONE', 'NONE', #63 );
#27 = ADVANCED_BREP_SHAPE_REPRESENTATION( '1', ( #64, #65 ), #6 );
#30 = UNCERTAINTY_MEASURE_WITH_UNIT( LENGTH_MEASURE( 0.00100000000000000 ), #32, '', '' );
#32 =  ( CONVERSION_BASED_UNIT( 'MILLIMETRE', #68 )LENGTH_UNIT(  )NAMED_UNIT( #71 ) );
#33 =  ( NAMED_UNIT( #73 )PLANE_ANGLE_UNIT(  )SI_UNIT( $, .RADIAN. ) );
#34 =  ( NAMED_UNIT( #73 )SI_UNIT( $, .STERADIAN. )SOLID_ANGLE_UNIT(  ) );
#36 = PRESENTATION_STYLE_ASSIGNMENT( ( #79 ) );
#37 = ADVANCED_FACE( '', ( #80, #81 ), #82, .T. );
#38 = PRESENTATION_STYLE_ASSIGNMENT( ( #83 ) );
#39 = ADVANCED_FACE( '', ( #84 ), #85, .T. );
#40 = PRESENTATION_STYLE_ASSIGNMENT( ( #86 ) );
#41 = ADVANCED_FACE( '', ( #87, #88 ), #89, .F. );
#42 = PRESENTATION_STYLE_ASSIGNMENT( ( #90 ) );
#43 = ADVANCED_FACE( '', ( #91, #92 ), #93, .F. );
#44 = PRESENTATION_STYLE_ASSIGNMENT( ( #94 ) );
#45 = ADVANCED_FACE( '', ( #95, #96 ), #97, .F. );
#46 = PRESENTATION_STYLE_ASSIGNMENT( ( #98 ) );
#47 = ADVANCED_FACE( '', ( #99 ), #100, .F. );
#48 = PRESENTATION_STYLE_ASSIGNMENT( ( #101 ) );
#49 = ADVANCED_FACE( '', ( #102, #103 ), #104, .T. );
#50 = PRESENTATION_STYLE_ASSIGNMENT( ( #105 ) );
#51 = ADVANCED_FACE( '', ( #106 ), #107, .T. );
#52 = PRESENTATION_STYLE_ASSIGNMENT( ( #108 ) );
#53 = ADVANCED_FACE( '', ( #109 ), #110, .T. );
#54 = PRESENTATION_STYLE_ASSIGNMENT( ( #111 ) );
#55 = ADVANCED_FACE( '', ( #112 ), #113, .T. );
#56 = PRESENTATION_STYLE_ASSIGNMENT( ( #114 ) );
#57 = ADVANCED_FACE( '', ( #115 ), #116, .T. );
#58 = PRESENTATION_STYLE_ASSIGNMENT( ( #117 ) );
#59 = ADVANCED_FACE( '', ( #118 ), #119, .T. );
#60 = PRESENTATION_STYLE_ASSIGNMENT( ( #120 ) );
#61 = ADVANCED_FACE( '', ( #121 ), #122, .T. );
#62 = PRODUCT( '1', '1', 'PART-1-DESC', ( #123 ) );
#63 = PRODUCT_DEFINITION( 'NONE', 'NONE', #124, #2 );
#64 = MANIFOLD_SOLID_BREP( '1', #125 );
#65 = AXIS2_PLACEMENT_3D( '', #126, #127, #128 );
#68 = LENGTH_MEASURE_WITH_UNIT( LENGTH_MEASURE( 1.00000000000000 ), #129 );
#71 = DIMENSIONAL_EXPONENTS( 1.00000000000000, 0.000000000000000, 0.000000000000000, 0.000000000000000, 0.000000000000000, 0.000000000000000, 0.000000000000000 );
#73 = DIMENSIONAL_EXPONENTS( 0.000000000000000, 0.000000000000000, 0.000000000000000, 0.000000000000000, 0.000000000000000, 0.000000000000000, 0.000000000000000 );
#79 = SURFACE_STYLE_USAGE( .BOTH., #130 );
#80 = FACE_BOUND( '', #131, .T. );
#81 = FACE_OUTER_BOUND( '', #132, .T. );
#82 = CONICAL_SURFACE( '', #133, 22.2000000000000, 0.785398163397452 );
#83 = SURFACE_STYLE_USAGE( .BOTH., #134 );
#84 = FACE_OUTER_BOUND( '', #135, .T. );
#85 = PLANE( '', #136 );
#86 = SURFACE_STYLE_USAGE( .BOTH., #137 );
#87 = FACE_OUTER_BOUND( '', #138, .T. );
#88 = FACE_BOUND( '', #139, .T. );
#89 = PLANE( '', #140 );
#90 = SURFACE_STYLE_USAGE( .BOTH., #141 );
#91 = FACE_OUTER_BOUND( '', #142, .T. );
#92 = FACE_BOUND( '', #143, .T. );
#93 = PLANE( '', #144 );
#94 = SURFACE_STYLE_USAGE( .BOTH., #145 );
#95 = FACE_OUTER_BOUND( '', #146, .T. );
#96 = FACE_OUTER_BOUND( '', #147, .T. );
#97 = CYLINDRICAL_SURFACE( '', #148, 17.1159799130185 );
#98 = SURFACE_STYLE_USAGE( .BOTH., #149 );
#99 = FACE_OUTER_BOUND( '', #150, .T. );
#100 = SPHERICAL_SURFACE( '', #151, 17.1159799130185 );
#101 = SURFACE_STYLE_USAGE( .BOTH., #152 );
#102 = FACE_OUTER_BOUND( '', #153, .T. );
#103 = FACE_OUTER_BOUND( '', #154, .T. );
#104 = CYLINDRICAL_SURFACE( '', #155, 22.2000000000000 );
#105 = SURFACE_STYLE_USAGE( .BOTH., #156 );
#106 = FACE_OUTER_BOUND( '', #157, .T. );
#107 = PLANE( '', #158 );
#108 = SURFACE_STYLE_USAGE( .BOTH., #159 );
#109 = FACE_OUTER_BOUND( '', #160, .T. );
#110 = PLANE( '', #161 );
#111 = SURFACE_STYLE_USAGE( .BOTH., #162 );
#112 = FACE_OUTER_BOUND( '', #163, .T. );
#113 = PLANE( '', #164 );
#114 = SURFACE_STYLE_USAGE( .BOTH., #165 );
#115 = FACE_OUTER_BOUND( '', #166, .T. );
#116 = SPHERICAL_SURFACE( '', #167, 21.0000000000000 );
#117 = SURFACE_STYLE_USAGE( .BOTH., #168 );
#118 = FACE_OUTER_BOUND( '', #169, .T. );
#119 = PLANE( '', #170 );
#120 = SURFACE_STYLE_USAGE( .BOTH., #171 );
#121 = FACE_OUTER_BOUND( '', #172, .T. );
#122 = PLANE( '', #173 );
#123 = PRODUCT_CONTEXT( '', #23, 'mechanical' );
#124 = PRODUCT_DEFINITION_FORMATION_WITH_SPECIFIED_SOURCE( ' ', 'NONE', #62, .NOT_KNOWN. );
#125 = CLOSED_SHELL( '', ( #41, #43, #53, #61, #49, #51, #55, #59, #39, #45, #47, #57, #37 ) );
#126 = CARTESIAN_POINT( '', ( 0.000000000000000, 0.000000000000000, 0.000000000000000 ) );
#127 = DIRECTION( '', ( 0.000000000000000, 0.000000000000000, 1.00000000000000 ) );
#128 = DIRECTION( '', ( 1.00000000000000, 0.000000000000000, 0.000000000000000 ) );
#129 =  ( LENGTH_UNIT(  )NAMED_UNIT( #71 )SI_UNIT( .MILLI., .METRE. ) );
#130 = SURFACE_SIDE_STYLE( '', ( #175 ) );
#131 = EDGE_LOOP( '', ( #176 ) );
#132 = EDGE_LOOP( '', ( #177 ) );
#133 = AXIS2_PLACEMENT_3D( '', #178, #179, #180 );
#134 = SURFACE_SIDE_STYLE( '', ( #181 ) );
#135 = EDGE_LOOP( '', ( #182, #183, #184, #185 ) );
#136 = AXIS2_PLACEMENT_3D( '', #186, #187, #188 );
#137 = SURFACE_SIDE_STYLE( '', ( #189 ) );
#138 = EDGE_LOOP( '', ( #190, #191, #192, #193, #194, #195 ) );
#139 = EDGE_LOOP( '', ( #196 ) );
#140 = AXIS2_PLACEMENT_3D( '', #197, #198, #199 );
#141 = SURFACE_SIDE_STYLE( '', ( #200 ) );
#142 = EDGE_LOOP( '', ( #201 ) );
#143 = EDGE_LOOP( '', ( #202, #203, #204, #205, #206, #207 ) );
#144 = AXIS2_PLACEMENT_3D( '', #208, #209, #210 );
#145 = SURFACE_SIDE_STYLE( '', ( #211 ) );
#146 = EDGE_LOOP( '', ( #212 ) );
#147 = EDGE_LOOP( '', ( #213 ) );
#148 = AXIS2_PLACEMENT_3D( '', #214, #215, #216 );
#149 = SURFACE_SIDE_STYLE( '', ( #217 ) );
#150 = EDGE_LOOP( '', ( #218 ) );
#151 = AXIS2_PLACEMENT_3D( '', #219, #220, #221 );
#152 = SURFACE_SIDE_STYLE( '', ( #222 ) );
#153 = EDGE_LOOP( '', ( #223 ) );
#154 = EDGE_LOOP( '', ( #224 ) );
#155 = AXIS2_PLACEMENT_3D( '', #225, #226, #227 );
#156 = SURFACE_SIDE_STYLE( '', ( #228 ) );
#157 = EDGE_LOOP( '', ( #229, #230, #231, #232 ) );
#158 = AXIS2_PLACEMENT_3D( '', #233, #234, #235 );
#159 = SURFACE_SIDE_STYLE( '', ( #236 ) );
#160 = EDGE_LOOP( '', ( #237, #238, #239, #240 ) );
#161 = AXIS2_PLACEMENT_3D( '', #241, #242, #243 );
#162 = SURFACE_SIDE_STYLE( '', ( #244 ) );
#163 = EDGE_LOOP( '', ( #245, #246, #247, #248 ) );
#164 = AXIS2_PLACEMENT_3D( '', #249, #250, #251 );
#165 = SURFACE_SIDE_STYLE( '', ( #252 ) );
#166 = EDGE_LOOP( '', ( #253 ) );
#167 = AXIS2_PLACEMENT_3D( '', #254, #255, #256 );
#168 = SURFACE_SIDE_STYLE( '', ( #257 ) );
#169 = EDGE_LOOP( '', ( #258, #259, #260, #261 ) );
#170 = AXIS2_PLACEMENT_3D( '', #262, #263, #264 );
#171 = SURFACE_SIDE_STYLE( '', ( #265 ) );
#172 = EDGE_LOOP( '', ( #266, #267, #268, #269 ) );
#173 = AXIS2_PLACEMENT_3D( '', #270, #271, #272 );
#175 = SURFACE_STYLE_FILL_AREA( #273 );
#176 = ORIENTED_EDGE( '', *, *, #274, .F. );
#177 = ORIENTED_EDGE( '', *, *, #275, .T. );
#178 = CARTESIAN_POINT( '', ( 0.000000000000000, 0.000000000000000, 20.0000000000000 ) );
#179 = DIRECTION( '', ( -0.000000000000000, 0.000000000000000, -1.00000000000000 ) );
#180 = DIRECTION( '', ( -1.00000000000000, 0.000000000000000, 0.000000000000000 ) );
#181 = SURFACE_STYLE_FILL_AREA( #276 );
#182 = ORIENTED_EDGE( '', *, *, #277, .F. );
#183 = ORIENTED_EDGE( '', *, *, #278, .F. );
#184 = ORIENTED_EDGE( '', *, *, #279, .T. );
#185 = ORIENTED_EDGE( '', *, *, #280, .T. );
#186 = CARTESIAN_POINT( '', ( -20.6691396369887, 1.20657487649735E-013, 20.0000000000000 ) );
#187 = DIRECTION( '', ( 0.866025403784438, 0.500000000000000, 0.000000000000000 ) );
#188 = DIRECTION( '', ( -0.500000000000000, 0.866025403784438, 0.000000000000000 ) );
#189 = SURFACE_STYLE_FILL_AREA( #281 );
#190 = ORIENTED_EDGE( '', *, *, #282, .F. );
#191 = ORIENTED_EDGE( '', *, *, #283, .F. );
#192 = ORIENTED_EDGE( '', *, *, #284, .F. );
#193 = ORIENTED_EDGE( '', *, *, #285, .F. );
#194 = ORIENTED_EDGE( '', *, *, #279, .F. );
#195 = ORIENTED_EDGE( '', *, *, #286, .F. );
#196 = ORIENTED_EDGE( '', *, *, #287, .F. );
#197 = CARTESIAN_POINT( '', ( 0.000000000000000, 0.000000000000000, 20.0000000000000 ) );
#198 = DIRECTION( '', ( 0.000000000000000, 0.000000000000000, 1.00000000000000 ) );
#199 = DIRECTION( '', ( 1.00000000000000, 0.000000000000000, 0.000000000000000 ) );
#200 = SURFACE_STYLE_FILL_AREA( #288 );
#201 = ORIENTED_EDGE( '', *, *, #289, .F. );
#202 = ORIENTED_EDGE( '', *, *, #290, .T. );
#203 = ORIENTED_EDGE( '', *, *, #291, .T. );
#204 = ORIENTED_EDGE( '', *, *, #277, .T. );
#205 = ORIENTED_EDGE( '', *, *, #292, .T. );
#206 = ORIENTED_EDGE( '', *, *, #293, .T. );
#207 = ORIENTED_EDGE( '', *, *, #294, .T. );
#208 = CARTESIAN_POINT( '', ( 2.83311554694503E-015, 0.000000000000000, 0.000000000000000 ) );
#209 = DIRECTION( '', ( 0.000000000000000, 0.000000000000000, 1.00000000000000 ) );
#210 = DIRECTION( '', ( 1.00000000000000, 0.000000000000000, 0.000000000000000 ) );
#211 = SURFACE_STYLE_FILL_AREA( #295 );
#212 = ORIENTED_EDGE( '', *, *, #296, .T. );
#213 = ORIENTED_EDGE( '', *, *, #287, .T. );
#214 = CARTESIAN_POINT( '', ( 0.000000000000000, 0.000000000000000, 57.1500000000000 ) );
#215 = DIRECTION( '', ( -0.000000000000000, -0.000000000000000, -1.00000000000000 ) );
#216 = DIRECTION( '', ( 1.00000000000000, 0.000000000000000, 0.000000000000000 ) );
#217 = SURFACE_STYLE_FILL_AREA( #297 );
#218 = ORIENTED_EDGE( '', *, *, #296, .F. );
#219 = CARTESIAN_POINT( '', ( 0.000000000000000, 0.000000000000000, 20.8840200869815 ) );
#220 = DIRECTION( '', ( 0.000000000000000, 0.000000000000000, 1.00000000000000 ) );
#221 = DIRECTION( '', ( 1.00000000000000, 0.000000000000000, 0.000000000000000 ) );
#222 = SURFACE_STYLE_FILL_AREA( #298 );
#223 = ORIENTED_EDGE( '', *, *, #275, .F. );
#224 = ORIENTED_EDGE( '', *, *, #289, .T. );
#225 = CARTESIAN_POINT( '', ( 0.000000000000000, 0.000000000000000, 57.1500000000000 ) );
#226 = DIRECTION( '', ( -0.000000000000000, -0.000000000000000, -1.00000000000000 ) );
#227 = DIRECTION( '', ( 1.00000000000000, 0.000000000000000, 0.000000000000000 ) );
#228 = SURFACE_STYLE_FILL_AREA( #299 );
#229 = ORIENTED_EDGE( '', *, *, #294, .F. );
#230 = ORIENTED_EDGE( '', *, *, #300, .F. );
#231 = ORIENTED_EDGE( '', *, *, #283, .T. );
#232 = ORIENTED_EDGE( '', *, *, #301, .T. );
#233 = CARTESIAN_POINT( '', ( 20.6691396369887, 1.18126248079979E-013, 20.0000000000000 ) );
#234 = DIRECTION( '', ( -0.866025403784438, -0.500000000000001, 0.000000000000000 ) );
#235 = DIRECTION( '', ( 0.500000000000001, -0.866025403784438, 0.000000000000000 ) );
#236 = SURFACE_STYLE_FILL_AREA( #302 );
#237 = ORIENTED_EDGE( '', *, *, #292, .F. );
#238 = ORIENTED_EDGE( '', *, *, #280, .F. );
#239 = ORIENTED_EDGE( '', *, *, #285, .T. );
#240 = ORIENTED_EDGE( '', *, *, #303, .T. );
#241 = CARTESIAN_POINT( '', ( -10.3345698184943, -17.9000000000000, 20.0000000000000 ) );
#242 = DIRECTION( '', ( 1.34285103797734E-015, 1.00000000000000, 0.000000000000000 ) );
#243 = DIRECTION( '', ( -1.00000000000000, 1.34285103797734E-015, 0.000000000000000 ) );
#244 = SURFACE_STYLE_FILL_AREA( #304 );
#245 = ORIENTED_EDGE( '', *, *, #290, .F. );
#246 = ORIENTED_EDGE( '', *, *, #301, .F. );
#247 = ORIENTED_EDGE( '', *, *, #282, .T. );
#248 = ORIENTED_EDGE( '', *, *, #305, .T. );
#249 = CARTESIAN_POINT( '', ( 10.3345698184943, 17.9000000000000, 20.0000000000000 ) );
#250 = DIRECTION( '', ( 0.000000000000000, -1.00000000000000, 0.000000000000000 ) );
#251 = DIRECTION( '', ( 0.000000000000000, 0.000000000000000, -1.00000000000000 ) );
#252 = SURFACE_STYLE_FILL_AREA( #306 );
#253 = ORIENTED_EDGE( '', *, *, #274, .T. );
#254 = CARTESIAN_POINT( '', ( 0.000000000000000, 0.000000000000000, 18.2000000000000 ) );
#255 = DIRECTION( '', ( 0.000000000000000, 0.000000000000000, 1.00000000000000 ) );
#256 = DIRECTION( '', ( 1.00000000000000, 0.000000000000000, 0.000000000000000 ) );
#257 = SURFACE_STYLE_FILL_AREA( #307 );
#258 = ORIENTED_EDGE( '', *, *, #291, .F. );
#259 = ORIENTED_EDGE( '', *, *, #305, .F. );
#260 = ORIENTED_EDGE( '', *, *, #286, .T. );
#261 = ORIENTED_EDGE( '', *, *, #278, .T. );
#262 = CARTESIAN_POINT( '', ( -10.3345698184943, 17.9000000000000, 20.0000000000000 ) );
#263 = DIRECTION( '', ( 0.866025403784438, -0.500000000000001, 0.000000000000000 ) );
#264 = DIRECTION( '', ( 0.500000000000001, 0.866025403784438, 0.000000000000000 ) );
#265 = SURFACE_STYLE_FILL_AREA( #308 );
#266 = ORIENTED_EDGE( '', *, *, #293, .F. );
#267 = ORIENTED_EDGE( '', *, *, #303, .F. );
#268 = ORIENTED_EDGE( '', *, *, #284, .T. );
#269 = ORIENTED_EDGE( '', *, *, #300, .T. );
#270 = CARTESIAN_POINT( '', ( 10.3345698184943, -17.9000000000000, 20.0000000000000 ) );
#271 = DIRECTION( '', ( -0.866025403784439, 0.500000000000000, 0.000000000000000 ) );
#272 = DIRECTION( '', ( -0.500000000000000, -0.866025403784439, 0.000000000000000 ) );
#273 = FILL_AREA_STYLE( '', ( #309 ) );
#274 = EDGE_CURVE( '', #310, #310, #311, .T. );
#275 = EDGE_CURVE( '', #312, #312, #313, .T. );
#276 = FILL_AREA_STYLE( '', ( #314 ) );
#277 = EDGE_CURVE( '', #315, #316, #317, .T. );
#278 = EDGE_CURVE( '', #318, #315, #319, .T. );
#279 = EDGE_CURVE( '', #318, #320, #321, .T. );
#280 = EDGE_CURVE( '', #320, #316, #322, .T. );
#281 = FILL_AREA_STYLE( '', ( #323 ) );
#282 = EDGE_CURVE( '', #324, #325, #326, .T. );
#283 = EDGE_CURVE( '', #327, #324, #328, .T. );
#284 = EDGE_CURVE( '', #329, #327, #330, .T. );
#285 = EDGE_CURVE( '', #320, #329, #331, .T. );
#286 = EDGE_CURVE( '', #325, #318, #332, .T. );
#287 = EDGE_CURVE( '', #333, #333, #334, .F. );
#288 = FILL_AREA_STYLE( '', ( #335 ) );
#289 = EDGE_CURVE( '', #336, #336, #337, .T. );
#290 = EDGE_CURVE( '', #338, #339, #340, .T. );
#291 = EDGE_CURVE( '', #339, #315, #341, .T. );
#292 = EDGE_CURVE( '', #316, #342, #343, .T. );
#293 = EDGE_CURVE( '', #342, #344, #345, .T. );
#294 = EDGE_CURVE( '', #344, #338, #346, .T. );
#295 = FILL_AREA_STYLE( '', ( #347 ) );
#296 = EDGE_CURVE( '', #348, #348, #349, .T. );
#297 = FILL_AREA_STYLE( '', ( #350 ) );
#298 = FILL_AREA_STYLE( '', ( #351 ) );
#299 = FILL_AREA_STYLE( '', ( #352 ) );
#300 = EDGE_CURVE( '', #327, #344, #353, .T. );
#301 = EDGE_CURVE( '', #324, #338, #354, .T. );
#302 = FILL_AREA_STYLE( '', ( #355 ) );
#303 = EDGE_CURVE( '', #329, #342, #356, .T. );
#304 = FILL_AREA_STYLE( '', ( #357 ) );
#305 = EDGE_CURVE( '', #325, #339, #358, .T. );
#306 = FILL_AREA_STYLE( '', ( #359 ) );
#307 = FILL_AREA_STYLE( '', ( #360 ) );
#308 = FILL_AREA_STYLE( '', ( #361 ) );
#309 = FILL_AREA_STYLE_COLOUR( '', #362 );
#310 = VERTEX_POINT( '', #363 );
#311 = CIRCLE( '', #364, 20.7464278422680 );
#312 = VERTEX_POINT( '', #365 );
#313 = CIRCLE( '', #366, 22.2000000000000 );
#314 = FILL_AREA_STYLE_COLOUR( '', #367 );
#315 = VERTEX_POINT( '', #368 );
#316 = VERTEX_POINT( '', #369 );
#317 = LINE( '', #370, #371 );
#318 = VERTEX_POINT( '', #372 );
#319 = LINE( '', #373, #374 );
#320 = VERTEX_POINT( '', #375 );
#321 = LINE( '', #376, #377 );
#322 = LINE( '', #378, #379 );
#323 = FILL_AREA_STYLE_COLOUR( '', #380 );
#324 = VERTEX_POINT( '', #381 );
#325 = VERTEX_POINT( '', #382 );
#326 = LINE( '', #383, #384 );
#327 = VERTEX_POINT( '', #385 );
#328 = LINE( '', #386, #387 );
#329 = VERTEX_POINT( '', #388 );
#330 = LINE( '', #389, #390 );
#331 = LINE( '', #391, #392 );
#332 = LINE( '', #393, #394 );
#333 = VERTEX_POINT( '', #395 );
#334 = CIRCLE( '', #396, 17.1159799130185 );
#335 = FILL_AREA_STYLE_COLOUR( '', #397 );
#336 = VERTEX_POINT( '', #398 );
#337 = CIRCLE( '', #399, 22.2000000000000 );
#338 = VERTEX_POINT( '', #400 );
#339 = VERTEX_POINT( '', #401 );
#340 = LINE( '', #402, #403 );
#341 = LINE( '', #404, #405 );
#342 = VERTEX_POINT( '', #406 );
#343 = LINE( '', #407, #408 );
#344 = VERTEX_POINT( '', #409 );
#345 = LINE( '', #410, #411 );
#346 = LINE( '', #412, #413 );
#347 = FILL_AREA_STYLE_COLOUR( '', #414 );
#348 = VERTEX_POINT( '', #415 );
#349 = CIRCLE( '', #416, 17.1159799130185 );
#350 = FILL_AREA_STYLE_COLOUR( '', #417 );
#351 = FILL_AREA_STYLE_COLOUR( '', #418 );
#352 = FILL_AREA_STYLE_COLOUR( '', #419 );
#353 = LINE( '', #420, #421 );
#354 = LINE( '', #422, #423 );
#355 = FILL_AREA_STYLE_COLOUR( '', #424 );
#356 = LINE( '', #425, #426 );
#357 = FILL_AREA_STYLE_COLOUR( '', #427 );
#358 = LINE( '', #428, #429 );
#359 = FILL_AREA_STYLE_COLOUR( '', #430 );
#360 = FILL_AREA_STYLE_COLOUR( '', #431 );
#361 = FILL_AREA_STYLE_COLOUR( '', #432 );
#362 = COLOUR_RGB( '', 0.200000002980232, 0.200000002980232, 0.200000002980232 );
#363 = CARTESIAN_POINT( '', ( 20.7464278422680, 0.000000000000000, 21.4535721577321 ) );
#364 = AXIS2_PLACEMENT_3D( '', #433, #434, #435 );
#365 = CARTESIAN_POINT( '', ( 22.2000000000000, 0.000000000000000, 20.0000000000000 ) );
#366 = AXIS2_PLACEMENT_3D( '', #436, #437, #438 );
#367 = COLOUR_RGB( '', 0.200000002980232, 0.200000002980232, 0.200000002980232 );
#368 = CARTESIAN_POINT( '', ( -20.6691396369887, 1.21430643318376E-013, 0.000000000000000 ) );
#369 = CARTESIAN_POINT( '', ( -10.3345698184943, -17.9000000000000, 0.000000000000000 ) );
#370 = CARTESIAN_POINT( '', ( -20.6691396369887, 1.20657487649735E-013, 0.000000000000000 ) );
#371 = VECTOR( '', #439, 999.999999999999 );
#372 = CARTESIAN_POINT( '', ( -20.6691396369887, 1.21430643318376E-013, 20.0000000000000 ) );
#373 = CARTESIAN_POINT( '', ( -20.6691396369887, 1.21430643318376E-013, 20.0000000000000 ) );
#374 = VECTOR( '', #440, 1000.00000000000 );
#375 = CARTESIAN_POINT( '', ( -10.3345698184943, -17.9000000000000, 20.0000000000000 ) );
#376 = CARTESIAN_POINT( '', ( -20.6691396369887, 1.20657487649735E-013, 20.0000000000000 ) );
#377 = VECTOR( '', #441, 999.999999999999 );
#378 = CARTESIAN_POINT( '', ( -10.3345698184943, -17.9000000000000, 20.0000000000000 ) );
#379 = VECTOR( '', #442, 1000.00000000000 );
#380 = COLOUR_RGB( '', 0.200000002980232, 0.200000002980232, 0.200000002980232 );
#381 = CARTESIAN_POINT( '', ( 10.3345698184943, 17.9000000000000, 20.0000000000000 ) );
#382 = CARTESIAN_POINT( '', ( -10.3345698184943, 17.9000000000000, 20.0000000000000 ) );
#383 = CARTESIAN_POINT( '', ( 10.3345698184943, 17.9000000000000, 20.0000000000000 ) );
#384 = VECTOR( '', #443, 1000.00000000000 );
#385 = CARTESIAN_POINT( '', ( 20.6691396369887, 1.17961196366423E-013, 20.0000000000000 ) );
#386 = CARTESIAN_POINT( '', ( 20.6691396369887, 1.18126248079979E-013, 20.0000000000000 ) );
#387 = VECTOR( '', #444, 999.999999999999 );
#388 = CARTESIAN_POINT( '', ( 10.3345698184943, -17.9000000000000, 20.0000000000000 ) );
#389 = CARTESIAN_POINT( '', ( 10.3345698184943, -17.9000000000000, 20.0000000000000 ) );
#390 = VECTOR( '', #445, 1000.00000000000 );
#391 = CARTESIAN_POINT( '', ( -10.3345698184943, -17.9000000000000, 20.0000000000000 ) );
#392 = VECTOR( '', #446, 1000.00000000000 );
#393 = CARTESIAN_POINT( '', ( -10.3345698184943, 17.9000000000000, 20.0000000000000 ) );
#394 = VECTOR( '', #447, 999.999999999999 );
#395 = CARTESIAN_POINT( '', ( 17.1159799130185, 0.000000000000000, 20.0000000000000 ) );
#396 = AXIS2_PLACEMENT_3D( '', #448, #449, #450 );
#397 = COLOUR_RGB( '', 0.200000002980232, 0.200000002980232, 0.200000002980232 );
#398 = CARTESIAN_POINT( '', ( 22.2000000000000, 0.000000000000000, 0.000000000000000 ) );
#399 = AXIS2_PLACEMENT_3D( '', #451, #452, #453 );
#400 = CARTESIAN_POINT( '', ( 10.3345698184943, 17.9000000000000, 0.000000000000000 ) );
#401 = CARTESIAN_POINT( '', ( -10.3345698184943, 17.9000000000000, 0.000000000000000 ) );
#402 = CARTESIAN_POINT( '', ( 10.3345698184943, 17.9000000000000, 0.000000000000000 ) );
#403 = VECTOR( '', #454, 1000.00000000000 );
#404 = CARTESIAN_POINT( '', ( -10.3345698184943, 17.9000000000000, 0.000000000000000 ) );
#405 = VECTOR( '', #455, 999.999999999999 );
#406 = CARTESIAN_POINT( '', ( 10.3345698184943, -17.9000000000000, 0.000000000000000 ) );
#407 = CARTESIAN_POINT( '', ( -10.3345698184943, -17.9000000000000, 0.000000000000000 ) );
#408 = VECTOR( '', #456, 1000.00000000000 );
#409 = CARTESIAN_POINT( '', ( 20.6691396369887, 1.17961196366423E-013, 0.000000000000000 ) );
#410 = CARTESIAN_POINT( '', ( 10.3345698184943, -17.9000000000000, 0.000000000000000 ) );
#411 = VECTOR( '', #457, 1000.00000000000 );
#412 = CARTESIAN_POINT( '', ( 20.6691396369887, 1.18126248079979E-013, 0.000000000000000 ) );
#413 = VECTOR( '', #458, 999.999999999999 );
#414 = COLOUR_RGB( '', 0.200000002980232, 0.200000002980232, 0.200000002980232 );
#415 = CARTESIAN_POINT( '', ( 17.1159799130185, 0.000000000000000, 20.8840200869815 ) );
#416 = AXIS2_PLACEMENT_3D( '', #459, #460, #461 );
#417 = COLOUR_RGB( '', 0.200000002980232, 0.200000002980232, 0.200000002980232 );
#418 = COLOUR_RGB( '', 0.200000002980232, 0.200000002980232, 0.200000002980232 );
#419 = COLOUR_RGB( '', 0.200000002980232, 0.200000002980232, 0.200000002980232 );
#420 = CARTESIAN_POINT( '', ( 20.6691396369887, 1.17961196366423E-013, 20.0000000000000 ) );
#421 = VECTOR( '', #462, 1000.00000000000 );
#422 = CARTESIAN_POINT( '', ( 10.3345698184943, 17.9000000000000, 20.0000000000000 ) );
#423 = VECTOR( '', #463, 1000.00000000000 );
#424 = COLOUR_RGB( '', 0.200000002980232, 0.200000002980232, 0.200000002980232 );
#425 = CARTESIAN_POINT( '', ( 10.3345698184943, -17.9000000000000, 20.0000000000000 ) );
#426 = VECTOR( '', #464, 1000.00000000000 );
#427 = COLOUR_RGB( '', 0.200000002980232, 0.200000002980232, 0.200000002980232 );
#428 = CARTESIAN_POINT( '', ( -10.3345698184943, 17.9000000000000, 20.0000000000000 ) );
#429 = VECTOR( '', #465, 1000.00000000000 );
#430 = COLOUR_RGB( '', 0.200000002980232, 0.200000002980232, 0.200000002980232 );
#431 = COLOUR_RGB( '', 0.200000002980232, 0.200000002980232, 0.200000002980232 );
#432 = COLOUR_RGB( '', 0.200000002980232, 0.200000002980232, 0.200000002980232 );
#433 = CARTESIAN_POINT( '', ( 0.000000000000000, 0.000000000000000, 21.4535721577321 ) );
#434 = DIRECTION( '', ( 0.000000000000000, 0.000000000000000, 1.00000000000000 ) );
#435 = DIRECTION( '', ( 1.00000000000000, 0.000000000000000, 0.000000000000000 ) );
#436 = CARTESIAN_POINT( '', ( 0.000000000000000, 0.000000000000000, 20.0000000000000 ) );
#437 = DIRECTION( '', ( 0.000000000000000, 0.000000000000000, 1.00000000000000 ) );
#438 = DIRECTION( '', ( 1.00000000000000, 0.000000000000000, 0.000000000000000 ) );
#439 = DIRECTION( '', ( 0.500000000000000, -0.866025403784438, 0.000000000000000 ) );
#440 = DIRECTION( '', ( 0.000000000000000, 0.000000000000000, -1.00000000000000 ) );
#441 = DIRECTION( '', ( 0.500000000000000, -0.866025403784438, 0.000000000000000 ) );
#442 = DIRECTION( '', ( 0.000000000000000, 0.000000000000000, -1.00000000000000 ) );
#443 = DIRECTION( '', ( -1.00000000000000, 0.000000000000000, 0.000000000000000 ) );
#444 = DIRECTION( '', ( -0.500000000000001, 0.866025403784438, 0.000000000000000 ) );
#445 = DIRECTION( '', ( 0.500000000000000, 0.866025403784439, 0.000000000000000 ) );
#446 = DIRECTION( '', ( 1.00000000000000, -1.34285103797734E-015, 0.000000000000000 ) );
#447 = DIRECTION( '', ( -0.500000000000001, -0.866025403784438, 0.000000000000000 ) );
#448 = CARTESIAN_POINT( '', ( 0.000000000000000, 0.000000000000000, 20.0000000000000 ) );
#449 = DIRECTION( '', ( 0.000000000000000, 0.000000000000000, 1.00000000000000 ) );
#450 = DIRECTION( '', ( 1.00000000000000, 0.000000000000000, 0.000000000000000 ) );
#451 = CARTESIAN_POINT( '', ( 0.000000000000000, 0.000000000000000, 0.000000000000000 ) );
#452 = DIRECTION( '', ( 0.000000000000000, 0.000000000000000, 1.00000000000000 ) );
#453 = DIRECTION( '', ( 1.00000000000000, 0.000000000000000, 0.000000000000000 ) );
#454 = DIRECTION( '', ( -1.00000000000000, 0.000000000000000, 0.000000000000000 ) );
#455 = DIRECTION( '', ( -0.500000000000001, -0.866025403784438, 0.000000000000000 ) );
#456 = DIRECTION( '', ( 1.00000000000000, -1.34285103797734E-015, 0.000000000000000 ) );
#457 = DIRECTION( '', ( 0.500000000000000, 0.866025403784439, 0.000000000000000 ) );
#458 = DIRECTION( '', ( -0.500000000000001, 0.866025403784438, 0.000000000000000 ) );
#459 = CARTESIAN_POINT( '', ( 0.000000000000000, 0.000000000000000, 20.8840200869815 ) );
#460 = DIRECTION( '', ( 0.000000000000000, 0.000000000000000, 1.00000000000000 ) );
#461 = DIRECTION( '', ( 1.00000000000000, 0.000000000000000, 0.000000000000000 ) );
#462 = DIRECTION( '', ( 0.000000000000000, 0.000000000000000, -1.00000000000000 ) );
#463 = DIRECTION( '', ( 0.000000000000000, 0.000000000000000, -1.00000000000000 ) );
#464 = DIRECTION( '', ( 0.000000000000000, 0.000000000000000, -1.00000000000000 ) );
#465 = DIRECTION( '', ( 0.000000000000000, 0.000000000000000, -1.00000000000000 ) );
ENDSEC;
END-ISO-10303-21;
