ISO-10303-21;
HEADER;
FILE_DESCRIPTION( ( 'Unknown' ), '1' );
FILE_NAME( '//SBS2003/HD_Usb/Disegni/08_LIB/Users_3D/PROD_GAMM_3D/CD/7371475_CD41.stp', 'Unknown', ( 'Unknown' ), ( 'Unknown' ), 'PSStep 14.0', 'Unknown', '  ' );
FILE_SCHEMA( ( 'AUTOMOTIVE_DESIGN { 1 0 10303 214 1 1 1 1 }' ) );
ENDSEC;
DATA;
#1 = MECHANICAL_DESIGN_GEOMETRIC_PRESENTATION_REPRESENTATION( ' ', ( #10, #11, #12, #13, #14, #15, #16, #17, #18, #19, #20, #21, #22 ), #6 );
#2 = PRODUCT_DEFINITION_CONTEXT( '', #23, 'design' );
#3 = APPLICATION_PROTOCOL_DEFINITION( 'international standard', 'automotive_design', 2001, #23 );
#4 = PRODUCT_CATEGORY_RELATIONSHIP( 'NONE', 'NONE', #24, #25 );
#5 = SHAPE_DEFINITION_REPRESENTATION( #26, #27 );
#6 =  ( GEOMETRIC_REPRESENTATION_CONTEXT( 3 )GLOBAL_UNCERTAINTY_ASSIGNED_CONTEXT( ( #30 ) )GLOBAL_UNIT_ASSIGNED_CONTEXT( ( #32, #33, #34 ) )REPRESENTATION_CONTEXT( 'NONE', 'WORKSPACE' ) );
#10 = STYLED_ITEM( '', ( #36 ), #37 );
#11 = STYLED_ITEM( '', ( #38 ), #39 );
#12 = STYLED_ITEM( '', ( #40 ), #41 );
#13 = STYLED_ITEM( '', ( #42 ), #43 );
#14 = STYLED_ITEM( '', ( #44 ), #45 );
#15 = STYLED_ITEM( '', ( #46 ), #47 );
#16 = STYLED_ITEM( '', ( #48 ), #49 );
#17 = STYLED_ITEM( '', ( #50 ), #51 );
#18 = STYLED_ITEM( '', ( #52 ), #53 );
#19 = STYLED_ITEM( '', ( #54 ), #55 );
#20 = STYLED_ITEM( '', ( #56 ), #57 );
#21 = STYLED_ITEM( '', ( #58 ), #59 );
#22 = STYLED_ITEM( '', ( #60 ), #61 );
#23 = APPLICATION_CONTEXT( 'core data for automotive mechanical design processes' );
#24 = PRODUCT_CATEGORY( 'part', 'NONE' );
#25 = PRODUCT_RELATED_PRODUCT_CATEGORY( 'detail', ' ', ( #62 ) );
#26 = PRODUCT_DEFINITION_SHAPE( 'NONE', 'NONE', #63 );
#27 = ADVANCED_BREP_SHAPE_REPRESENTATION( '1', ( #64, #65 ), #6 );
#30 = UNCERTAINTY_MEASURE_WITH_UNIT( LENGTH_MEASURE( 0.00100000000000000 ), #32, '', '' );
#32 =  ( CONVERSION_BASED_UNIT( 'MILLIMETRE', #68 )LENGTH_UNIT(  )NAMED_UNIT( #71 ) );
#33 =  ( NAMED_UNIT( #73 )PLANE_ANGLE_UNIT(  )SI_UNIT( $, .RADIAN. ) );
#34 =  ( NAMED_UNIT( #73 )SI_UNIT( $, .STERADIAN. )SOLID_ANGLE_UNIT(  ) );
#36 = PRESENTATION_STYLE_ASSIGNMENT( ( #79 ) );
#37 = ADVANCED_FACE( '', ( #80 ), #81, .T. );
#38 = PRESENTATION_STYLE_ASSIGNMENT( ( #82 ) );
#39 = ADVANCED_FACE( '', ( #83 ), #84, .T. );
#40 = PRESENTATION_STYLE_ASSIGNMENT( ( #85 ) );
#41 = ADVANCED_FACE( '', ( #86 ), #87, .F. );
#42 = PRESENTATION_STYLE_ASSIGNMENT( ( #88 ) );
#43 = ADVANCED_FACE( '', ( #89, #90 ), #91, .F. );
#44 = PRESENTATION_STYLE_ASSIGNMENT( ( #92 ) );
#45 = ADVANCED_FACE( '', ( #93 ), #94, .T. );
#46 = PRESENTATION_STYLE_ASSIGNMENT( ( #95 ) );
#47 = ADVANCED_FACE( '', ( #96, #97 ), #98, .F. );
#48 = PRESENTATION_STYLE_ASSIGNMENT( ( #99 ) );
#49 = ADVANCED_FACE( '', ( #100 ), #101, .T. );
#50 = PRESENTATION_STYLE_ASSIGNMENT( ( #102 ) );
#51 = ADVANCED_FACE( '', ( #103, #104 ), #105, .F. );
#52 = PRESENTATION_STYLE_ASSIGNMENT( ( #106 ) );
#53 = ADVANCED_FACE( '', ( #107 ), #108, .T. );
#54 = PRESENTATION_STYLE_ASSIGNMENT( ( #109 ) );
#55 = ADVANCED_FACE( '', ( #110 ), #111, .T. );
#56 = PRESENTATION_STYLE_ASSIGNMENT( ( #112 ) );
#57 = ADVANCED_FACE( '', ( #113 ), #114, .T. );
#58 = PRESENTATION_STYLE_ASSIGNMENT( ( #115 ) );
#59 = ADVANCED_FACE( '', ( #116, #117 ), #118, .T. );
#60 = PRESENTATION_STYLE_ASSIGNMENT( ( #119 ) );
#61 = ADVANCED_FACE( '', ( #120, #121 ), #122, .T. );
#62 = PRODUCT( '1', '1', 'PART-1-DESC', ( #123 ) );
#63 = PRODUCT_DEFINITION( 'NONE', 'NONE', #124, #2 );
#64 = MANIFOLD_SOLID_BREP( '1', #125 );
#65 = AXIS2_PLACEMENT_3D( '', #126, #127, #128 );
#68 = LENGTH_MEASURE_WITH_UNIT( LENGTH_MEASURE( 1.00000000000000 ), #129 );
#71 = DIMENSIONAL_EXPONENTS( 1.00000000000000, 0.000000000000000, 0.000000000000000, 0.000000000000000, 0.000000000000000, 0.000000000000000, 0.000000000000000 );
#73 = DIMENSIONAL_EXPONENTS( 0.000000000000000, 0.000000000000000, 0.000000000000000, 0.000000000000000, 0.000000000000000, 0.000000000000000, 0.000000000000000 );
#79 = SURFACE_STYLE_USAGE( .BOTH., #130 );
#80 = FACE_OUTER_BOUND( '', #131, .T. );
#81 = PLANE( '', #132 );
#82 = SURFACE_STYLE_USAGE( .BOTH., #133 );
#83 = FACE_OUTER_BOUND( '', #134, .T. );
#84 = PLANE( '', #135 );
#85 = SURFACE_STYLE_USAGE( .BOTH., #136 );
#86 = FACE_OUTER_BOUND( '', #137, .T. );
#87 = SPHERICAL_SURFACE( '', #138, 19.6881803230062 );
#88 = SURFACE_STYLE_USAGE( .BOTH., #139 );
#89 = FACE_OUTER_BOUND( '', #140, .T. );
#90 = FACE_BOUND( '', #141, .T. );
#91 = PLANE( '', #142 );
#92 = SURFACE_STYLE_USAGE( .BOTH., #143 );
#93 = FACE_OUTER_BOUND( '', #144, .T. );
#94 = PLANE( '', #145 );
#95 = SURFACE_STYLE_USAGE( .BOTH., #146 );
#96 = FACE_OUTER_BOUND( '', #147, .T. );
#97 = FACE_BOUND( '', #148, .T. );
#98 = PLANE( '', #149 );
#99 = SURFACE_STYLE_USAGE( .BOTH., #150 );
#100 = FACE_OUTER_BOUND( '', #151, .T. );
#101 = PLANE( '', #152 );
#102 = SURFACE_STYLE_USAGE( .BOTH., #153 );
#103 = FACE_OUTER_BOUND( '', #154, .T. );
#104 = FACE_OUTER_BOUND( '', #155, .T. );
#105 = CYLINDRICAL_SURFACE( '', #156, 19.6881803230062 );
#106 = SURFACE_STYLE_USAGE( .BOTH., #157 );
#107 = FACE_OUTER_BOUND( '', #158, .T. );
#108 = PLANE( '', #159 );
#109 = SURFACE_STYLE_USAGE( .BOTH., #160 );
#110 = FACE_OUTER_BOUND( '', #161, .T. );
#111 = PLANE( '', #162 );
#112 = SURFACE_STYLE_USAGE( .BOTH., #163 );
#113 = FACE_OUTER_BOUND( '', #164, .T. );
#114 = SPHERICAL_SURFACE( '', #165, 23.0000000000000 );
#115 = SURFACE_STYLE_USAGE( .BOTH., #166 );
#116 = FACE_OUTER_BOUND( '', #167, .T. );
#117 = FACE_OUTER_BOUND( '', #168, .T. );
#118 = CYLINDRICAL_SURFACE( '', #169, 25.0500000000000 );
#119 = SURFACE_STYLE_USAGE( .BOTH., #170 );
#120 = FACE_BOUND( '', #171, .T. );
#121 = FACE_OUTER_BOUND( '', #172, .T. );
#122 = CONICAL_SURFACE( '', #173, 25.0500000000000, 0.785398163397453 );
#123 = PRODUCT_CONTEXT( '', #23, 'mechanical' );
#124 = PRODUCT_DEFINITION_FORMATION_WITH_SPECIFIED_SOURCE( ' ', 'NONE', #62, .NOT_KNOWN. );
#125 = CLOSED_SHELL( '', ( #43, #47, #45, #49, #59, #39, #37, #55, #53, #51, #41, #57, #61 ) );
#126 = CARTESIAN_POINT( '', ( 0.000000000000000, 0.000000000000000, 0.000000000000000 ) );
#127 = DIRECTION( '', ( 0.000000000000000, 0.000000000000000, 1.00000000000000 ) );
#128 = DIRECTION( '', ( 1.00000000000000, 0.000000000000000, 0.000000000000000 ) );
#129 =  ( LENGTH_UNIT(  )NAMED_UNIT( #71 )SI_UNIT( .MILLI., .METRE. ) );
#130 = SURFACE_SIDE_STYLE( '', ( #175 ) );
#131 = EDGE_LOOP( '', ( #176, #177, #178, #179 ) );
#132 = AXIS2_PLACEMENT_3D( '', #180, #181, #182 );
#133 = SURFACE_SIDE_STYLE( '', ( #183 ) );
#134 = EDGE_LOOP( '', ( #184, #185, #186, #187 ) );
#135 = AXIS2_PLACEMENT_3D( '', #188, #189, #190 );
#136 = SURFACE_SIDE_STYLE( '', ( #191 ) );
#137 = EDGE_LOOP( '', ( #192 ) );
#138 = AXIS2_PLACEMENT_3D( '', #193, #194, #195 );
#139 = SURFACE_SIDE_STYLE( '', ( #196 ) );
#140 = EDGE_LOOP( '', ( #197, #198, #199, #200, #201, #202 ) );
#141 = EDGE_LOOP( '', ( #203 ) );
#142 = AXIS2_PLACEMENT_3D( '', #204, #205, #206 );
#143 = SURFACE_SIDE_STYLE( '', ( #207 ) );
#144 = EDGE_LOOP( '', ( #208, #209, #210, #211 ) );
#145 = AXIS2_PLACEMENT_3D( '', #212, #213, #214 );
#146 = SURFACE_SIDE_STYLE( '', ( #215 ) );
#147 = EDGE_LOOP( '', ( #216 ) );
#148 = EDGE_LOOP( '', ( #217, #218, #219, #220, #221, #222 ) );
#149 = AXIS2_PLACEMENT_3D( '', #223, #224, #225 );
#150 = SURFACE_SIDE_STYLE( '', ( #226 ) );
#151 = EDGE_LOOP( '', ( #227, #228, #229, #230 ) );
#152 = AXIS2_PLACEMENT_3D( '', #231, #232, #233 );
#153 = SURFACE_SIDE_STYLE( '', ( #234 ) );
#154 = EDGE_LOOP( '', ( #235 ) );
#155 = EDGE_LOOP( '', ( #236 ) );
#156 = AXIS2_PLACEMENT_3D( '', #237, #238, #239 );
#157 = SURFACE_SIDE_STYLE( '', ( #240 ) );
#158 = EDGE_LOOP( '', ( #241, #242, #243, #244 ) );
#159 = AXIS2_PLACEMENT_3D( '', #245, #246, #247 );
#160 = SURFACE_SIDE_STYLE( '', ( #248 ) );
#161 = EDGE_LOOP( '', ( #249, #250, #251, #252 ) );
#162 = AXIS2_PLACEMENT_3D( '', #253, #254, #255 );
#163 = SURFACE_SIDE_STYLE( '', ( #256 ) );
#164 = EDGE_LOOP( '', ( #257 ) );
#165 = AXIS2_PLACEMENT_3D( '', #258, #259, #260 );
#166 = SURFACE_SIDE_STYLE( '', ( #261 ) );
#167 = EDGE_LOOP( '', ( #262 ) );
#168 = EDGE_LOOP( '', ( #263 ) );
#169 = AXIS2_PLACEMENT_3D( '', #264, #265, #266 );
#170 = SURFACE_SIDE_STYLE( '', ( #267 ) );
#171 = EDGE_LOOP( '', ( #268 ) );
#172 = EDGE_LOOP( '', ( #269 ) );
#173 = AXIS2_PLACEMENT_3D( '', #270, #271, #272 );
#175 = SURFACE_STYLE_FILL_AREA( #273 );
#176 = ORIENTED_EDGE( '', *, *, #274, .F. );
#177 = ORIENTED_EDGE( '', *, *, #275, .F. );
#178 = ORIENTED_EDGE( '', *, *, #276, .T. );
#179 = ORIENTED_EDGE( '', *, *, #277, .T. );
#180 = CARTESIAN_POINT( '', ( 11.7779454914684, 20.4000000000000, 23.0000000000000 ) );
#181 = DIRECTION( '', ( 0.000000000000000, -1.00000000000000, 0.000000000000000 ) );
#182 = DIRECTION( '', ( 0.000000000000000, 0.000000000000000, -1.00000000000000 ) );
#183 = SURFACE_STYLE_FILL_AREA( #278 );
#184 = ORIENTED_EDGE( '', *, *, #279, .F. );
#185 = ORIENTED_EDGE( '', *, *, #280, .F. );
#186 = ORIENTED_EDGE( '', *, *, #281, .T. );
#187 = ORIENTED_EDGE( '', *, *, #275, .T. );
#188 = CARTESIAN_POINT( '', ( 23.5558909829368, 1.42893147540495E-013, 23.0000000000000 ) );
#189 = DIRECTION( '', ( -0.866025403784438, -0.500000000000001, 0.000000000000000 ) );
#190 = DIRECTION( '', ( 0.500000000000001, -0.866025403784438, 0.000000000000000 ) );
#191 = SURFACE_STYLE_FILL_AREA( #282 );
#192 = ORIENTED_EDGE( '', *, *, #283, .F. );
#193 = CARTESIAN_POINT( '', ( 0.000000000000000, 0.000000000000000, 24.3118196769938 ) );
#194 = DIRECTION( '', ( 0.000000000000000, 0.000000000000000, 1.00000000000000 ) );
#195 = DIRECTION( '', ( 1.00000000000000, 0.000000000000000, 0.000000000000000 ) );
#196 = SURFACE_STYLE_FILL_AREA( #284 );
#197 = ORIENTED_EDGE( '', *, *, #276, .F. );
#198 = ORIENTED_EDGE( '', *, *, #281, .F. );
#199 = ORIENTED_EDGE( '', *, *, #285, .F. );
#200 = ORIENTED_EDGE( '', *, *, #286, .F. );
#201 = ORIENTED_EDGE( '', *, *, #287, .F. );
#202 = ORIENTED_EDGE( '', *, *, #288, .F. );
#203 = ORIENTED_EDGE( '', *, *, #289, .F. );
#204 = CARTESIAN_POINT( '', ( 0.000000000000000, 0.000000000000000, 23.0000000000000 ) );
#205 = DIRECTION( '', ( 0.000000000000000, 0.000000000000000, 1.00000000000000 ) );
#206 = DIRECTION( '', ( 1.00000000000000, 0.000000000000000, 0.000000000000000 ) );
#207 = SURFACE_STYLE_FILL_AREA( #290 );
#208 = ORIENTED_EDGE( '', *, *, #291, .F. );
#209 = ORIENTED_EDGE( '', *, *, #292, .F. );
#210 = ORIENTED_EDGE( '', *, *, #286, .T. );
#211 = ORIENTED_EDGE( '', *, *, #293, .T. );
#212 = CARTESIAN_POINT( '', ( -11.7779454914684, -20.4000000000000, 23.0000000000000 ) );
#213 = DIRECTION( '', ( 8.83714469845384E-016, 1.00000000000000, 0.000000000000000 ) );
#214 = DIRECTION( '', ( -1.00000000000000, 8.83714469845384E-016, 0.000000000000000 ) );
#215 = SURFACE_STYLE_FILL_AREA( #294 );
#216 = ORIENTED_EDGE( '', *, *, #295, .F. );
#217 = ORIENTED_EDGE( '', *, *, #274, .T. );
#218 = ORIENTED_EDGE( '', *, *, #296, .T. );
#219 = ORIENTED_EDGE( '', *, *, #297, .T. );
#220 = ORIENTED_EDGE( '', *, *, #291, .T. );
#221 = ORIENTED_EDGE( '', *, *, #298, .T. );
#222 = ORIENTED_EDGE( '', *, *, #279, .T. );
#223 = CARTESIAN_POINT( '', ( 4.56783902292183E-015, 0.000000000000000, 0.000000000000000 ) );
#224 = DIRECTION( '', ( 0.000000000000000, 0.000000000000000, 1.00000000000000 ) );
#225 = DIRECTION( '', ( 1.00000000000000, 0.000000000000000, 0.000000000000000 ) );
#226 = SURFACE_STYLE_FILL_AREA( #299 );
#227 = ORIENTED_EDGE( '', *, *, #298, .F. );
#228 = ORIENTED_EDGE( '', *, *, #293, .F. );
#229 = ORIENTED_EDGE( '', *, *, #285, .T. );
#230 = ORIENTED_EDGE( '', *, *, #280, .T. );
#231 = CARTESIAN_POINT( '', ( 11.7779454914684, -20.4000000000000, 23.0000000000000 ) );
#232 = DIRECTION( '', ( -0.866025403784438, 0.500000000000000, 0.000000000000000 ) );
#233 = DIRECTION( '', ( -0.500000000000000, -0.866025403784438, 0.000000000000000 ) );
#234 = SURFACE_STYLE_FILL_AREA( #300 );
#235 = ORIENTED_EDGE( '', *, *, #283, .T. );
#236 = ORIENTED_EDGE( '', *, *, #289, .T. );
#237 = CARTESIAN_POINT( '', ( 0.000000000000000, 0.000000000000000, 57.1500000000000 ) );
#238 = DIRECTION( '', ( -0.000000000000000, -0.000000000000000, -1.00000000000000 ) );
#239 = DIRECTION( '', ( 1.00000000000000, 0.000000000000000, 0.000000000000000 ) );
#240 = SURFACE_STYLE_FILL_AREA( #301 );
#241 = ORIENTED_EDGE( '', *, *, #297, .F. );
#242 = ORIENTED_EDGE( '', *, *, #302, .F. );
#243 = ORIENTED_EDGE( '', *, *, #287, .T. );
#244 = ORIENTED_EDGE( '', *, *, #292, .T. );
#245 = CARTESIAN_POINT( '', ( -23.5558909829368, 1.45777912189827E-013, 23.0000000000000 ) );
#246 = DIRECTION( '', ( 0.866025403784438, 0.500000000000000, 0.000000000000000 ) );
#247 = DIRECTION( '', ( -0.500000000000000, 0.866025403784438, 0.000000000000000 ) );
#248 = SURFACE_STYLE_FILL_AREA( #303 );
#249 = ORIENTED_EDGE( '', *, *, #296, .F. );
#250 = ORIENTED_EDGE( '', *, *, #277, .F. );
#251 = ORIENTED_EDGE( '', *, *, #288, .T. );
#252 = ORIENTED_EDGE( '', *, *, #302, .T. );
#253 = CARTESIAN_POINT( '', ( -11.7779454914684, 20.4000000000000, 23.0000000000000 ) );
#254 = DIRECTION( '', ( 0.866025403784438, -0.500000000000001, 0.000000000000000 ) );
#255 = DIRECTION( '', ( 0.500000000000001, 0.866025403784438, 0.000000000000000 ) );
#256 = SURFACE_STYLE_FILL_AREA( #304 );
#257 = ORIENTED_EDGE( '', *, *, #305, .T. );
#258 = CARTESIAN_POINT( '', ( 0.000000000000000, 0.000000000000000, 23.5000000000000 ) );
#259 = DIRECTION( '', ( 0.000000000000000, 0.000000000000000, 1.00000000000000 ) );
#260 = DIRECTION( '', ( 1.00000000000000, 0.000000000000000, 0.000000000000000 ) );
#261 = SURFACE_STYLE_FILL_AREA( #306 );
#262 = ORIENTED_EDGE( '', *, *, #307, .F. );
#263 = ORIENTED_EDGE( '', *, *, #295, .T. );
#264 = CARTESIAN_POINT( '', ( 0.000000000000000, 0.000000000000000, 57.1500000000000 ) );
#265 = DIRECTION( '', ( -0.000000000000000, -0.000000000000000, -1.00000000000000 ) );
#266 = DIRECTION( '', ( 1.00000000000000, 0.000000000000000, 0.000000000000000 ) );
#267 = SURFACE_STYLE_FILL_AREA( #308 );
#268 = ORIENTED_EDGE( '', *, *, #305, .F. );
#269 = ORIENTED_EDGE( '', *, *, #307, .T. );
#270 = CARTESIAN_POINT( '', ( 0.000000000000000, 0.000000000000000, 23.0000000000000 ) );
#271 = DIRECTION( '', ( -0.000000000000000, 0.000000000000000, -1.00000000000000 ) );
#272 = DIRECTION( '', ( -1.00000000000000, 0.000000000000000, 0.000000000000000 ) );
#273 = FILL_AREA_STYLE( '', ( #309 ) );
#274 = EDGE_CURVE( '', #310, #311, #312, .T. );
#275 = EDGE_CURVE( '', #313, #310, #314, .T. );
#276 = EDGE_CURVE( '', #313, #315, #316, .T. );
#277 = EDGE_CURVE( '', #315, #311, #317, .T. );
#278 = FILL_AREA_STYLE( '', ( #318 ) );
#279 = EDGE_CURVE( '', #319, #310, #320, .T. );
#280 = EDGE_CURVE( '', #321, #319, #322, .T. );
#281 = EDGE_CURVE( '', #321, #313, #323, .T. );
#282 = FILL_AREA_STYLE( '', ( #324 ) );
#283 = EDGE_CURVE( '', #325, #325, #326, .T. );
#284 = FILL_AREA_STYLE( '', ( #327 ) );
#285 = EDGE_CURVE( '', #328, #321, #329, .T. );
#286 = EDGE_CURVE( '', #330, #328, #331, .T. );
#287 = EDGE_CURVE( '', #332, #330, #333, .T. );
#288 = EDGE_CURVE( '', #315, #332, #334, .T. );
#289 = EDGE_CURVE( '', #335, #335, #336, .F. );
#290 = FILL_AREA_STYLE( '', ( #337 ) );
#291 = EDGE_CURVE( '', #338, #339, #340, .T. );
#292 = EDGE_CURVE( '', #330, #338, #341, .T. );
#293 = EDGE_CURVE( '', #328, #339, #342, .T. );
#294 = FILL_AREA_STYLE( '', ( #343 ) );
#295 = EDGE_CURVE( '', #344, #344, #345, .T. );
#296 = EDGE_CURVE( '', #311, #346, #347, .T. );
#297 = EDGE_CURVE( '', #346, #338, #348, .T. );
#298 = EDGE_CURVE( '', #339, #319, #349, .T. );
#299 = FILL_AREA_STYLE( '', ( #350 ) );
#300 = FILL_AREA_STYLE( '', ( #351 ) );
#301 = FILL_AREA_STYLE( '', ( #352 ) );
#302 = EDGE_CURVE( '', #332, #346, #353, .T. );
#303 = FILL_AREA_STYLE( '', ( #354 ) );
#304 = FILL_AREA_STYLE( '', ( #355 ) );
#305 = EDGE_CURVE( '', #356, #356, #357, .T. );
#306 = FILL_AREA_STYLE( '', ( #358 ) );
#307 = EDGE_CURVE( '', #359, #359, #360, .T. );
#308 = FILL_AREA_STYLE( '', ( #361 ) );
#309 = FILL_AREA_STYLE_COLOUR( '', #362 );
#310 = VERTEX_POINT( '', #363 );
#311 = VERTEX_POINT( '', #364 );
#312 = LINE( '', #365, #366 );
#313 = VERTEX_POINT( '', #367 );
#314 = LINE( '', #368, #369 );
#315 = VERTEX_POINT( '', #370 );
#316 = LINE( '', #371, #372 );
#317 = LINE( '', #373, #374 );
#318 = FILL_AREA_STYLE_COLOUR( '', #375 );
#319 = VERTEX_POINT( '', #376 );
#320 = LINE( '', #377, #378 );
#321 = VERTEX_POINT( '', #379 );
#322 = LINE( '', #380, #381 );
#323 = LINE( '', #382, #383 );
#324 = FILL_AREA_STYLE_COLOUR( '', #384 );
#325 = VERTEX_POINT( '', #385 );
#326 = CIRCLE( '', #386, 19.6881803230062 );
#327 = FILL_AREA_STYLE_COLOUR( '', #387 );
#328 = VERTEX_POINT( '', #388 );
#329 = LINE( '', #389, #390 );
#330 = VERTEX_POINT( '', #391 );
#331 = LINE( '', #392, #393 );
#332 = VERTEX_POINT( '', #394 );
#333 = LINE( '', #395, #396 );
#334 = LINE( '', #397, #398 );
#335 = VERTEX_POINT( '', #399 );
#336 = CIRCLE( '', #400, 19.6881803230062 );
#337 = FILL_AREA_STYLE_COLOUR( '', #401 );
#338 = VERTEX_POINT( '', #402 );
#339 = VERTEX_POINT( '', #403 );
#340 = LINE( '', #404, #405 );
#341 = LINE( '', #406, #407 );
#342 = LINE( '', #408, #409 );
#343 = FILL_AREA_STYLE_COLOUR( '', #410 );
#344 = VERTEX_POINT( '', #411 );
#345 = CIRCLE( '', #412, 25.0500000000000 );
#346 = VERTEX_POINT( '', #413 );
#347 = LINE( '', #414, #415 );
#348 = LINE( '', #416, #417 );
#349 = LINE( '', #418, #419 );
#350 = FILL_AREA_STYLE_COLOUR( '', #420 );
#351 = FILL_AREA_STYLE_COLOUR( '', #421 );
#352 = FILL_AREA_STYLE_COLOUR( '', #422 );
#353 = LINE( '', #423, #424 );
#354 = FILL_AREA_STYLE_COLOUR( '', #425 );
#355 = FILL_AREA_STYLE_COLOUR( '', #426 );
#356 = VERTEX_POINT( '', #427 );
#357 = CIRCLE( '', #428, 22.9438506878670 );
#358 = FILL_AREA_STYLE_COLOUR( '', #429 );
#359 = VERTEX_POINT( '', #430 );
#360 = CIRCLE( '', #431, 25.0500000000000 );
#361 = FILL_AREA_STYLE_COLOUR( '', #432 );
#362 = COLOUR_RGB( '', 0.200000002980232, 0.200000002980232, 0.200000002980232 );
#363 = CARTESIAN_POINT( '', ( 11.7779454914684, 20.4000000000000, 0.000000000000000 ) );
#364 = CARTESIAN_POINT( '', ( -11.7779454914684, 20.4000000000000, 0.000000000000000 ) );
#365 = CARTESIAN_POINT( '', ( 11.7779454914684, 20.4000000000000, 0.000000000000000 ) );
#366 = VECTOR( '', #433, 1000.00000000000 );
#367 = CARTESIAN_POINT( '', ( 11.7779454914684, 20.4000000000000, 23.0000000000000 ) );
#368 = CARTESIAN_POINT( '', ( 11.7779454914684, 20.4000000000000, 23.0000000000000 ) );
#369 = VECTOR( '', #434, 1000.00000000000 );
#370 = CARTESIAN_POINT( '', ( -11.7779454914684, 20.4000000000000, 23.0000000000000 ) );
#371 = CARTESIAN_POINT( '', ( 11.7779454914684, 20.4000000000000, 23.0000000000000 ) );
#372 = VECTOR( '', #435, 1000.00000000000 );
#373 = CARTESIAN_POINT( '', ( -11.7779454914684, 20.4000000000000, 23.0000000000000 ) );
#374 = VECTOR( '', #436, 1000.00000000000 );
#375 = COLOUR_RGB( '', 0.200000002980232, 0.200000002980232, 0.200000002980232 );
#376 = CARTESIAN_POINT( '', ( 23.5558909829368, 1.45716771982052E-013, 0.000000000000000 ) );
#377 = CARTESIAN_POINT( '', ( 23.5558909829368, 1.42893147540495E-013, 0.000000000000000 ) );
#378 = VECTOR( '', #437, 999.999999999999 );
#379 = CARTESIAN_POINT( '', ( 23.5558909829368, 1.45716771982052E-013, 23.0000000000000 ) );
#380 = CARTESIAN_POINT( '', ( 23.5558909829368, 1.45716771982052E-013, 23.0000000000000 ) );
#381 = VECTOR( '', #438, 1000.00000000000 );
#382 = CARTESIAN_POINT( '', ( 23.5558909829368, 1.42893147540495E-013, 23.0000000000000 ) );
#383 = VECTOR( '', #439, 999.999999999999 );
#384 = COLOUR_RGB( '', 0.200000002980232, 0.200000002980232, 0.200000002980232 );
#385 = CARTESIAN_POINT( '', ( 19.6881803230062, 0.000000000000000, 24.3118196769938 ) );
#386 = AXIS2_PLACEMENT_3D( '', #440, #441, #442 );
#387 = COLOUR_RGB( '', 0.200000002980232, 0.200000002980232, 0.200000002980232 );
#388 = CARTESIAN_POINT( '', ( 11.7779454914684, -20.4000000000000, 23.0000000000000 ) );
#389 = CARTESIAN_POINT( '', ( 11.7779454914684, -20.4000000000000, 23.0000000000000 ) );
#390 = VECTOR( '', #443, 1000.00000000000 );
#391 = CARTESIAN_POINT( '', ( -11.7779454914684, -20.4000000000000, 23.0000000000000 ) );
#392 = CARTESIAN_POINT( '', ( -11.7779454914684, -20.4000000000000, 23.0000000000000 ) );
#393 = VECTOR( '', #444, 1000.00000000000 );
#394 = CARTESIAN_POINT( '', ( -23.5558909829368, 1.45716771982052E-013, 23.0000000000000 ) );
#395 = CARTESIAN_POINT( '', ( -23.5558909829368, 1.45777912189827E-013, 23.0000000000000 ) );
#396 = VECTOR( '', #445, 999.999999999999 );
#397 = CARTESIAN_POINT( '', ( -11.7779454914684, 20.4000000000000, 23.0000000000000 ) );
#398 = VECTOR( '', #446, 999.999999999999 );
#399 = CARTESIAN_POINT( '', ( 19.6881803230062, 0.000000000000000, 23.0000000000000 ) );
#400 = AXIS2_PLACEMENT_3D( '', #447, #448, #449 );
#401 = COLOUR_RGB( '', 0.200000002980232, 0.200000002980232, 0.200000002980232 );
#402 = CARTESIAN_POINT( '', ( -11.7779454914684, -20.4000000000000, 0.000000000000000 ) );
#403 = CARTESIAN_POINT( '', ( 11.7779454914684, -20.4000000000000, 0.000000000000000 ) );
#404 = CARTESIAN_POINT( '', ( -11.7779454914684, -20.4000000000000, 0.000000000000000 ) );
#405 = VECTOR( '', #450, 1000.00000000000 );
#406 = CARTESIAN_POINT( '', ( -11.7779454914684, -20.4000000000000, 23.0000000000000 ) );
#407 = VECTOR( '', #451, 1000.00000000000 );
#408 = CARTESIAN_POINT( '', ( 11.7779454914684, -20.4000000000000, 23.0000000000000 ) );
#409 = VECTOR( '', #452, 1000.00000000000 );
#410 = COLOUR_RGB( '', 0.200000002980232, 0.200000002980232, 0.200000002980232 );
#411 = CARTESIAN_POINT( '', ( 25.0500000000000, 0.000000000000000, 0.000000000000000 ) );
#412 = AXIS2_PLACEMENT_3D( '', #453, #454, #455 );
#413 = CARTESIAN_POINT( '', ( -23.5558909829368, 1.45716771982052E-013, 0.000000000000000 ) );
#414 = CARTESIAN_POINT( '', ( -11.7779454914684, 20.4000000000000, 0.000000000000000 ) );
#415 = VECTOR( '', #456, 999.999999999999 );
#416 = CARTESIAN_POINT( '', ( -23.5558909829368, 1.45777912189827E-013, 0.000000000000000 ) );
#417 = VECTOR( '', #457, 999.999999999999 );
#418 = CARTESIAN_POINT( '', ( 11.7779454914684, -20.4000000000000, 0.000000000000000 ) );
#419 = VECTOR( '', #458, 1000.00000000000 );
#420 = COLOUR_RGB( '', 0.200000002980232, 0.200000002980232, 0.200000002980232 );
#421 = COLOUR_RGB( '', 0.200000002980232, 0.200000002980232, 0.200000002980232 );
#422 = COLOUR_RGB( '', 0.200000002980232, 0.200000002980232, 0.200000002980232 );
#423 = CARTESIAN_POINT( '', ( -23.5558909829368, 1.45716771982052E-013, 23.0000000000000 ) );
#424 = VECTOR( '', #459, 1000.00000000000 );
#425 = COLOUR_RGB( '', 0.200000002980232, 0.200000002980232, 0.200000002980232 );
#426 = COLOUR_RGB( '', 0.200000002980232, 0.200000002980232, 0.200000002980232 );
#427 = CARTESIAN_POINT( '', ( 22.9438506878670, 0.000000000000000, 25.1061493121330 ) );
#428 = AXIS2_PLACEMENT_3D( '', #460, #461, #462 );
#429 = COLOUR_RGB( '', 0.200000002980232, 0.200000002980232, 0.200000002980232 );
#430 = CARTESIAN_POINT( '', ( 25.0500000000000, 0.000000000000000, 23.0000000000000 ) );
#431 = AXIS2_PLACEMENT_3D( '', #463, #464, #465 );
#432 = COLOUR_RGB( '', 0.200000002980232, 0.200000002980232, 0.200000002980232 );
#433 = DIRECTION( '', ( -1.00000000000000, 0.000000000000000, 0.000000000000000 ) );
#434 = DIRECTION( '', ( 0.000000000000000, 0.000000000000000, -1.00000000000000 ) );
#435 = DIRECTION( '', ( -1.00000000000000, 0.000000000000000, 0.000000000000000 ) );
#436 = DIRECTION( '', ( 0.000000000000000, 0.000000000000000, -1.00000000000000 ) );
#437 = DIRECTION( '', ( -0.500000000000001, 0.866025403784438, 0.000000000000000 ) );
#438 = DIRECTION( '', ( 0.000000000000000, 0.000000000000000, -1.00000000000000 ) );
#439 = DIRECTION( '', ( -0.500000000000001, 0.866025403784438, 0.000000000000000 ) );
#440 = CARTESIAN_POINT( '', ( 0.000000000000000, 0.000000000000000, 24.3118196769938 ) );
#441 = DIRECTION( '', ( 0.000000000000000, 0.000000000000000, 1.00000000000000 ) );
#442 = DIRECTION( '', ( 1.00000000000000, 0.000000000000000, 0.000000000000000 ) );
#443 = DIRECTION( '', ( 0.500000000000000, 0.866025403784439, 0.000000000000000 ) );
#444 = DIRECTION( '', ( 1.00000000000000, -8.83714469845384E-016, 0.000000000000000 ) );
#445 = DIRECTION( '', ( 0.500000000000000, -0.866025403784438, 0.000000000000000 ) );
#446 = DIRECTION( '', ( -0.500000000000001, -0.866025403784438, 0.000000000000000 ) );
#447 = CARTESIAN_POINT( '', ( 0.000000000000000, 0.000000000000000, 23.0000000000000 ) );
#448 = DIRECTION( '', ( 0.000000000000000, 0.000000000000000, 1.00000000000000 ) );
#449 = DIRECTION( '', ( 1.00000000000000, 0.000000000000000, 0.000000000000000 ) );
#450 = DIRECTION( '', ( 1.00000000000000, -8.83714469845384E-016, 0.000000000000000 ) );
#451 = DIRECTION( '', ( 0.000000000000000, 0.000000000000000, -1.00000000000000 ) );
#452 = DIRECTION( '', ( 0.000000000000000, 0.000000000000000, -1.00000000000000 ) );
#453 = CARTESIAN_POINT( '', ( 0.000000000000000, 0.000000000000000, 0.000000000000000 ) );
#454 = DIRECTION( '', ( 0.000000000000000, 0.000000000000000, 1.00000000000000 ) );
#455 = DIRECTION( '', ( 1.00000000000000, 0.000000000000000, 0.000000000000000 ) );
#456 = DIRECTION( '', ( -0.500000000000001, -0.866025403784438, 0.000000000000000 ) );
#457 = DIRECTION( '', ( 0.500000000000000, -0.866025403784438, 0.000000000000000 ) );
#458 = DIRECTION( '', ( 0.500000000000000, 0.866025403784439, 0.000000000000000 ) );
#459 = DIRECTION( '', ( 0.000000000000000, 0.000000000000000, -1.00000000000000 ) );
#460 = CARTESIAN_POINT( '', ( 0.000000000000000, 0.000000000000000, 25.1061493121330 ) );
#461 = DIRECTION( '', ( 0.000000000000000, 0.000000000000000, 1.00000000000000 ) );
#462 = DIRECTION( '', ( 1.00000000000000, 0.000000000000000, 0.000000000000000 ) );
#463 = CARTESIAN_POINT( '', ( 0.000000000000000, 0.000000000000000, 23.0000000000000 ) );
#464 = DIRECTION( '', ( 0.000000000000000, 0.000000000000000, 1.00000000000000 ) );
#465 = DIRECTION( '', ( 1.00000000000000, 0.000000000000000, 0.000000000000000 ) );
ENDSEC;
END-ISO-10303-21;
