ISO-10303-21;
HEADER;
FILE_DESCRIPTION( ( 'Unknown' ), '1' );
FILE_NAME( '//SBS2003/HD_Usb/Disegni/08_LIB/Users_3D/PROD_GAMM_3D/CD/7371477_CD46.stp', 'Unknown', ( 'Unknown' ), ( 'Unknown' ), 'PSStep 14.0', 'Unknown', '  ' );
FILE_SCHEMA( ( 'AUTOMOTIVE_DESIGN { 1 0 10303 214 1 1 1 1 }' ) );
ENDSEC;
DATA;
#1 = MECHANICAL_DESIGN_GEOMETRIC_PRESENTATION_REPRESENTATION( ' ', ( #10, #11, #12, #13, #14, #15, #16, #17, #18, #19, #20, #21, #22 ), #6 );
#2 = PRODUCT_DEFINITION_CONTEXT( '', #23, 'design' );
#3 = APPLICATION_PROTOCOL_DEFINITION( 'international standard', 'automotive_design', 2001, #23 );
#4 = PRODUCT_CATEGORY_RELATIONSHIP( 'NONE', 'NONE', #24, #25 );
#5 = SHAPE_DEFINITION_REPRESENTATION( #26, #27 );
#6 =  ( GEOMETRIC_REPRESENTATION_CONTEXT( 3 )GLOBAL_UNCERTAINTY_ASSIGNED_CONTEXT( ( #30 ) )GLOBAL_UNIT_ASSIGNED_CONTEXT( ( #32, #33, #34 ) )REPRESENTATION_CONTEXT( 'NONE', 'WORKSPACE' ) );
#10 = STYLED_ITEM( '', ( #36 ), #37 );
#11 = STYLED_ITEM( '', ( #38 ), #39 );
#12 = STYLED_ITEM( '', ( #40 ), #41 );
#13 = STYLED_ITEM( '', ( #42 ), #43 );
#14 = STYLED_ITEM( '', ( #44 ), #45 );
#15 = STYLED_ITEM( '', ( #46 ), #47 );
#16 = STYLED_ITEM( '', ( #48 ), #49 );
#17 = STYLED_ITEM( '', ( #50 ), #51 );
#18 = STYLED_ITEM( '', ( #52 ), #53 );
#19 = STYLED_ITEM( '', ( #54 ), #55 );
#20 = STYLED_ITEM( '', ( #56 ), #57 );
#21 = STYLED_ITEM( '', ( #58 ), #59 );
#22 = STYLED_ITEM( '', ( #60 ), #61 );
#23 = APPLICATION_CONTEXT( 'core data for automotive mechanical design processes' );
#24 = PRODUCT_CATEGORY( 'part', 'NONE' );
#25 = PRODUCT_RELATED_PRODUCT_CATEGORY( 'detail', ' ', ( #62 ) );
#26 = PRODUCT_DEFINITION_SHAPE( 'NONE', 'NONE', #63 );
#27 = ADVANCED_BREP_SHAPE_REPRESENTATION( '1', ( #64, #65 ), #6 );
#30 = UNCERTAINTY_MEASURE_WITH_UNIT( LENGTH_MEASURE( 0.00100000000000000 ), #32, '', '' );
#32 =  ( CONVERSION_BASED_UNIT( 'MILLIMETRE', #68 )LENGTH_UNIT(  )NAMED_UNIT( #71 ) );
#33 =  ( NAMED_UNIT( #73 )PLANE_ANGLE_UNIT(  )SI_UNIT( $, .RADIAN. ) );
#34 =  ( NAMED_UNIT( #73 )SI_UNIT( $, .STERADIAN. )SOLID_ANGLE_UNIT(  ) );
#36 = PRESENTATION_STYLE_ASSIGNMENT( ( #79 ) );
#37 = ADVANCED_FACE( '', ( #80 ), #81, .T. );
#38 = PRESENTATION_STYLE_ASSIGNMENT( ( #82 ) );
#39 = ADVANCED_FACE( '', ( #83 ), #84, .T. );
#40 = PRESENTATION_STYLE_ASSIGNMENT( ( #85 ) );
#41 = ADVANCED_FACE( '', ( #86 ), #87, .T. );
#42 = PRESENTATION_STYLE_ASSIGNMENT( ( #88 ) );
#43 = ADVANCED_FACE( '', ( #89 ), #90, .T. );
#44 = PRESENTATION_STYLE_ASSIGNMENT( ( #91 ) );
#45 = ADVANCED_FACE( '', ( #92 ), #93, .T. );
#46 = PRESENTATION_STYLE_ASSIGNMENT( ( #94 ) );
#47 = ADVANCED_FACE( '', ( #95, #96 ), #97, .F. );
#48 = PRESENTATION_STYLE_ASSIGNMENT( ( #98 ) );
#49 = ADVANCED_FACE( '', ( #99 ), #100, .F. );
#50 = PRESENTATION_STYLE_ASSIGNMENT( ( #101 ) );
#51 = ADVANCED_FACE( '', ( #102, #103 ), #104, .T. );
#52 = PRESENTATION_STYLE_ASSIGNMENT( ( #105 ) );
#53 = ADVANCED_FACE( '', ( #106, #107 ), #108, .F. );
#54 = PRESENTATION_STYLE_ASSIGNMENT( ( #109 ) );
#55 = ADVANCED_FACE( '', ( #110, #111 ), #112, .F. );
#56 = PRESENTATION_STYLE_ASSIGNMENT( ( #113 ) );
#57 = ADVANCED_FACE( '', ( #114, #115 ), #116, .T. );
#58 = PRESENTATION_STYLE_ASSIGNMENT( ( #117 ) );
#59 = ADVANCED_FACE( '', ( #118 ), #119, .T. );
#60 = PRESENTATION_STYLE_ASSIGNMENT( ( #120 ) );
#61 = ADVANCED_FACE( '', ( #121 ), #122, .T. );
#62 = PRODUCT( '1', '1', 'PART-1-DESC', ( #123 ) );
#63 = PRODUCT_DEFINITION( 'NONE', 'NONE', #124, #2 );
#64 = MANIFOLD_SOLID_BREP( '1', #125 );
#65 = AXIS2_PLACEMENT_3D( '', #126, #127, #128 );
#68 = LENGTH_MEASURE_WITH_UNIT( LENGTH_MEASURE( 1.00000000000000 ), #129 );
#71 = DIMENSIONAL_EXPONENTS( 1.00000000000000, 0.000000000000000, 0.000000000000000, 0.000000000000000, 0.000000000000000, 0.000000000000000, 0.000000000000000 );
#73 = DIMENSIONAL_EXPONENTS( 0.000000000000000, 0.000000000000000, 0.000000000000000, 0.000000000000000, 0.000000000000000, 0.000000000000000, 0.000000000000000 );
#79 = SURFACE_STYLE_USAGE( .BOTH., #130 );
#80 = FACE_OUTER_BOUND( '', #131, .T. );
#81 = PLANE( '', #132 );
#82 = SURFACE_STYLE_USAGE( .BOTH., #133 );
#83 = FACE_OUTER_BOUND( '', #134, .T. );
#84 = PLANE( '', #135 );
#85 = SURFACE_STYLE_USAGE( .BOTH., #136 );
#86 = FACE_OUTER_BOUND( '', #137, .T. );
#87 = PLANE( '', #138 );
#88 = SURFACE_STYLE_USAGE( .BOTH., #139 );
#89 = FACE_OUTER_BOUND( '', #140, .T. );
#90 = PLANE( '', #141 );
#91 = SURFACE_STYLE_USAGE( .BOTH., #142 );
#92 = FACE_OUTER_BOUND( '', #143, .T. );
#93 = PLANE( '', #144 );
#94 = SURFACE_STYLE_USAGE( .BOTH., #145 );
#95 = FACE_OUTER_BOUND( '', #146, .T. );
#96 = FACE_BOUND( '', #147, .T. );
#97 = PLANE( '', #148 );
#98 = SURFACE_STYLE_USAGE( .BOTH., #149 );
#99 = FACE_OUTER_BOUND( '', #150, .T. );
#100 = SPHERICAL_SURFACE( '', #151, 21.1627027263240 );
#101 = SURFACE_STYLE_USAGE( .BOTH., #152 );
#102 = FACE_OUTER_BOUND( '', #153, .T. );
#103 = FACE_OUTER_BOUND( '', #154, .T. );
#104 = CYLINDRICAL_SURFACE( '', #155, 27.9500000000000 );
#105 = SURFACE_STYLE_USAGE( .BOTH., #156 );
#106 = FACE_OUTER_BOUND( '', #157, .T. );
#107 = FACE_BOUND( '', #158, .T. );
#108 = PLANE( '', #159 );
#109 = SURFACE_STYLE_USAGE( .BOTH., #160 );
#110 = FACE_OUTER_BOUND( '', #161, .T. );
#111 = FACE_OUTER_BOUND( '', #162, .T. );
#112 = CYLINDRICAL_SURFACE( '', #163, 21.1627027263240 );
#113 = SURFACE_STYLE_USAGE( .BOTH., #164 );
#114 = FACE_BOUND( '', #165, .T. );
#115 = FACE_OUTER_BOUND( '', #166, .T. );
#116 = CONICAL_SURFACE( '', #167, 27.9500000000000, 0.785398163397448 );
#117 = SURFACE_STYLE_USAGE( .BOTH., #168 );
#118 = FACE_OUTER_BOUND( '', #169, .T. );
#119 = PLANE( '', #170 );
#120 = SURFACE_STYLE_USAGE( .BOTH., #171 );
#121 = FACE_OUTER_BOUND( '', #172, .T. );
#122 = SPHERICAL_SURFACE( '', #173, 26.0000000000000 );
#123 = PRODUCT_CONTEXT( '', #23, 'mechanical' );
#124 = PRODUCT_DEFINITION_FORMATION_WITH_SPECIFIED_SOURCE( ' ', 'NONE', #62, .NOT_KNOWN. );
#125 = CLOSED_SHELL( '', ( #53, #47, #59, #41, #51, #37, #43, #45, #39, #55, #49, #61, #57 ) );
#126 = CARTESIAN_POINT( '', ( 0.000000000000000, 0.000000000000000, 0.000000000000000 ) );
#127 = DIRECTION( '', ( 0.000000000000000, 0.000000000000000, 1.00000000000000 ) );
#128 = DIRECTION( '', ( 1.00000000000000, 0.000000000000000, 0.000000000000000 ) );
#129 =  ( LENGTH_UNIT(  )NAMED_UNIT( #71 )SI_UNIT( .MILLI., .METRE. ) );
#130 = SURFACE_SIDE_STYLE( '', ( #175 ) );
#131 = EDGE_LOOP( '', ( #176, #177, #178, #179 ) );
#132 = AXIS2_PLACEMENT_3D( '', #180, #181, #182 );
#133 = SURFACE_SIDE_STYLE( '', ( #183 ) );
#134 = EDGE_LOOP( '', ( #184, #185, #186, #187 ) );
#135 = AXIS2_PLACEMENT_3D( '', #188, #189, #190 );
#136 = SURFACE_SIDE_STYLE( '', ( #191 ) );
#137 = EDGE_LOOP( '', ( #192, #193, #194, #195 ) );
#138 = AXIS2_PLACEMENT_3D( '', #196, #197, #198 );
#139 = SURFACE_SIDE_STYLE( '', ( #199 ) );
#140 = EDGE_LOOP( '', ( #200, #201, #202, #203 ) );
#141 = AXIS2_PLACEMENT_3D( '', #204, #205, #206 );
#142 = SURFACE_SIDE_STYLE( '', ( #207 ) );
#143 = EDGE_LOOP( '', ( #208, #209, #210, #211 ) );
#144 = AXIS2_PLACEMENT_3D( '', #212, #213, #214 );
#145 = SURFACE_SIDE_STYLE( '', ( #215 ) );
#146 = EDGE_LOOP( '', ( #216 ) );
#147 = EDGE_LOOP( '', ( #217, #218, #219, #220, #221, #222 ) );
#148 = AXIS2_PLACEMENT_3D( '', #223, #224, #225 );
#149 = SURFACE_SIDE_STYLE( '', ( #226 ) );
#150 = EDGE_LOOP( '', ( #227 ) );
#151 = AXIS2_PLACEMENT_3D( '', #228, #229, #230 );
#152 = SURFACE_SIDE_STYLE( '', ( #231 ) );
#153 = EDGE_LOOP( '', ( #232 ) );
#154 = EDGE_LOOP( '', ( #233 ) );
#155 = AXIS2_PLACEMENT_3D( '', #234, #235, #236 );
#156 = SURFACE_SIDE_STYLE( '', ( #237 ) );
#157 = EDGE_LOOP( '', ( #238, #239, #240, #241, #242, #243 ) );
#158 = EDGE_LOOP( '', ( #244 ) );
#159 = AXIS2_PLACEMENT_3D( '', #245, #246, #247 );
#160 = SURFACE_SIDE_STYLE( '', ( #248 ) );
#161 = EDGE_LOOP( '', ( #249 ) );
#162 = EDGE_LOOP( '', ( #250 ) );
#163 = AXIS2_PLACEMENT_3D( '', #251, #252, #253 );
#164 = SURFACE_SIDE_STYLE( '', ( #254 ) );
#165 = EDGE_LOOP( '', ( #255 ) );
#166 = EDGE_LOOP( '', ( #256 ) );
#167 = AXIS2_PLACEMENT_3D( '', #257, #258, #259 );
#168 = SURFACE_SIDE_STYLE( '', ( #260 ) );
#169 = EDGE_LOOP( '', ( #261, #262, #263, #264 ) );
#170 = AXIS2_PLACEMENT_3D( '', #265, #266, #267 );
#171 = SURFACE_SIDE_STYLE( '', ( #268 ) );
#172 = EDGE_LOOP( '', ( #269 ) );
#173 = AXIS2_PLACEMENT_3D( '', #270, #271, #272 );
#175 = SURFACE_STYLE_FILL_AREA( #273 );
#176 = ORIENTED_EDGE( '', *, *, #274, .F. );
#177 = ORIENTED_EDGE( '', *, *, #275, .F. );
#178 = ORIENTED_EDGE( '', *, *, #276, .T. );
#179 = ORIENTED_EDGE( '', *, *, #277, .T. );
#180 = CARTESIAN_POINT( '', ( 26.4426423288850, 1.67723611615750E-013, 25.0000000000000 ) );
#181 = DIRECTION( '', ( -0.866025403784438, -0.500000000000001, 0.000000000000000 ) );
#182 = DIRECTION( '', ( 0.500000000000001, -0.866025403784438, 0.000000000000000 ) );
#183 = SURFACE_STYLE_FILL_AREA( #278 );
#184 = ORIENTED_EDGE( '', *, *, #279, .F. );
#185 = ORIENTED_EDGE( '', *, *, #280, .F. );
#186 = ORIENTED_EDGE( '', *, *, #281, .T. );
#187 = ORIENTED_EDGE( '', *, *, #282, .T. );
#188 = CARTESIAN_POINT( '', ( -26.4426423288850, 1.70961901344656E-013, 25.0000000000000 ) );
#189 = DIRECTION( '', ( 0.866025403784438, 0.500000000000000, 0.000000000000000 ) );
#190 = DIRECTION( '', ( -0.500000000000000, 0.866025403784438, 0.000000000000000 ) );
#191 = SURFACE_STYLE_FILL_AREA( #283 );
#192 = ORIENTED_EDGE( '', *, *, #284, .F. );
#193 = ORIENTED_EDGE( '', *, *, #285, .F. );
#194 = ORIENTED_EDGE( '', *, *, #286, .T. );
#195 = ORIENTED_EDGE( '', *, *, #275, .T. );
#196 = CARTESIAN_POINT( '', ( 13.2213211644425, -22.9000000000000, 25.0000000000000 ) );
#197 = DIRECTION( '', ( -0.866025403784439, 0.500000000000000, 0.000000000000000 ) );
#198 = DIRECTION( '', ( -0.500000000000000, -0.866025403784439, 0.000000000000000 ) );
#199 = SURFACE_STYLE_FILL_AREA( #287 );
#200 = ORIENTED_EDGE( '', *, *, #288, .F. );
#201 = ORIENTED_EDGE( '', *, *, #277, .F. );
#202 = ORIENTED_EDGE( '', *, *, #289, .T. );
#203 = ORIENTED_EDGE( '', *, *, #290, .T. );
#204 = CARTESIAN_POINT( '', ( 13.2213211644425, 22.9000000000000, 25.0000000000000 ) );
#205 = DIRECTION( '', ( 0.000000000000000, -1.00000000000000, 0.000000000000000 ) );
#206 = DIRECTION( '', ( 0.000000000000000, 0.000000000000000, -1.00000000000000 ) );
#207 = SURFACE_STYLE_FILL_AREA( #291 );
#208 = ORIENTED_EDGE( '', *, *, #292, .F. );
#209 = ORIENTED_EDGE( '', *, *, #290, .F. );
#210 = ORIENTED_EDGE( '', *, *, #293, .T. );
#211 = ORIENTED_EDGE( '', *, *, #280, .T. );
#212 = CARTESIAN_POINT( '', ( -13.2213211644425, 22.9000000000000, 25.0000000000000 ) );
#213 = DIRECTION( '', ( 0.866025403784438, -0.500000000000001, 0.000000000000000 ) );
#214 = DIRECTION( '', ( 0.500000000000001, 0.866025403784438, 0.000000000000000 ) );
#215 = SURFACE_STYLE_FILL_AREA( #294 );
#216 = ORIENTED_EDGE( '', *, *, #295, .F. );
#217 = ORIENTED_EDGE( '', *, *, #288, .T. );
#218 = ORIENTED_EDGE( '', *, *, #292, .T. );
#219 = ORIENTED_EDGE( '', *, *, #279, .T. );
#220 = ORIENTED_EDGE( '', *, *, #296, .T. );
#221 = ORIENTED_EDGE( '', *, *, #284, .T. );
#222 = ORIENTED_EDGE( '', *, *, #274, .T. );
#223 = CARTESIAN_POINT( '', ( 6.30256249889864E-015, 0.000000000000000, 0.000000000000000 ) );
#224 = DIRECTION( '', ( 0.000000000000000, 0.000000000000000, 1.00000000000000 ) );
#225 = DIRECTION( '', ( 1.00000000000000, 0.000000000000000, 0.000000000000000 ) );
#226 = SURFACE_STYLE_FILL_AREA( #297 );
#227 = ORIENTED_EDGE( '', *, *, #298, .F. );
#228 = CARTESIAN_POINT( '', ( 0.000000000000000, 0.000000000000000, 27.8372972736761 ) );
#229 = DIRECTION( '', ( 0.000000000000000, 0.000000000000000, 1.00000000000000 ) );
#230 = DIRECTION( '', ( 1.00000000000000, 0.000000000000000, 0.000000000000000 ) );
#231 = SURFACE_STYLE_FILL_AREA( #299 );
#232 = ORIENTED_EDGE( '', *, *, #300, .F. );
#233 = ORIENTED_EDGE( '', *, *, #295, .T. );
#234 = CARTESIAN_POINT( '', ( 0.000000000000000, 0.000000000000000, 57.1500000000000 ) );
#235 = DIRECTION( '', ( -0.000000000000000, -0.000000000000000, -1.00000000000000 ) );
#236 = DIRECTION( '', ( 1.00000000000000, 0.000000000000000, 0.000000000000000 ) );
#237 = SURFACE_STYLE_FILL_AREA( #301 );
#238 = ORIENTED_EDGE( '', *, *, #289, .F. );
#239 = ORIENTED_EDGE( '', *, *, #276, .F. );
#240 = ORIENTED_EDGE( '', *, *, #286, .F. );
#241 = ORIENTED_EDGE( '', *, *, #302, .F. );
#242 = ORIENTED_EDGE( '', *, *, #281, .F. );
#243 = ORIENTED_EDGE( '', *, *, #293, .F. );
#244 = ORIENTED_EDGE( '', *, *, #303, .F. );
#245 = CARTESIAN_POINT( '', ( 0.000000000000000, 0.000000000000000, 25.0000000000000 ) );
#246 = DIRECTION( '', ( 0.000000000000000, 0.000000000000000, 1.00000000000000 ) );
#247 = DIRECTION( '', ( 1.00000000000000, 0.000000000000000, 0.000000000000000 ) );
#248 = SURFACE_STYLE_FILL_AREA( #304 );
#249 = ORIENTED_EDGE( '', *, *, #298, .T. );
#250 = ORIENTED_EDGE( '', *, *, #303, .T. );
#251 = CARTESIAN_POINT( '', ( 0.000000000000000, 0.000000000000000, 57.1500000000000 ) );
#252 = DIRECTION( '', ( -0.000000000000000, -0.000000000000000, -1.00000000000000 ) );
#253 = DIRECTION( '', ( 1.00000000000000, 0.000000000000000, 0.000000000000000 ) );
#254 = SURFACE_STYLE_FILL_AREA( #305 );
#255 = ORIENTED_EDGE( '', *, *, #306, .F. );
#256 = ORIENTED_EDGE( '', *, *, #300, .T. );
#257 = CARTESIAN_POINT( '', ( 0.000000000000000, 0.000000000000000, 25.0000000000000 ) );
#258 = DIRECTION( '', ( -0.000000000000000, 0.000000000000000, -1.00000000000000 ) );
#259 = DIRECTION( '', ( -1.00000000000000, 0.000000000000000, 0.000000000000000 ) );
#260 = SURFACE_STYLE_FILL_AREA( #307 );
#261 = ORIENTED_EDGE( '', *, *, #296, .F. );
#262 = ORIENTED_EDGE( '', *, *, #282, .F. );
#263 = ORIENTED_EDGE( '', *, *, #302, .T. );
#264 = ORIENTED_EDGE( '', *, *, #285, .T. );
#265 = CARTESIAN_POINT( '', ( -13.2213211644425, -22.9000000000000, 25.0000000000000 ) );
#266 = DIRECTION( '', ( 1.31206515173550E-015, 1.00000000000000, 0.000000000000000 ) );
#267 = DIRECTION( '', ( -1.00000000000000, 1.31206515173550E-015, 0.000000000000000 ) );
#268 = SURFACE_STYLE_FILL_AREA( #308 );
#269 = ORIENTED_EDGE( '', *, *, #306, .T. );
#270 = CARTESIAN_POINT( '', ( 0.000000000000000, 0.000000000000000, 25.5000000000000 ) );
#271 = DIRECTION( '', ( 0.000000000000000, 0.000000000000000, 1.00000000000000 ) );
#272 = DIRECTION( '', ( 1.00000000000000, 0.000000000000000, 0.000000000000000 ) );
#273 = FILL_AREA_STYLE( '', ( #309 ) );
#274 = EDGE_CURVE( '', #310, #311, #312, .T. );
#275 = EDGE_CURVE( '', #313, #310, #314, .T. );
#276 = EDGE_CURVE( '', #313, #315, #316, .T. );
#277 = EDGE_CURVE( '', #315, #311, #317, .T. );
#278 = FILL_AREA_STYLE( '', ( #318 ) );
#279 = EDGE_CURVE( '', #319, #320, #321, .T. );
#280 = EDGE_CURVE( '', #322, #319, #323, .T. );
#281 = EDGE_CURVE( '', #322, #324, #325, .T. );
#282 = EDGE_CURVE( '', #324, #320, #326, .T. );
#283 = FILL_AREA_STYLE( '', ( #327 ) );
#284 = EDGE_CURVE( '', #328, #310, #329, .T. );
#285 = EDGE_CURVE( '', #330, #328, #331, .T. );
#286 = EDGE_CURVE( '', #330, #313, #332, .T. );
#287 = FILL_AREA_STYLE( '', ( #333 ) );
#288 = EDGE_CURVE( '', #311, #334, #335, .T. );
#289 = EDGE_CURVE( '', #315, #336, #337, .T. );
#290 = EDGE_CURVE( '', #336, #334, #338, .T. );
#291 = FILL_AREA_STYLE( '', ( #339 ) );
#292 = EDGE_CURVE( '', #334, #319, #340, .T. );
#293 = EDGE_CURVE( '', #336, #322, #341, .T. );
#294 = FILL_AREA_STYLE( '', ( #342 ) );
#295 = EDGE_CURVE( '', #343, #343, #344, .T. );
#296 = EDGE_CURVE( '', #320, #328, #345, .T. );
#297 = FILL_AREA_STYLE( '', ( #346 ) );
#298 = EDGE_CURVE( '', #347, #347, #348, .T. );
#299 = FILL_AREA_STYLE( '', ( #349 ) );
#300 = EDGE_CURVE( '', #350, #350, #351, .T. );
#301 = FILL_AREA_STYLE( '', ( #352 ) );
#302 = EDGE_CURVE( '', #324, #330, #353, .T. );
#303 = EDGE_CURVE( '', #354, #354, #355, .F. );
#304 = FILL_AREA_STYLE( '', ( #356 ) );
#305 = FILL_AREA_STYLE( '', ( #357 ) );
#306 = EDGE_CURVE( '', #358, #358, #359, .T. );
#307 = FILL_AREA_STYLE( '', ( #360 ) );
#308 = FILL_AREA_STYLE( '', ( #361 ) );
#309 = FILL_AREA_STYLE_COLOUR( '', #362 );
#310 = VERTEX_POINT( '', #363 );
#311 = VERTEX_POINT( '', #364 );
#312 = LINE( '', #365, #366 );
#313 = VERTEX_POINT( '', #367 );
#314 = LINE( '', #368, #369 );
#315 = VERTEX_POINT( '', #370 );
#316 = LINE( '', #371, #372 );
#317 = LINE( '', #373, #374 );
#318 = FILL_AREA_STYLE_COLOUR( '', #375 );
#319 = VERTEX_POINT( '', #376 );
#320 = VERTEX_POINT( '', #377 );
#321 = LINE( '', #378, #379 );
#322 = VERTEX_POINT( '', #380 );
#323 = LINE( '', #381, #382 );
#324 = VERTEX_POINT( '', #383 );
#325 = LINE( '', #384, #385 );
#326 = LINE( '', #386, #387 );
#327 = FILL_AREA_STYLE_COLOUR( '', #388 );
#328 = VERTEX_POINT( '', #389 );
#329 = LINE( '', #390, #391 );
#330 = VERTEX_POINT( '', #392 );
#331 = LINE( '', #393, #394 );
#332 = LINE( '', #395, #396 );
#333 = FILL_AREA_STYLE_COLOUR( '', #397 );
#334 = VERTEX_POINT( '', #398 );
#335 = LINE( '', #399, #400 );
#336 = VERTEX_POINT( '', #401 );
#337 = LINE( '', #402, #403 );
#338 = LINE( '', #404, #405 );
#339 = FILL_AREA_STYLE_COLOUR( '', #406 );
#340 = LINE( '', #407, #408 );
#341 = LINE( '', #409, #410 );
#342 = FILL_AREA_STYLE_COLOUR( '', #411 );
#343 = VERTEX_POINT( '', #412 );
#344 = CIRCLE( '', #413, 27.9500000000000 );
#345 = LINE( '', #414, #415 );
#346 = FILL_AREA_STYLE_COLOUR( '', #416 );
#347 = VERTEX_POINT( '', #417 );
#348 = CIRCLE( '', #418, 21.1627027263240 );
#349 = FILL_AREA_STYLE_COLOUR( '', #419 );
#350 = VERTEX_POINT( '', #420 );
#351 = CIRCLE( '', #421, 27.9500000000000 );
#352 = FILL_AREA_STYLE_COLOUR( '', #422 );
#353 = LINE( '', #423, #424 );
#354 = VERTEX_POINT( '', #425 );
#355 = CIRCLE( '', #426, 21.1627027263240 );
#356 = FILL_AREA_STYLE_COLOUR( '', #427 );
#357 = FILL_AREA_STYLE_COLOUR( '', #428 );
#358 = VERTEX_POINT( '', #429 );
#359 = CIRCLE( '', #430, 25.9571042752259 );
#360 = FILL_AREA_STYLE_COLOUR( '', #431 );
#361 = FILL_AREA_STYLE_COLOUR( '', #432 );
#362 = COLOUR_RGB( '', 0.200000002980232, 0.200000002980232, 0.200000002980232 );
#363 = CARTESIAN_POINT( '', ( 26.4426423288850, 1.66533453693773E-013, 0.000000000000000 ) );
#364 = CARTESIAN_POINT( '', ( 13.2213211644425, 22.9000000000000, 0.000000000000000 ) );
#365 = CARTESIAN_POINT( '', ( 26.4426423288850, 1.67723611615750E-013, 0.000000000000000 ) );
#366 = VECTOR( '', #433, 999.999999999999 );
#367 = CARTESIAN_POINT( '', ( 26.4426423288850, 1.66533453693773E-013, 25.0000000000000 ) );
#368 = CARTESIAN_POINT( '', ( 26.4426423288850, 1.66533453693773E-013, 25.0000000000000 ) );
#369 = VECTOR( '', #434, 1000.00000000000 );
#370 = CARTESIAN_POINT( '', ( 13.2213211644425, 22.9000000000000, 25.0000000000000 ) );
#371 = CARTESIAN_POINT( '', ( 26.4426423288850, 1.67723611615750E-013, 25.0000000000000 ) );
#372 = VECTOR( '', #435, 999.999999999999 );
#373 = CARTESIAN_POINT( '', ( 13.2213211644425, 22.9000000000000, 25.0000000000000 ) );
#374 = VECTOR( '', #436, 1000.00000000000 );
#375 = COLOUR_RGB( '', 0.200000002980232, 0.200000002980232, 0.200000002980232 );
#376 = CARTESIAN_POINT( '', ( -26.4426423288850, 1.70002900645727E-013, 0.000000000000000 ) );
#377 = CARTESIAN_POINT( '', ( -13.2213211644425, -22.9000000000000, 0.000000000000000 ) );
#378 = CARTESIAN_POINT( '', ( -26.4426423288850, 1.70961901344656E-013, 0.000000000000000 ) );
#379 = VECTOR( '', #437, 999.999999999999 );
#380 = CARTESIAN_POINT( '', ( -26.4426423288850, 1.70002900645727E-013, 25.0000000000000 ) );
#381 = CARTESIAN_POINT( '', ( -26.4426423288850, 1.70002900645727E-013, 25.0000000000000 ) );
#382 = VECTOR( '', #438, 1000.00000000000 );
#383 = CARTESIAN_POINT( '', ( -13.2213211644425, -22.9000000000000, 25.0000000000000 ) );
#384 = CARTESIAN_POINT( '', ( -26.4426423288850, 1.70961901344656E-013, 25.0000000000000 ) );
#385 = VECTOR( '', #439, 999.999999999999 );
#386 = CARTESIAN_POINT( '', ( -13.2213211644425, -22.9000000000000, 25.0000000000000 ) );
#387 = VECTOR( '', #440, 1000.00000000000 );
#388 = COLOUR_RGB( '', 0.200000002980232, 0.200000002980232, 0.200000002980232 );
#389 = CARTESIAN_POINT( '', ( 13.2213211644425, -22.9000000000000, 0.000000000000000 ) );
#390 = CARTESIAN_POINT( '', ( 13.2213211644425, -22.9000000000000, 0.000000000000000 ) );
#391 = VECTOR( '', #441, 1000.00000000000 );
#392 = CARTESIAN_POINT( '', ( 13.2213211644425, -22.9000000000000, 25.0000000000000 ) );
#393 = CARTESIAN_POINT( '', ( 13.2213211644425, -22.9000000000000, 25.0000000000000 ) );
#394 = VECTOR( '', #442, 1000.00000000000 );
#395 = CARTESIAN_POINT( '', ( 13.2213211644425, -22.9000000000000, 25.0000000000000 ) );
#396 = VECTOR( '', #443, 1000.00000000000 );
#397 = COLOUR_RGB( '', 0.200000002980232, 0.200000002980232, 0.200000002980232 );
#398 = CARTESIAN_POINT( '', ( -13.2213211644425, 22.9000000000000, 0.000000000000000 ) );
#399 = CARTESIAN_POINT( '', ( 13.2213211644425, 22.9000000000000, 0.000000000000000 ) );
#400 = VECTOR( '', #444, 1000.00000000000 );
#401 = CARTESIAN_POINT( '', ( -13.2213211644425, 22.9000000000000, 25.0000000000000 ) );
#402 = CARTESIAN_POINT( '', ( 13.2213211644425, 22.9000000000000, 25.0000000000000 ) );
#403 = VECTOR( '', #445, 1000.00000000000 );
#404 = CARTESIAN_POINT( '', ( -13.2213211644425, 22.9000000000000, 25.0000000000000 ) );
#405 = VECTOR( '', #446, 1000.00000000000 );
#406 = COLOUR_RGB( '', 0.200000002980232, 0.200000002980232, 0.200000002980232 );
#407 = CARTESIAN_POINT( '', ( -13.2213211644425, 22.9000000000000, 0.000000000000000 ) );
#408 = VECTOR( '', #447, 999.999999999998 );
#409 = CARTESIAN_POINT( '', ( -13.2213211644425, 22.9000000000000, 25.0000000000000 ) );
#410 = VECTOR( '', #448, 999.999999999998 );
#411 = COLOUR_RGB( '', 0.200000002980232, 0.200000002980232, 0.200000002980232 );
#412 = CARTESIAN_POINT( '', ( 27.9500000000000, 0.000000000000000, 0.000000000000000 ) );
#413 = AXIS2_PLACEMENT_3D( '', #449, #450, #451 );
#414 = CARTESIAN_POINT( '', ( -13.2213211644425, -22.9000000000000, 0.000000000000000 ) );
#415 = VECTOR( '', #452, 1000.00000000000 );
#416 = COLOUR_RGB( '', 0.200000002980232, 0.200000002980232, 0.200000002980232 );
#417 = CARTESIAN_POINT( '', ( 21.1627027263240, 0.000000000000000, 27.8372972736761 ) );
#418 = AXIS2_PLACEMENT_3D( '', #453, #454, #455 );
#419 = COLOUR_RGB( '', 0.200000002980232, 0.200000002980232, 0.200000002980232 );
#420 = CARTESIAN_POINT( '', ( 27.9500000000000, 0.000000000000000, 25.0000000000000 ) );
#421 = AXIS2_PLACEMENT_3D( '', #456, #457, #458 );
#422 = COLOUR_RGB( '', 0.200000002980232, 0.200000002980232, 0.200000002980232 );
#423 = CARTESIAN_POINT( '', ( -13.2213211644425, -22.9000000000000, 25.0000000000000 ) );
#424 = VECTOR( '', #459, 1000.00000000000 );
#425 = CARTESIAN_POINT( '', ( 21.1627027263240, 0.000000000000000, 25.0000000000000 ) );
#426 = AXIS2_PLACEMENT_3D( '', #460, #461, #462 );
#427 = COLOUR_RGB( '', 0.200000002980232, 0.200000002980232, 0.200000002980232 );
#428 = COLOUR_RGB( '', 0.200000002980232, 0.200000002980232, 0.200000002980232 );
#429 = CARTESIAN_POINT( '', ( 25.9571042752259, 0.000000000000000, 26.9928957247741 ) );
#430 = AXIS2_PLACEMENT_3D( '', #463, #464, #465 );
#431 = COLOUR_RGB( '', 0.200000002980232, 0.200000002980232, 0.200000002980232 );
#432 = COLOUR_RGB( '', 0.200000002980232, 0.200000002980232, 0.200000002980232 );
#433 = DIRECTION( '', ( -0.500000000000001, 0.866025403784438, 0.000000000000000 ) );
#434 = DIRECTION( '', ( 0.000000000000000, 0.000000000000000, -1.00000000000000 ) );
#435 = DIRECTION( '', ( -0.500000000000001, 0.866025403784438, 0.000000000000000 ) );
#436 = DIRECTION( '', ( 0.000000000000000, 0.000000000000000, -1.00000000000000 ) );
#437 = DIRECTION( '', ( 0.500000000000000, -0.866025403784438, 0.000000000000000 ) );
#438 = DIRECTION( '', ( 0.000000000000000, 0.000000000000000, -1.00000000000000 ) );
#439 = DIRECTION( '', ( 0.500000000000000, -0.866025403784438, 0.000000000000000 ) );
#440 = DIRECTION( '', ( 0.000000000000000, 0.000000000000000, -1.00000000000000 ) );
#441 = DIRECTION( '', ( 0.500000000000000, 0.866025403784439, 0.000000000000000 ) );
#442 = DIRECTION( '', ( 0.000000000000000, 0.000000000000000, -1.00000000000000 ) );
#443 = DIRECTION( '', ( 0.500000000000000, 0.866025403784439, 0.000000000000000 ) );
#444 = DIRECTION( '', ( -1.00000000000000, 0.000000000000000, 0.000000000000000 ) );
#445 = DIRECTION( '', ( -1.00000000000000, 0.000000000000000, 0.000000000000000 ) );
#446 = DIRECTION( '', ( 0.000000000000000, 0.000000000000000, -1.00000000000000 ) );
#447 = DIRECTION( '', ( -0.500000000000001, -0.866025403784438, 0.000000000000000 ) );
#448 = DIRECTION( '', ( -0.500000000000001, -0.866025403784438, 0.000000000000000 ) );
#449 = CARTESIAN_POINT( '', ( 0.000000000000000, 0.000000000000000, 0.000000000000000 ) );
#450 = DIRECTION( '', ( 0.000000000000000, 0.000000000000000, 1.00000000000000 ) );
#451 = DIRECTION( '', ( 1.00000000000000, 0.000000000000000, 0.000000000000000 ) );
#452 = DIRECTION( '', ( 1.00000000000000, -1.31206515173550E-015, 0.000000000000000 ) );
#453 = CARTESIAN_POINT( '', ( 0.000000000000000, 0.000000000000000, 27.8372972736761 ) );
#454 = DIRECTION( '', ( 0.000000000000000, 0.000000000000000, 1.00000000000000 ) );
#455 = DIRECTION( '', ( 1.00000000000000, 0.000000000000000, 0.000000000000000 ) );
#456 = CARTESIAN_POINT( '', ( 0.000000000000000, 0.000000000000000, 25.0000000000000 ) );
#457 = DIRECTION( '', ( 0.000000000000000, 0.000000000000000, 1.00000000000000 ) );
#458 = DIRECTION( '', ( 1.00000000000000, 0.000000000000000, 0.000000000000000 ) );
#459 = DIRECTION( '', ( 1.00000000000000, -1.31206515173550E-015, 0.000000000000000 ) );
#460 = CARTESIAN_POINT( '', ( 0.000000000000000, 0.000000000000000, 25.0000000000000 ) );
#461 = DIRECTION( '', ( 0.000000000000000, 0.000000000000000, 1.00000000000000 ) );
#462 = DIRECTION( '', ( 1.00000000000000, 0.000000000000000, 0.000000000000000 ) );
#463 = CARTESIAN_POINT( '', ( 0.000000000000000, 0.000000000000000, 26.9928957247741 ) );
#464 = DIRECTION( '', ( 0.000000000000000, 0.000000000000000, 1.00000000000000 ) );
#465 = DIRECTION( '', ( 1.00000000000000, 0.000000000000000, 0.000000000000000 ) );
ENDSEC;
END-ISO-10303-21;
