ISO-10303-21;
HEADER;
FILE_DESCRIPTION( ( 'Unknown' ), '1' );
FILE_NAME( '//SBS2003/HD_Usb/Disegni/08_LIB/Users_3D/PROD_GAMM_3D/CD/7371481_CD55.stp', 'Unknown', ( 'Unknown' ), ( 'Unknown' ), 'PSStep 14.0', 'Unknown', '  ' );
FILE_SCHEMA( ( 'AUTOMOTIVE_DESIGN { 1 0 10303 214 1 1 1 1 }' ) );
ENDSEC;
DATA;
#1 = MECHANICAL_DESIGN_GEOMETRIC_PRESENTATION_REPRESENTATION( ' ', ( #10, #11, #12, #13, #14, #15, #16, #17, #18, #19, #20, #21, #22 ), #6 );
#2 = PRODUCT_DEFINITION_CONTEXT( '', #23, 'design' );
#3 = APPLICATION_PROTOCOL_DEFINITION( 'international standard', 'automotive_design', 2001, #23 );
#4 = PRODUCT_CATEGORY_RELATIONSHIP( 'NONE', 'NONE', #24, #25 );
#5 = SHAPE_DEFINITION_REPRESENTATION( #26, #27 );
#6 =  ( GEOMETRIC_REPRESENTATION_CONTEXT( 3 )GLOBAL_UNCERTAINTY_ASSIGNED_CONTEXT( ( #30 ) )GLOBAL_UNIT_ASSIGNED_CONTEXT( ( #32, #33, #34 ) )REPRESENTATION_CONTEXT( 'NONE', 'WORKSPACE' ) );
#10 = STYLED_ITEM( '', ( #36 ), #37 );
#11 = STYLED_ITEM( '', ( #38 ), #39 );
#12 = STYLED_ITEM( '', ( #40 ), #41 );
#13 = STYLED_ITEM( '', ( #42 ), #43 );
#14 = STYLED_ITEM( '', ( #44 ), #45 );
#15 = STYLED_ITEM( '', ( #46 ), #47 );
#16 = STYLED_ITEM( '', ( #48 ), #49 );
#17 = STYLED_ITEM( '', ( #50 ), #51 );
#18 = STYLED_ITEM( '', ( #52 ), #53 );
#19 = STYLED_ITEM( '', ( #54 ), #55 );
#20 = STYLED_ITEM( '', ( #56 ), #57 );
#21 = STYLED_ITEM( '', ( #58 ), #59 );
#22 = STYLED_ITEM( '', ( #60 ), #61 );
#23 = APPLICATION_CONTEXT( 'core data for automotive mechanical design processes' );
#24 = PRODUCT_CATEGORY( 'part', 'NONE' );
#25 = PRODUCT_RELATED_PRODUCT_CATEGORY( 'detail', ' ', ( #62 ) );
#26 = PRODUCT_DEFINITION_SHAPE( 'NONE', 'NONE', #63 );
#27 = ADVANCED_BREP_SHAPE_REPRESENTATION( '1', ( #64, #65 ), #6 );
#30 = UNCERTAINTY_MEASURE_WITH_UNIT( LENGTH_MEASURE( 0.00100000000000000 ), #32, '', '' );
#32 =  ( CONVERSION_BASED_UNIT( 'MILLIMETRE', #68 )LENGTH_UNIT(  )NAMED_UNIT( #71 ) );
#33 =  ( NAMED_UNIT( #73 )PLANE_ANGLE_UNIT(  )SI_UNIT( $, .RADIAN. ) );
#34 =  ( NAMED_UNIT( #73 )SI_UNIT( $, .STERADIAN. )SOLID_ANGLE_UNIT(  ) );
#36 = PRESENTATION_STYLE_ASSIGNMENT( ( #79 ) );
#37 = ADVANCED_FACE( '', ( #80, #81 ), #82, .T. );
#38 = PRESENTATION_STYLE_ASSIGNMENT( ( #83 ) );
#39 = ADVANCED_FACE( '', ( #84 ), #85, .T. );
#40 = PRESENTATION_STYLE_ASSIGNMENT( ( #86 ) );
#41 = ADVANCED_FACE( '', ( #87, #88 ), #89, .T. );
#42 = PRESENTATION_STYLE_ASSIGNMENT( ( #90 ) );
#43 = ADVANCED_FACE( '', ( #91, #92 ), #93, .F. );
#44 = PRESENTATION_STYLE_ASSIGNMENT( ( #94 ) );
#45 = ADVANCED_FACE( '', ( #95 ), #96, .T. );
#46 = PRESENTATION_STYLE_ASSIGNMENT( ( #97 ) );
#47 = ADVANCED_FACE( '', ( #98, #99 ), #100, .F. );
#48 = PRESENTATION_STYLE_ASSIGNMENT( ( #101 ) );
#49 = ADVANCED_FACE( '', ( #102 ), #103, .F. );
#50 = PRESENTATION_STYLE_ASSIGNMENT( ( #104 ) );
#51 = ADVANCED_FACE( '', ( #105 ), #106, .T. );
#52 = PRESENTATION_STYLE_ASSIGNMENT( ( #107 ) );
#53 = ADVANCED_FACE( '', ( #108 ), #109, .T. );
#54 = PRESENTATION_STYLE_ASSIGNMENT( ( #110 ) );
#55 = ADVANCED_FACE( '', ( #111 ), #112, .T. );
#56 = PRESENTATION_STYLE_ASSIGNMENT( ( #113 ) );
#57 = ADVANCED_FACE( '', ( #114, #115 ), #116, .F. );
#58 = PRESENTATION_STYLE_ASSIGNMENT( ( #117 ) );
#59 = ADVANCED_FACE( '', ( #118 ), #119, .T. );
#60 = PRESENTATION_STYLE_ASSIGNMENT( ( #120 ) );
#61 = ADVANCED_FACE( '', ( #121 ), #122, .T. );
#62 = PRODUCT( '1', '1', 'PART-1-DESC', ( #123 ) );
#63 = PRODUCT_DEFINITION( 'NONE', 'NONE', #124, #2 );
#64 = MANIFOLD_SOLID_BREP( '1', #125 );
#65 = AXIS2_PLACEMENT_3D( '', #126, #127, #128 );
#68 = LENGTH_MEASURE_WITH_UNIT( LENGTH_MEASURE( 1.00000000000000 ), #129 );
#71 = DIMENSIONAL_EXPONENTS( 1.00000000000000, 0.000000000000000, 0.000000000000000, 0.000000000000000, 0.000000000000000, 0.000000000000000, 0.000000000000000 );
#73 = DIMENSIONAL_EXPONENTS( 0.000000000000000, 0.000000000000000, 0.000000000000000, 0.000000000000000, 0.000000000000000, 0.000000000000000, 0.000000000000000 );
#79 = SURFACE_STYLE_USAGE( .BOTH., #130 );
#80 = FACE_OUTER_BOUND( '', #131, .T. );
#81 = FACE_OUTER_BOUND( '', #132, .T. );
#82 = CYLINDRICAL_SURFACE( '', #133, 33.5000000000000 );
#83 = SURFACE_STYLE_USAGE( .BOTH., #134 );
#84 = FACE_OUTER_BOUND( '', #135, .T. );
#85 = SPHERICAL_SURFACE( '', #136, 30.0000000000000 );
#86 = SURFACE_STYLE_USAGE( .BOTH., #137 );
#87 = FACE_BOUND( '', #138, .T. );
#88 = FACE_OUTER_BOUND( '', #139, .T. );
#89 = CONICAL_SURFACE( '', #140, 33.5000000000000, 0.785398163397448 );
#90 = SURFACE_STYLE_USAGE( .BOTH., #141 );
#91 = FACE_OUTER_BOUND( '', #142, .T. );
#92 = FACE_OUTER_BOUND( '', #143, .T. );
#93 = CYLINDRICAL_SURFACE( '', #144, 25.3093043865030 );
#94 = SURFACE_STYLE_USAGE( .BOTH., #145 );
#95 = FACE_OUTER_BOUND( '', #146, .T. );
#96 = PLANE( '', #147 );
#97 = SURFACE_STYLE_USAGE( .BOTH., #148 );
#98 = FACE_OUTER_BOUND( '', #149, .T. );
#99 = FACE_BOUND( '', #150, .T. );
#100 = PLANE( '', #151 );
#101 = SURFACE_STYLE_USAGE( .BOTH., #152 );
#102 = FACE_OUTER_BOUND( '', #153, .T. );
#103 = SPHERICAL_SURFACE( '', #154, 25.3093043865030 );
#104 = SURFACE_STYLE_USAGE( .BOTH., #155 );
#105 = FACE_OUTER_BOUND( '', #156, .T. );
#106 = PLANE( '', #157 );
#107 = SURFACE_STYLE_USAGE( .BOTH., #158 );
#108 = FACE_OUTER_BOUND( '', #159, .T. );
#109 = PLANE( '', #160 );
#110 = SURFACE_STYLE_USAGE( .BOTH., #161 );
#111 = FACE_OUTER_BOUND( '', #162, .T. );
#112 = PLANE( '', #163 );
#113 = SURFACE_STYLE_USAGE( .BOTH., #164 );
#114 = FACE_OUTER_BOUND( '', #165, .T. );
#115 = FACE_BOUND( '', #166, .T. );
#116 = PLANE( '', #167 );
#117 = SURFACE_STYLE_USAGE( .BOTH., #168 );
#118 = FACE_OUTER_BOUND( '', #169, .T. );
#119 = PLANE( '', #170 );
#120 = SURFACE_STYLE_USAGE( .BOTH., #171 );
#121 = FACE_OUTER_BOUND( '', #172, .T. );
#122 = PLANE( '', #173 );
#123 = PRODUCT_CONTEXT( '', #23, 'mechanical' );
#124 = PRODUCT_DEFINITION_FORMATION_WITH_SPECIFIED_SOURCE( ' ', 'NONE', #62, .NOT_KNOWN. );
#125 = CLOSED_SHELL( '', ( #57, #47, #45, #55, #37, #61, #53, #51, #59, #43, #49, #39, #41 ) );
#126 = CARTESIAN_POINT( '', ( 0.000000000000000, 0.000000000000000, 0.000000000000000 ) );
#127 = DIRECTION( '', ( 0.000000000000000, 0.000000000000000, 1.00000000000000 ) );
#128 = DIRECTION( '', ( 1.00000000000000, 0.000000000000000, 0.000000000000000 ) );
#129 =  ( LENGTH_UNIT(  )NAMED_UNIT( #71 )SI_UNIT( .MILLI., .METRE. ) );
#130 = SURFACE_SIDE_STYLE( '', ( #175 ) );
#131 = EDGE_LOOP( '', ( #176 ) );
#132 = EDGE_LOOP( '', ( #177 ) );
#133 = AXIS2_PLACEMENT_3D( '', #178, #179, #180 );
#134 = SURFACE_SIDE_STYLE( '', ( #181 ) );
#135 = EDGE_LOOP( '', ( #182 ) );
#136 = AXIS2_PLACEMENT_3D( '', #183, #184, #185 );
#137 = SURFACE_SIDE_STYLE( '', ( #186 ) );
#138 = EDGE_LOOP( '', ( #187 ) );
#139 = EDGE_LOOP( '', ( #188 ) );
#140 = AXIS2_PLACEMENT_3D( '', #189, #190, #191 );
#141 = SURFACE_SIDE_STYLE( '', ( #192 ) );
#142 = EDGE_LOOP( '', ( #193 ) );
#143 = EDGE_LOOP( '', ( #194 ) );
#144 = AXIS2_PLACEMENT_3D( '', #195, #196, #197 );
#145 = SURFACE_SIDE_STYLE( '', ( #198 ) );
#146 = EDGE_LOOP( '', ( #199, #200, #201, #202 ) );
#147 = AXIS2_PLACEMENT_3D( '', #203, #204, #205 );
#148 = SURFACE_SIDE_STYLE( '', ( #206 ) );
#149 = EDGE_LOOP( '', ( #207 ) );
#150 = EDGE_LOOP( '', ( #208, #209, #210, #211, #212, #213 ) );
#151 = AXIS2_PLACEMENT_3D( '', #214, #215, #216 );
#152 = SURFACE_SIDE_STYLE( '', ( #217 ) );
#153 = EDGE_LOOP( '', ( #218 ) );
#154 = AXIS2_PLACEMENT_3D( '', #219, #220, #221 );
#155 = SURFACE_SIDE_STYLE( '', ( #222 ) );
#156 = EDGE_LOOP( '', ( #223, #224, #225, #226 ) );
#157 = AXIS2_PLACEMENT_3D( '', #227, #228, #229 );
#158 = SURFACE_SIDE_STYLE( '', ( #230 ) );
#159 = EDGE_LOOP( '', ( #231, #232, #233, #234 ) );
#160 = AXIS2_PLACEMENT_3D( '', #235, #236, #237 );
#161 = SURFACE_SIDE_STYLE( '', ( #238 ) );
#162 = EDGE_LOOP( '', ( #239, #240, #241, #242 ) );
#163 = AXIS2_PLACEMENT_3D( '', #243, #244, #245 );
#164 = SURFACE_SIDE_STYLE( '', ( #246 ) );
#165 = EDGE_LOOP( '', ( #247, #248, #249, #250, #251, #252 ) );
#166 = EDGE_LOOP( '', ( #253 ) );
#167 = AXIS2_PLACEMENT_3D( '', #254, #255, #256 );
#168 = SURFACE_SIDE_STYLE( '', ( #257 ) );
#169 = EDGE_LOOP( '', ( #258, #259, #260, #261 ) );
#170 = AXIS2_PLACEMENT_3D( '', #262, #263, #264 );
#171 = SURFACE_SIDE_STYLE( '', ( #265 ) );
#172 = EDGE_LOOP( '', ( #266, #267, #268, #269 ) );
#173 = AXIS2_PLACEMENT_3D( '', #270, #271, #272 );
#175 = SURFACE_STYLE_FILL_AREA( #273 );
#176 = ORIENTED_EDGE( '', *, *, #274, .F. );
#177 = ORIENTED_EDGE( '', *, *, #275, .T. );
#178 = CARTESIAN_POINT( '', ( 0.000000000000000, 0.000000000000000, 57.1500000000000 ) );
#179 = DIRECTION( '', ( -0.000000000000000, -0.000000000000000, -1.00000000000000 ) );
#180 = DIRECTION( '', ( 1.00000000000000, 0.000000000000000, 0.000000000000000 ) );
#181 = SURFACE_STYLE_FILL_AREA( #276 );
#182 = ORIENTED_EDGE( '', *, *, #277, .T. );
#183 = CARTESIAN_POINT( '', ( 0.000000000000000, 0.000000000000000, 29.5000000000000 ) );
#184 = DIRECTION( '', ( 0.000000000000000, 0.000000000000000, 1.00000000000000 ) );
#185 = DIRECTION( '', ( 1.00000000000000, 0.000000000000000, 0.000000000000000 ) );
#186 = SURFACE_STYLE_FILL_AREA( #278 );
#187 = ORIENTED_EDGE( '', *, *, #277, .F. );
#188 = ORIENTED_EDGE( '', *, *, #274, .T. );
#189 = CARTESIAN_POINT( '', ( 0.000000000000000, 0.000000000000000, 30.0000000000000 ) );
#190 = DIRECTION( '', ( -0.000000000000000, 0.000000000000000, -1.00000000000000 ) );
#191 = DIRECTION( '', ( -1.00000000000000, 0.000000000000000, 0.000000000000000 ) );
#192 = SURFACE_STYLE_FILL_AREA( #279 );
#193 = ORIENTED_EDGE( '', *, *, #280, .T. );
#194 = ORIENTED_EDGE( '', *, *, #281, .T. );
#195 = CARTESIAN_POINT( '', ( 0.000000000000000, 0.000000000000000, 57.1500000000000 ) );
#196 = DIRECTION( '', ( -0.000000000000000, -0.000000000000000, -1.00000000000000 ) );
#197 = DIRECTION( '', ( 1.00000000000000, 0.000000000000000, 0.000000000000000 ) );
#198 = SURFACE_STYLE_FILL_AREA( #282 );
#199 = ORIENTED_EDGE( '', *, *, #283, .F. );
#200 = ORIENTED_EDGE( '', *, *, #284, .F. );
#201 = ORIENTED_EDGE( '', *, *, #285, .T. );
#202 = ORIENTED_EDGE( '', *, *, #286, .T. );
#203 = CARTESIAN_POINT( '', ( -15.8193973757958, -27.4000000000000, 30.0000000000000 ) );
#204 = DIRECTION( '', ( 8.77263999262570E-016, 1.00000000000000, 0.000000000000000 ) );
#205 = DIRECTION( '', ( -1.00000000000000, 8.77263999262570E-016, 0.000000000000000 ) );
#206 = SURFACE_STYLE_FILL_AREA( #287 );
#207 = ORIENTED_EDGE( '', *, *, #275, .F. );
#208 = ORIENTED_EDGE( '', *, *, #288, .T. );
#209 = ORIENTED_EDGE( '', *, *, #289, .T. );
#210 = ORIENTED_EDGE( '', *, *, #290, .T. );
#211 = ORIENTED_EDGE( '', *, *, #283, .T. );
#212 = ORIENTED_EDGE( '', *, *, #291, .T. );
#213 = ORIENTED_EDGE( '', *, *, #292, .T. );
#214 = CARTESIAN_POINT( '', ( 6.30256249889864E-015, 0.000000000000000, 0.000000000000000 ) );
#215 = DIRECTION( '', ( 0.000000000000000, 0.000000000000000, 1.00000000000000 ) );
#216 = DIRECTION( '', ( 1.00000000000000, 0.000000000000000, 0.000000000000000 ) );
#217 = SURFACE_STYLE_FILL_AREA( #293 );
#218 = ORIENTED_EDGE( '', *, *, #280, .F. );
#219 = CARTESIAN_POINT( '', ( 0.000000000000000, 0.000000000000000, 31.6906956134970 ) );
#220 = DIRECTION( '', ( 0.000000000000000, 0.000000000000000, 1.00000000000000 ) );
#221 = DIRECTION( '', ( 1.00000000000000, 0.000000000000000, 0.000000000000000 ) );
#222 = SURFACE_STYLE_FILL_AREA( #294 );
#223 = ORIENTED_EDGE( '', *, *, #289, .F. );
#224 = ORIENTED_EDGE( '', *, *, #295, .F. );
#225 = ORIENTED_EDGE( '', *, *, #296, .T. );
#226 = ORIENTED_EDGE( '', *, *, #297, .T. );
#227 = CARTESIAN_POINT( '', ( -15.8193973757958, 27.4000000000000, 30.0000000000000 ) );
#228 = DIRECTION( '', ( 0.866025403784438, -0.500000000000001, 0.000000000000000 ) );
#229 = DIRECTION( '', ( 0.500000000000001, 0.866025403784438, 0.000000000000000 ) );
#230 = SURFACE_STYLE_FILL_AREA( #298 );
#231 = ORIENTED_EDGE( '', *, *, #288, .F. );
#232 = ORIENTED_EDGE( '', *, *, #299, .F. );
#233 = ORIENTED_EDGE( '', *, *, #300, .T. );
#234 = ORIENTED_EDGE( '', *, *, #295, .T. );
#235 = CARTESIAN_POINT( '', ( 15.8193973757958, 27.4000000000000, 30.0000000000000 ) );
#236 = DIRECTION( '', ( 0.000000000000000, -1.00000000000000, 0.000000000000000 ) );
#237 = DIRECTION( '', ( 0.000000000000000, 0.000000000000000, -1.00000000000000 ) );
#238 = SURFACE_STYLE_FILL_AREA( #301 );
#239 = ORIENTED_EDGE( '', *, *, #291, .F. );
#240 = ORIENTED_EDGE( '', *, *, #286, .F. );
#241 = ORIENTED_EDGE( '', *, *, #302, .T. );
#242 = ORIENTED_EDGE( '', *, *, #303, .T. );
#243 = CARTESIAN_POINT( '', ( 15.8193973757958, -27.4000000000000, 30.0000000000000 ) );
#244 = DIRECTION( '', ( -0.866025403784438, 0.500000000000000, 0.000000000000000 ) );
#245 = DIRECTION( '', ( -0.500000000000000, -0.866025403784438, 0.000000000000000 ) );
#246 = SURFACE_STYLE_FILL_AREA( #304 );
#247 = ORIENTED_EDGE( '', *, *, #300, .F. );
#248 = ORIENTED_EDGE( '', *, *, #305, .F. );
#249 = ORIENTED_EDGE( '', *, *, #302, .F. );
#250 = ORIENTED_EDGE( '', *, *, #285, .F. );
#251 = ORIENTED_EDGE( '', *, *, #306, .F. );
#252 = ORIENTED_EDGE( '', *, *, #296, .F. );
#253 = ORIENTED_EDGE( '', *, *, #281, .F. );
#254 = CARTESIAN_POINT( '', ( 0.000000000000000, 0.000000000000000, 30.0000000000000 ) );
#255 = DIRECTION( '', ( 0.000000000000000, 0.000000000000000, 1.00000000000000 ) );
#256 = DIRECTION( '', ( 1.00000000000000, 0.000000000000000, 0.000000000000000 ) );
#257 = SURFACE_STYLE_FILL_AREA( #307 );
#258 = ORIENTED_EDGE( '', *, *, #290, .F. );
#259 = ORIENTED_EDGE( '', *, *, #297, .F. );
#260 = ORIENTED_EDGE( '', *, *, #306, .T. );
#261 = ORIENTED_EDGE( '', *, *, #284, .T. );
#262 = CARTESIAN_POINT( '', ( -31.6387947515917, 2.09636409300188E-013, 30.0000000000000 ) );
#263 = DIRECTION( '', ( 0.866025403784438, 0.500000000000000, 0.000000000000000 ) );
#264 = DIRECTION( '', ( -0.500000000000000, 0.866025403784438, 0.000000000000000 ) );
#265 = SURFACE_STYLE_FILL_AREA( #308 );
#266 = ORIENTED_EDGE( '', *, *, #292, .F. );
#267 = ORIENTED_EDGE( '', *, *, #303, .F. );
#268 = ORIENTED_EDGE( '', *, *, #305, .T. );
#269 = ORIENTED_EDGE( '', *, *, #299, .T. );
#270 = CARTESIAN_POINT( '', ( 31.6387947515917, 2.05761774428046E-013, 30.0000000000000 ) );
#271 = DIRECTION( '', ( -0.866025403784438, -0.500000000000001, 0.000000000000000 ) );
#272 = DIRECTION( '', ( 0.500000000000001, -0.866025403784438, 0.000000000000000 ) );
#273 = FILL_AREA_STYLE( '', ( #309 ) );
#274 = EDGE_CURVE( '', #310, #310, #311, .T. );
#275 = EDGE_CURVE( '', #312, #312, #313, .T. );
#276 = FILL_AREA_STYLE( '', ( #314 ) );
#277 = EDGE_CURVE( '', #315, #315, #316, .T. );
#278 = FILL_AREA_STYLE( '', ( #317 ) );
#279 = FILL_AREA_STYLE( '', ( #318 ) );
#280 = EDGE_CURVE( '', #319, #319, #320, .T. );
#281 = EDGE_CURVE( '', #321, #321, #322, .F. );
#282 = FILL_AREA_STYLE( '', ( #323 ) );
#283 = EDGE_CURVE( '', #324, #325, #326, .T. );
#284 = EDGE_CURVE( '', #327, #324, #328, .T. );
#285 = EDGE_CURVE( '', #327, #329, #330, .T. );
#286 = EDGE_CURVE( '', #329, #325, #331, .T. );
#287 = FILL_AREA_STYLE( '', ( #332 ) );
#288 = EDGE_CURVE( '', #333, #334, #335, .T. );
#289 = EDGE_CURVE( '', #334, #336, #337, .T. );
#290 = EDGE_CURVE( '', #336, #324, #338, .T. );
#291 = EDGE_CURVE( '', #325, #339, #340, .T. );
#292 = EDGE_CURVE( '', #339, #333, #341, .T. );
#293 = FILL_AREA_STYLE( '', ( #342 ) );
#294 = FILL_AREA_STYLE( '', ( #343 ) );
#295 = EDGE_CURVE( '', #344, #334, #345, .T. );
#296 = EDGE_CURVE( '', #344, #346, #347, .T. );
#297 = EDGE_CURVE( '', #346, #336, #348, .T. );
#298 = FILL_AREA_STYLE( '', ( #349 ) );
#299 = EDGE_CURVE( '', #350, #333, #351, .T. );
#300 = EDGE_CURVE( '', #350, #344, #352, .T. );
#301 = FILL_AREA_STYLE( '', ( #353 ) );
#302 = EDGE_CURVE( '', #329, #354, #355, .T. );
#303 = EDGE_CURVE( '', #354, #339, #356, .T. );
#304 = FILL_AREA_STYLE( '', ( #357 ) );
#305 = EDGE_CURVE( '', #354, #350, #358, .T. );
#306 = EDGE_CURVE( '', #346, #327, #359, .T. );
#307 = FILL_AREA_STYLE( '', ( #360 ) );
#308 = FILL_AREA_STYLE( '', ( #361 ) );
#309 = FILL_AREA_STYLE_COLOUR( '', #362 );
#310 = VERTEX_POINT( '', #363 );
#311 = CIRCLE( '', #364, 33.5000000000000 );
#312 = VERTEX_POINT( '', #365 );
#313 = CIRCLE( '', #366, 33.5000000000000 );
#314 = FILL_AREA_STYLE_COLOUR( '', #367 );
#315 = VERTEX_POINT( '', #368 );
#316 = CIRCLE( '', #369, 29.6885775404495 );
#317 = FILL_AREA_STYLE_COLOUR( '', #370 );
#318 = FILL_AREA_STYLE_COLOUR( '', #371 );
#319 = VERTEX_POINT( '', #372 );
#320 = CIRCLE( '', #373, 25.3093043865030 );
#321 = VERTEX_POINT( '', #374 );
#322 = CIRCLE( '', #375, 25.3093043865030 );
#323 = FILL_AREA_STYLE_COLOUR( '', #376 );
#324 = VERTEX_POINT( '', #377 );
#325 = VERTEX_POINT( '', #378 );
#326 = LINE( '', #379, #380 );
#327 = VERTEX_POINT( '', #381 );
#328 = LINE( '', #382, #383 );
#329 = VERTEX_POINT( '', #384 );
#330 = LINE( '', #385, #386 );
#331 = LINE( '', #387, #388 );
#332 = FILL_AREA_STYLE_COLOUR( '', #389 );
#333 = VERTEX_POINT( '', #390 );
#334 = VERTEX_POINT( '', #391 );
#335 = LINE( '', #392, #393 );
#336 = VERTEX_POINT( '', #394 );
#337 = LINE( '', #395, #396 );
#338 = LINE( '', #397, #398 );
#339 = VERTEX_POINT( '', #399 );
#340 = LINE( '', #400, #401 );
#341 = LINE( '', #402, #403 );
#342 = FILL_AREA_STYLE_COLOUR( '', #404 );
#343 = FILL_AREA_STYLE_COLOUR( '', #405 );
#344 = VERTEX_POINT( '', #406 );
#345 = LINE( '', #407, #408 );
#346 = VERTEX_POINT( '', #409 );
#347 = LINE( '', #410, #411 );
#348 = LINE( '', #412, #413 );
#349 = FILL_AREA_STYLE_COLOUR( '', #414 );
#350 = VERTEX_POINT( '', #415 );
#351 = LINE( '', #416, #417 );
#352 = LINE( '', #418, #419 );
#353 = FILL_AREA_STYLE_COLOUR( '', #420 );
#354 = VERTEX_POINT( '', #421 );
#355 = LINE( '', #422, #423 );
#356 = LINE( '', #424, #425 );
#357 = FILL_AREA_STYLE_COLOUR( '', #426 );
#358 = LINE( '', #427, #428 );
#359 = LINE( '', #429, #430 );
#360 = FILL_AREA_STYLE_COLOUR( '', #431 );
#361 = FILL_AREA_STYLE_COLOUR( '', #432 );
#362 = COLOUR_RGB( '', 0.200000002980232, 0.200000002980232, 0.200000002980232 );
#363 = CARTESIAN_POINT( '', ( 33.5000000000000, 0.000000000000000, 30.0000000000000 ) );
#364 = AXIS2_PLACEMENT_3D( '', #433, #434, #435 );
#365 = CARTESIAN_POINT( '', ( 33.5000000000000, 0.000000000000000, 0.000000000000000 ) );
#366 = AXIS2_PLACEMENT_3D( '', #436, #437, #438 );
#367 = COLOUR_RGB( '', 0.200000002980232, 0.200000002980232, 0.200000002980232 );
#368 = CARTESIAN_POINT( '', ( 29.6885775404495, 0.000000000000000, 33.8114224595505 ) );
#369 = AXIS2_PLACEMENT_3D( '', #439, #440, #441 );
#370 = COLOUR_RGB( '', 0.200000002980232, 0.200000002980232, 0.200000002980232 );
#371 = COLOUR_RGB( '', 0.200000002980232, 0.200000002980232, 0.200000002980232 );
#372 = CARTESIAN_POINT( '', ( 25.3093043865030, 0.000000000000000, 31.6906956134970 ) );
#373 = AXIS2_PLACEMENT_3D( '', #442, #443, #444 );
#374 = CARTESIAN_POINT( '', ( 25.3093043865030, 0.000000000000000, 30.0000000000000 ) );
#375 = AXIS2_PLACEMENT_3D( '', #445, #446, #447 );
#376 = COLOUR_RGB( '', 0.200000002980232, 0.200000002980232, 0.200000002980232 );
#377 = CARTESIAN_POINT( '', ( -15.8193973757958, -27.4000000000000, 0.000000000000000 ) );
#378 = CARTESIAN_POINT( '', ( 15.8193973757958, -27.4000000000000, 0.000000000000000 ) );
#379 = CARTESIAN_POINT( '', ( -15.8193973757958, -27.4000000000000, 0.000000000000000 ) );
#380 = VECTOR( '', #448, 1000.00000000000 );
#381 = CARTESIAN_POINT( '', ( -15.8193973757958, -27.4000000000000, 30.0000000000000 ) );
#382 = CARTESIAN_POINT( '', ( -15.8193973757958, -27.4000000000000, 30.0000000000000 ) );
#383 = VECTOR( '', #449, 1000.00000000000 );
#384 = CARTESIAN_POINT( '', ( 15.8193973757958, -27.4000000000000, 30.0000000000000 ) );
#385 = CARTESIAN_POINT( '', ( -15.8193973757958, -27.4000000000000, 30.0000000000000 ) );
#386 = VECTOR( '', #450, 1000.00000000000 );
#387 = CARTESIAN_POINT( '', ( 15.8193973757958, -27.4000000000000, 30.0000000000000 ) );
#388 = VECTOR( '', #451, 1000.00000000000 );
#389 = COLOUR_RGB( '', 0.200000002980232, 0.200000002980232, 0.200000002980232 );
#390 = CARTESIAN_POINT( '', ( 15.8193973757958, 27.4000000000000, 0.000000000000000 ) );
#391 = CARTESIAN_POINT( '', ( -15.8193973757958, 27.4000000000000, 0.000000000000000 ) );
#392 = CARTESIAN_POINT( '', ( 15.8193973757958, 27.4000000000000, 0.000000000000000 ) );
#393 = VECTOR( '', #452, 1000.00000000000 );
#394 = CARTESIAN_POINT( '', ( -31.6387947515917, 2.04697370165263E-013, 0.000000000000000 ) );
#395 = CARTESIAN_POINT( '', ( -15.8193973757958, 27.4000000000000, 0.000000000000000 ) );
#396 = VECTOR( '', #453, 999.999999999998 );
#397 = CARTESIAN_POINT( '', ( -31.6387947515917, 2.09636409300188E-013, 0.000000000000000 ) );
#398 = VECTOR( '', #454, 999.999999999999 );
#399 = CARTESIAN_POINT( '', ( 31.6387947515917, 2.04697370165263E-013, 0.000000000000000 ) );
#400 = CARTESIAN_POINT( '', ( 15.8193973757958, -27.4000000000000, 0.000000000000000 ) );
#401 = VECTOR( '', #455, 999.999999999999 );
#402 = CARTESIAN_POINT( '', ( 31.6387947515917, 2.05761774428046E-013, 0.000000000000000 ) );
#403 = VECTOR( '', #456, 999.999999999998 );
#404 = COLOUR_RGB( '', 0.200000002980232, 0.200000002980232, 0.200000002980232 );
#405 = COLOUR_RGB( '', 0.200000002980232, 0.200000002980232, 0.200000002980232 );
#406 = CARTESIAN_POINT( '', ( -15.8193973757958, 27.4000000000000, 30.0000000000000 ) );
#407 = CARTESIAN_POINT( '', ( -15.8193973757958, 27.4000000000000, 30.0000000000000 ) );
#408 = VECTOR( '', #457, 1000.00000000000 );
#409 = CARTESIAN_POINT( '', ( -31.6387947515917, 2.04697370165263E-013, 30.0000000000000 ) );
#410 = CARTESIAN_POINT( '', ( -15.8193973757958, 27.4000000000000, 30.0000000000000 ) );
#411 = VECTOR( '', #458, 999.999999999998 );
#412 = CARTESIAN_POINT( '', ( -31.6387947515917, 2.04697370165263E-013, 30.0000000000000 ) );
#413 = VECTOR( '', #459, 1000.00000000000 );
#414 = COLOUR_RGB( '', 0.200000002980232, 0.200000002980232, 0.200000002980232 );
#415 = CARTESIAN_POINT( '', ( 15.8193973757958, 27.4000000000000, 30.0000000000000 ) );
#416 = CARTESIAN_POINT( '', ( 15.8193973757958, 27.4000000000000, 30.0000000000000 ) );
#417 = VECTOR( '', #460, 1000.00000000000 );
#418 = CARTESIAN_POINT( '', ( 15.8193973757958, 27.4000000000000, 30.0000000000000 ) );
#419 = VECTOR( '', #461, 1000.00000000000 );
#420 = COLOUR_RGB( '', 0.200000002980232, 0.200000002980232, 0.200000002980232 );
#421 = CARTESIAN_POINT( '', ( 31.6387947515917, 2.04697370165263E-013, 30.0000000000000 ) );
#422 = CARTESIAN_POINT( '', ( 15.8193973757958, -27.4000000000000, 30.0000000000000 ) );
#423 = VECTOR( '', #462, 999.999999999999 );
#424 = CARTESIAN_POINT( '', ( 31.6387947515917, 2.04697370165263E-013, 30.0000000000000 ) );
#425 = VECTOR( '', #463, 1000.00000000000 );
#426 = COLOUR_RGB( '', 0.200000002980232, 0.200000002980232, 0.200000002980232 );
#427 = CARTESIAN_POINT( '', ( 31.6387947515917, 2.05761774428046E-013, 30.0000000000000 ) );
#428 = VECTOR( '', #464, 999.999999999998 );
#429 = CARTESIAN_POINT( '', ( -31.6387947515917, 2.09636409300188E-013, 30.0000000000000 ) );
#430 = VECTOR( '', #465, 999.999999999999 );
#431 = COLOUR_RGB( '', 0.200000002980232, 0.200000002980232, 0.200000002980232 );
#432 = COLOUR_RGB( '', 0.200000002980232, 0.200000002980232, 0.200000002980232 );
#433 = CARTESIAN_POINT( '', ( 0.000000000000000, 0.000000000000000, 30.0000000000000 ) );
#434 = DIRECTION( '', ( 0.000000000000000, 0.000000000000000, 1.00000000000000 ) );
#435 = DIRECTION( '', ( 1.00000000000000, 0.000000000000000, 0.000000000000000 ) );
#436 = CARTESIAN_POINT( '', ( 0.000000000000000, 0.000000000000000, 0.000000000000000 ) );
#437 = DIRECTION( '', ( 0.000000000000000, 0.000000000000000, 1.00000000000000 ) );
#438 = DIRECTION( '', ( 1.00000000000000, 0.000000000000000, 0.000000000000000 ) );
#439 = CARTESIAN_POINT( '', ( 0.000000000000000, 0.000000000000000, 33.8114224595505 ) );
#440 = DIRECTION( '', ( 0.000000000000000, 0.000000000000000, 1.00000000000000 ) );
#441 = DIRECTION( '', ( 1.00000000000000, 0.000000000000000, 0.000000000000000 ) );
#442 = CARTESIAN_POINT( '', ( 0.000000000000000, 0.000000000000000, 31.6906956134970 ) );
#443 = DIRECTION( '', ( 0.000000000000000, 0.000000000000000, 1.00000000000000 ) );
#444 = DIRECTION( '', ( 1.00000000000000, 0.000000000000000, 0.000000000000000 ) );
#445 = CARTESIAN_POINT( '', ( 0.000000000000000, 0.000000000000000, 30.0000000000000 ) );
#446 = DIRECTION( '', ( 0.000000000000000, 0.000000000000000, 1.00000000000000 ) );
#447 = DIRECTION( '', ( 1.00000000000000, 0.000000000000000, 0.000000000000000 ) );
#448 = DIRECTION( '', ( 1.00000000000000, -8.77263999262570E-016, 0.000000000000000 ) );
#449 = DIRECTION( '', ( 0.000000000000000, 0.000000000000000, -1.00000000000000 ) );
#450 = DIRECTION( '', ( 1.00000000000000, -8.77263999262570E-016, 0.000000000000000 ) );
#451 = DIRECTION( '', ( 0.000000000000000, 0.000000000000000, -1.00000000000000 ) );
#452 = DIRECTION( '', ( -1.00000000000000, 0.000000000000000, 0.000000000000000 ) );
#453 = DIRECTION( '', ( -0.500000000000001, -0.866025403784438, 0.000000000000000 ) );
#454 = DIRECTION( '', ( 0.500000000000000, -0.866025403784438, 0.000000000000000 ) );
#455 = DIRECTION( '', ( 0.500000000000000, 0.866025403784438, 0.000000000000000 ) );
#456 = DIRECTION( '', ( -0.500000000000001, 0.866025403784438, 0.000000000000000 ) );
#457 = DIRECTION( '', ( 0.000000000000000, 0.000000000000000, -1.00000000000000 ) );
#458 = DIRECTION( '', ( -0.500000000000001, -0.866025403784438, 0.000000000000000 ) );
#459 = DIRECTION( '', ( 0.000000000000000, 0.000000000000000, -1.00000000000000 ) );
#460 = DIRECTION( '', ( 0.000000000000000, 0.000000000000000, -1.00000000000000 ) );
#461 = DIRECTION( '', ( -1.00000000000000, 0.000000000000000, 0.000000000000000 ) );
#462 = DIRECTION( '', ( 0.500000000000000, 0.866025403784438, 0.000000000000000 ) );
#463 = DIRECTION( '', ( 0.000000000000000, 0.000000000000000, -1.00000000000000 ) );
#464 = DIRECTION( '', ( -0.500000000000001, 0.866025403784438, 0.000000000000000 ) );
#465 = DIRECTION( '', ( 0.500000000000000, -0.866025403784438, 0.000000000000000 ) );
ENDSEC;
END-ISO-10303-21;
