ISO-10303-21;
HEADER;
FILE_DESCRIPTION( ( 'Unknown' ), '1' );
FILE_NAME( '//SBS2003/HD_Usb/Disegni/08_LIB/Users_3D/PROD_GAMM_3D/CD/7371491_CD80.stp', 'Unknown', ( 'Unknown' ), ( 'Unknown' ), 'PSStep 14.0', 'Unknown', '  ' );
FILE_SCHEMA( ( 'AUTOMOTIVE_DESIGN { 1 0 10303 214 1 1 1 1 }' ) );
ENDSEC;
DATA;
#1 = MECHANICAL_DESIGN_GEOMETRIC_PRESENTATION_REPRESENTATION( ' ', ( #10, #11, #12, #13, #14, #15, #16, #17, #18, #19, #20, #21, #22 ), #6 );
#2 = PRODUCT_DEFINITION_CONTEXT( '', #23, 'design' );
#3 = APPLICATION_PROTOCOL_DEFINITION( 'international standard', 'automotive_design', 2001, #23 );
#4 = PRODUCT_CATEGORY_RELATIONSHIP( 'NONE', 'NONE', #24, #25 );
#5 = SHAPE_DEFINITION_REPRESENTATION( #26, #27 );
#6 =  ( GEOMETRIC_REPRESENTATION_CONTEXT( 3 )GLOBAL_UNCERTAINTY_ASSIGNED_CONTEXT( ( #30 ) )GLOBAL_UNIT_ASSIGNED_CONTEXT( ( #32, #33, #34 ) )REPRESENTATION_CONTEXT( 'NONE', 'WORKSPACE' ) );
#10 = STYLED_ITEM( '', ( #36 ), #37 );
#11 = STYLED_ITEM( '', ( #38 ), #39 );
#12 = STYLED_ITEM( '', ( #40 ), #41 );
#13 = STYLED_ITEM( '', ( #42 ), #43 );
#14 = STYLED_ITEM( '', ( #44 ), #45 );
#15 = STYLED_ITEM( '', ( #46 ), #47 );
#16 = STYLED_ITEM( '', ( #48 ), #49 );
#17 = STYLED_ITEM( '', ( #50 ), #51 );
#18 = STYLED_ITEM( '', ( #52 ), #53 );
#19 = STYLED_ITEM( '', ( #54 ), #55 );
#20 = STYLED_ITEM( '', ( #56 ), #57 );
#21 = STYLED_ITEM( '', ( #58 ), #59 );
#22 = STYLED_ITEM( '', ( #60 ), #61 );
#23 = APPLICATION_CONTEXT( 'core data for automotive mechanical design processes' );
#24 = PRODUCT_CATEGORY( 'part', 'NONE' );
#25 = PRODUCT_RELATED_PRODUCT_CATEGORY( 'detail', ' ', ( #62 ) );
#26 = PRODUCT_DEFINITION_SHAPE( 'NONE', 'NONE', #63 );
#27 = ADVANCED_BREP_SHAPE_REPRESENTATION( '1', ( #64, #65 ), #6 );
#30 = UNCERTAINTY_MEASURE_WITH_UNIT( LENGTH_MEASURE( 0.00100000000000000 ), #32, '', '' );
#32 =  ( CONVERSION_BASED_UNIT( 'MILLIMETRE', #68 )LENGTH_UNIT(  )NAMED_UNIT( #71 ) );
#33 =  ( NAMED_UNIT( #73 )PLANE_ANGLE_UNIT(  )SI_UNIT( $, .RADIAN. ) );
#34 =  ( NAMED_UNIT( #73 )SI_UNIT( $, .STERADIAN. )SOLID_ANGLE_UNIT(  ) );
#36 = PRESENTATION_STYLE_ASSIGNMENT( ( #79 ) );
#37 = ADVANCED_FACE( '', ( #80, #81 ), #82, .T. );
#38 = PRESENTATION_STYLE_ASSIGNMENT( ( #83 ) );
#39 = ADVANCED_FACE( '', ( #84, #85 ), #86, .F. );
#40 = PRESENTATION_STYLE_ASSIGNMENT( ( #87 ) );
#41 = ADVANCED_FACE( '', ( #88 ), #89, .T. );
#42 = PRESENTATION_STYLE_ASSIGNMENT( ( #90 ) );
#43 = ADVANCED_FACE( '', ( #91 ), #92, .T. );
#44 = PRESENTATION_STYLE_ASSIGNMENT( ( #93 ) );
#45 = ADVANCED_FACE( '', ( #94 ), #95, .T. );
#46 = PRESENTATION_STYLE_ASSIGNMENT( ( #96 ) );
#47 = ADVANCED_FACE( '', ( #97, #98 ), #99, .F. );
#48 = PRESENTATION_STYLE_ASSIGNMENT( ( #100 ) );
#49 = ADVANCED_FACE( '', ( #101 ), #102, .T. );
#50 = PRESENTATION_STYLE_ASSIGNMENT( ( #103 ) );
#51 = ADVANCED_FACE( '', ( #104 ), #105, .T. );
#52 = PRESENTATION_STYLE_ASSIGNMENT( ( #106 ) );
#53 = ADVANCED_FACE( '', ( #107 ), #108, .F. );
#54 = PRESENTATION_STYLE_ASSIGNMENT( ( #109 ) );
#55 = ADVANCED_FACE( '', ( #110 ), #111, .T. );
#56 = PRESENTATION_STYLE_ASSIGNMENT( ( #112 ) );
#57 = ADVANCED_FACE( '', ( #113, #114 ), #115, .F. );
#58 = PRESENTATION_STYLE_ASSIGNMENT( ( #116 ) );
#59 = ADVANCED_FACE( '', ( #117, #118 ), #119, .T. );
#60 = PRESENTATION_STYLE_ASSIGNMENT( ( #120 ) );
#61 = ADVANCED_FACE( '', ( #121 ), #122, .T. );
#62 = PRODUCT( '1', '1', 'PART-1-DESC', ( #123 ) );
#63 = PRODUCT_DEFINITION( 'NONE', 'NONE', #124, #2 );
#64 = MANIFOLD_SOLID_BREP( '1', #125 );
#65 = AXIS2_PLACEMENT_3D( '', #126, #127, #128 );
#68 = LENGTH_MEASURE_WITH_UNIT( LENGTH_MEASURE( 1.00000000000000 ), #129 );
#71 = DIMENSIONAL_EXPONENTS( 1.00000000000000, 0.000000000000000, 0.000000000000000, 0.000000000000000, 0.000000000000000, 0.000000000000000, 0.000000000000000 );
#73 = DIMENSIONAL_EXPONENTS( 0.000000000000000, 0.000000000000000, 0.000000000000000, 0.000000000000000, 0.000000000000000, 0.000000000000000, 0.000000000000000 );
#79 = SURFACE_STYLE_USAGE( .BOTH., #130 );
#80 = FACE_OUTER_BOUND( '', #131, .T. );
#81 = FACE_OUTER_BOUND( '', #132, .T. );
#82 = CYLINDRICAL_SURFACE( '', #133, 49.0000000000000 );
#83 = SURFACE_STYLE_USAGE( .BOTH., #134 );
#84 = FACE_OUTER_BOUND( '', #135, .T. );
#85 = FACE_BOUND( '', #136, .T. );
#86 = PLANE( '', #137 );
#87 = SURFACE_STYLE_USAGE( .BOTH., #138 );
#88 = FACE_OUTER_BOUND( '', #139, .T. );
#89 = PLANE( '', #140 );
#90 = SURFACE_STYLE_USAGE( .BOTH., #141 );
#91 = FACE_OUTER_BOUND( '', #142, .T. );
#92 = SPHERICAL_SURFACE( '', #143, 48.0000000000000 );
#93 = SURFACE_STYLE_USAGE( .BOTH., #144 );
#94 = FACE_OUTER_BOUND( '', #145, .T. );
#95 = PLANE( '', #146 );
#96 = SURFACE_STYLE_USAGE( .BOTH., #147 );
#97 = FACE_OUTER_BOUND( '', #148, .T. );
#98 = FACE_BOUND( '', #149, .T. );
#99 = PLANE( '', #150 );
#100 = SURFACE_STYLE_USAGE( .BOTH., #151 );
#101 = FACE_OUTER_BOUND( '', #152, .T. );
#102 = PLANE( '', #153 );
#103 = SURFACE_STYLE_USAGE( .BOTH., #154 );
#104 = FACE_OUTER_BOUND( '', #155, .T. );
#105 = PLANE( '', #156 );
#106 = SURFACE_STYLE_USAGE( .BOTH., #157 );
#107 = FACE_OUTER_BOUND( '', #158, .T. );
#108 = SPHERICAL_SURFACE( '', #159, 38.1882063315676 );
#109 = SURFACE_STYLE_USAGE( .BOTH., #160 );
#110 = FACE_OUTER_BOUND( '', #161, .T. );
#111 = PLANE( '', #162 );
#112 = SURFACE_STYLE_USAGE( .BOTH., #163 );
#113 = FACE_OUTER_BOUND( '', #164, .T. );
#114 = FACE_OUTER_BOUND( '', #165, .T. );
#115 = CYLINDRICAL_SURFACE( '', #166, 38.1882063315676 );
#116 = SURFACE_STYLE_USAGE( .BOTH., #167 );
#117 = FACE_BOUND( '', #168, .T. );
#118 = FACE_OUTER_BOUND( '', #169, .T. );
#119 = CONICAL_SURFACE( '', #170, 49.0000000000000, 0.785398163397448 );
#120 = SURFACE_STYLE_USAGE( .BOTH., #171 );
#121 = FACE_OUTER_BOUND( '', #172, .T. );
#122 = PLANE( '', #173 );
#123 = PRODUCT_CONTEXT( '', #23, 'mechanical' );
#124 = PRODUCT_DEFINITION_FORMATION_WITH_SPECIFIED_SOURCE( ' ', 'NONE', #62, .NOT_KNOWN. );
#125 = CLOSED_SHELL( '', ( #47, #39, #49, #41, #37, #45, #61, #51, #55, #57, #53, #43, #59 ) );
#126 = CARTESIAN_POINT( '', ( 0.000000000000000, 0.000000000000000, 0.000000000000000 ) );
#127 = DIRECTION( '', ( 0.000000000000000, 0.000000000000000, 1.00000000000000 ) );
#128 = DIRECTION( '', ( 1.00000000000000, 0.000000000000000, 0.000000000000000 ) );
#129 =  ( LENGTH_UNIT(  )NAMED_UNIT( #71 )SI_UNIT( .MILLI., .METRE. ) );
#130 = SURFACE_SIDE_STYLE( '', ( #175 ) );
#131 = EDGE_LOOP( '', ( #176 ) );
#132 = EDGE_LOOP( '', ( #177 ) );
#133 = AXIS2_PLACEMENT_3D( '', #178, #179, #180 );
#134 = SURFACE_SIDE_STYLE( '', ( #181 ) );
#135 = EDGE_LOOP( '', ( #182 ) );
#136 = EDGE_LOOP( '', ( #183, #184, #185, #186, #187, #188 ) );
#137 = AXIS2_PLACEMENT_3D( '', #189, #190, #191 );
#138 = SURFACE_SIDE_STYLE( '', ( #192 ) );
#139 = EDGE_LOOP( '', ( #193, #194, #195, #196 ) );
#140 = AXIS2_PLACEMENT_3D( '', #197, #198, #199 );
#141 = SURFACE_SIDE_STYLE( '', ( #200 ) );
#142 = EDGE_LOOP( '', ( #201 ) );
#143 = AXIS2_PLACEMENT_3D( '', #202, #203, #204 );
#144 = SURFACE_SIDE_STYLE( '', ( #205 ) );
#145 = EDGE_LOOP( '', ( #206, #207, #208, #209 ) );
#146 = AXIS2_PLACEMENT_3D( '', #210, #211, #212 );
#147 = SURFACE_SIDE_STYLE( '', ( #213 ) );
#148 = EDGE_LOOP( '', ( #214, #215, #216, #217, #218, #219 ) );
#149 = EDGE_LOOP( '', ( #220 ) );
#150 = AXIS2_PLACEMENT_3D( '', #221, #222, #223 );
#151 = SURFACE_SIDE_STYLE( '', ( #224 ) );
#152 = EDGE_LOOP( '', ( #225, #226, #227, #228 ) );
#153 = AXIS2_PLACEMENT_3D( '', #229, #230, #231 );
#154 = SURFACE_SIDE_STYLE( '', ( #232 ) );
#155 = EDGE_LOOP( '', ( #233, #234, #235, #236 ) );
#156 = AXIS2_PLACEMENT_3D( '', #237, #238, #239 );
#157 = SURFACE_SIDE_STYLE( '', ( #240 ) );
#158 = EDGE_LOOP( '', ( #241 ) );
#159 = AXIS2_PLACEMENT_3D( '', #242, #243, #244 );
#160 = SURFACE_SIDE_STYLE( '', ( #245 ) );
#161 = EDGE_LOOP( '', ( #246, #247, #248, #249 ) );
#162 = AXIS2_PLACEMENT_3D( '', #250, #251, #252 );
#163 = SURFACE_SIDE_STYLE( '', ( #253 ) );
#164 = EDGE_LOOP( '', ( #254 ) );
#165 = EDGE_LOOP( '', ( #255 ) );
#166 = AXIS2_PLACEMENT_3D( '', #256, #257, #258 );
#167 = SURFACE_SIDE_STYLE( '', ( #259 ) );
#168 = EDGE_LOOP( '', ( #260 ) );
#169 = EDGE_LOOP( '', ( #261 ) );
#170 = AXIS2_PLACEMENT_3D( '', #262, #263, #264 );
#171 = SURFACE_SIDE_STYLE( '', ( #265 ) );
#172 = EDGE_LOOP( '', ( #266, #267, #268, #269 ) );
#173 = AXIS2_PLACEMENT_3D( '', #270, #271, #272 );
#175 = SURFACE_STYLE_FILL_AREA( #273 );
#176 = ORIENTED_EDGE( '', *, *, #274, .F. );
#177 = ORIENTED_EDGE( '', *, *, #275, .T. );
#178 = CARTESIAN_POINT( '', ( 0.000000000000000, 0.000000000000000, 57.1500000000000 ) );
#179 = DIRECTION( '', ( -0.000000000000000, -0.000000000000000, -1.00000000000000 ) );
#180 = DIRECTION( '', ( 1.00000000000000, 0.000000000000000, 0.000000000000000 ) );
#181 = SURFACE_STYLE_FILL_AREA( #276 );
#182 = ORIENTED_EDGE( '', *, *, #275, .F. );
#183 = ORIENTED_EDGE( '', *, *, #277, .T. );
#184 = ORIENTED_EDGE( '', *, *, #278, .T. );
#185 = ORIENTED_EDGE( '', *, *, #279, .T. );
#186 = ORIENTED_EDGE( '', *, *, #280, .T. );
#187 = ORIENTED_EDGE( '', *, *, #281, .T. );
#188 = ORIENTED_EDGE( '', *, *, #282, .T. );
#189 = CARTESIAN_POINT( '', ( 9.77200945085225E-015, 0.000000000000000, 0.000000000000000 ) );
#190 = DIRECTION( '', ( 0.000000000000000, 0.000000000000000, 1.00000000000000 ) );
#191 = DIRECTION( '', ( 1.00000000000000, 0.000000000000000, 0.000000000000000 ) );
#192 = SURFACE_STYLE_FILL_AREA( #283 );
#193 = ORIENTED_EDGE( '', *, *, #281, .F. );
#194 = ORIENTED_EDGE( '', *, *, #284, .F. );
#195 = ORIENTED_EDGE( '', *, *, #285, .T. );
#196 = ORIENTED_EDGE( '', *, *, #286, .T. );
#197 = CARTESIAN_POINT( '', ( 23.0940107675852, -40.0000000000000, 43.5000000000000 ) );
#198 = DIRECTION( '', ( -0.866025403784438, 0.500000000000001, 0.000000000000000 ) );
#199 = DIRECTION( '', ( -0.500000000000001, -0.866025403784438, 0.000000000000000 ) );
#200 = SURFACE_STYLE_FILL_AREA( #287 );
#201 = ORIENTED_EDGE( '', *, *, #288, .T. );
#202 = CARTESIAN_POINT( '', ( 0.000000000000000, 0.000000000000000, 38.2000000000000 ) );
#203 = DIRECTION( '', ( 0.000000000000000, 0.000000000000000, 1.00000000000000 ) );
#204 = DIRECTION( '', ( 1.00000000000000, 0.000000000000000, 0.000000000000000 ) );
#205 = SURFACE_STYLE_FILL_AREA( #289 );
#206 = ORIENTED_EDGE( '', *, *, #282, .F. );
#207 = ORIENTED_EDGE( '', *, *, #286, .F. );
#208 = ORIENTED_EDGE( '', *, *, #290, .T. );
#209 = ORIENTED_EDGE( '', *, *, #291, .T. );
#210 = CARTESIAN_POINT( '', ( 46.1880215351705, 3.13129336288596E-013, 43.5000000000000 ) );
#211 = DIRECTION( '', ( -0.866025403784435, -0.500000000000006, 0.000000000000000 ) );
#212 = DIRECTION( '', ( 0.500000000000006, -0.866025403784435, 0.000000000000000 ) );
#213 = SURFACE_STYLE_FILL_AREA( #292 );
#214 = ORIENTED_EDGE( '', *, *, #293, .F. );
#215 = ORIENTED_EDGE( '', *, *, #290, .F. );
#216 = ORIENTED_EDGE( '', *, *, #285, .F. );
#217 = ORIENTED_EDGE( '', *, *, #294, .F. );
#218 = ORIENTED_EDGE( '', *, *, #295, .F. );
#219 = ORIENTED_EDGE( '', *, *, #296, .F. );
#220 = ORIENTED_EDGE( '', *, *, #297, .F. );
#221 = CARTESIAN_POINT( '', ( 0.000000000000000, 0.000000000000000, 43.5000000000000 ) );
#222 = DIRECTION( '', ( 0.000000000000000, 0.000000000000000, 1.00000000000000 ) );
#223 = DIRECTION( '', ( 1.00000000000000, 0.000000000000000, 0.000000000000000 ) );
#224 = SURFACE_STYLE_FILL_AREA( #298 );
#225 = ORIENTED_EDGE( '', *, *, #280, .F. );
#226 = ORIENTED_EDGE( '', *, *, #299, .F. );
#227 = ORIENTED_EDGE( '', *, *, #294, .T. );
#228 = ORIENTED_EDGE( '', *, *, #284, .T. );
#229 = CARTESIAN_POINT( '', ( -23.0940107675852, -40.0000000000000, 43.5000000000000 ) );
#230 = DIRECTION( '', ( 1.35208313886343E-015, 1.00000000000000, 0.000000000000000 ) );
#231 = DIRECTION( '', ( -1.00000000000000, 1.35208313886343E-015, 0.000000000000000 ) );
#232 = SURFACE_STYLE_FILL_AREA( #300 );
#233 = ORIENTED_EDGE( '', *, *, #278, .F. );
#234 = ORIENTED_EDGE( '', *, *, #301, .F. );
#235 = ORIENTED_EDGE( '', *, *, #296, .T. );
#236 = ORIENTED_EDGE( '', *, *, #302, .T. );
#237 = CARTESIAN_POINT( '', ( -23.0940107675852, 40.0000000000000, 43.5000000000000 ) );
#238 = DIRECTION( '', ( 0.866025403784435, -0.500000000000006, 0.000000000000000 ) );
#239 = DIRECTION( '', ( 0.500000000000006, 0.866025403784435, 0.000000000000000 ) );
#240 = SURFACE_STYLE_FILL_AREA( #303 );
#241 = ORIENTED_EDGE( '', *, *, #304, .F. );
#242 = CARTESIAN_POINT( '', ( 0.000000000000000, 0.000000000000000, 45.2117936684324 ) );
#243 = DIRECTION( '', ( 0.000000000000000, 0.000000000000000, 1.00000000000000 ) );
#244 = DIRECTION( '', ( 1.00000000000000, 0.000000000000000, 0.000000000000000 ) );
#245 = SURFACE_STYLE_FILL_AREA( #305 );
#246 = ORIENTED_EDGE( '', *, *, #279, .F. );
#247 = ORIENTED_EDGE( '', *, *, #302, .F. );
#248 = ORIENTED_EDGE( '', *, *, #295, .T. );
#249 = ORIENTED_EDGE( '', *, *, #299, .T. );
#250 = CARTESIAN_POINT( '', ( -46.1880215351705, 3.18785737561796E-013, 43.5000000000000 ) );
#251 = DIRECTION( '', ( 0.866025403784438, 0.500000000000001, 0.000000000000000 ) );
#252 = DIRECTION( '', ( -0.500000000000001, 0.866025403784438, 0.000000000000000 ) );
#253 = SURFACE_STYLE_FILL_AREA( #306 );
#254 = ORIENTED_EDGE( '', *, *, #304, .T. );
#255 = ORIENTED_EDGE( '', *, *, #297, .T. );
#256 = CARTESIAN_POINT( '', ( 0.000000000000000, 0.000000000000000, 57.1500000000000 ) );
#257 = DIRECTION( '', ( -0.000000000000000, -0.000000000000000, -1.00000000000000 ) );
#258 = DIRECTION( '', ( 1.00000000000000, 0.000000000000000, 0.000000000000000 ) );
#259 = SURFACE_STYLE_FILL_AREA( #307 );
#260 = ORIENTED_EDGE( '', *, *, #288, .F. );
#261 = ORIENTED_EDGE( '', *, *, #274, .T. );
#262 = CARTESIAN_POINT( '', ( 0.000000000000000, 0.000000000000000, 43.5000000000000 ) );
#263 = DIRECTION( '', ( -0.000000000000000, 0.000000000000000, -1.00000000000000 ) );
#264 = DIRECTION( '', ( -1.00000000000000, 0.000000000000000, 0.000000000000000 ) );
#265 = SURFACE_STYLE_FILL_AREA( #308 );
#266 = ORIENTED_EDGE( '', *, *, #277, .F. );
#267 = ORIENTED_EDGE( '', *, *, #291, .F. );
#268 = ORIENTED_EDGE( '', *, *, #293, .T. );
#269 = ORIENTED_EDGE( '', *, *, #301, .T. );
#270 = CARTESIAN_POINT( '', ( 23.0940107675852, 40.0000000000000, 43.5000000000000 ) );
#271 = DIRECTION( '', ( 0.000000000000000, -1.00000000000000, 0.000000000000000 ) );
#272 = DIRECTION( '', ( 0.000000000000000, 0.000000000000000, -1.00000000000000 ) );
#273 = FILL_AREA_STYLE( '', ( #309 ) );
#274 = EDGE_CURVE( '', #310, #310, #311, .T. );
#275 = EDGE_CURVE( '', #312, #312, #313, .T. );
#276 = FILL_AREA_STYLE( '', ( #314 ) );
#277 = EDGE_CURVE( '', #315, #316, #317, .T. );
#278 = EDGE_CURVE( '', #316, #318, #319, .T. );
#279 = EDGE_CURVE( '', #318, #320, #321, .T. );
#280 = EDGE_CURVE( '', #320, #322, #323, .T. );
#281 = EDGE_CURVE( '', #322, #324, #325, .T. );
#282 = EDGE_CURVE( '', #324, #315, #326, .T. );
#283 = FILL_AREA_STYLE( '', ( #327 ) );
#284 = EDGE_CURVE( '', #328, #322, #329, .T. );
#285 = EDGE_CURVE( '', #328, #330, #331, .T. );
#286 = EDGE_CURVE( '', #330, #324, #332, .T. );
#287 = FILL_AREA_STYLE( '', ( #333 ) );
#288 = EDGE_CURVE( '', #334, #334, #335, .T. );
#289 = FILL_AREA_STYLE( '', ( #336 ) );
#290 = EDGE_CURVE( '', #330, #337, #338, .T. );
#291 = EDGE_CURVE( '', #337, #315, #339, .T. );
#292 = FILL_AREA_STYLE( '', ( #340 ) );
#293 = EDGE_CURVE( '', #337, #341, #342, .T. );
#294 = EDGE_CURVE( '', #343, #328, #344, .T. );
#295 = EDGE_CURVE( '', #345, #343, #346, .T. );
#296 = EDGE_CURVE( '', #341, #345, #347, .T. );
#297 = EDGE_CURVE( '', #348, #348, #349, .F. );
#298 = FILL_AREA_STYLE( '', ( #350 ) );
#299 = EDGE_CURVE( '', #343, #320, #351, .T. );
#300 = FILL_AREA_STYLE( '', ( #352 ) );
#301 = EDGE_CURVE( '', #341, #316, #353, .T. );
#302 = EDGE_CURVE( '', #345, #318, #354, .T. );
#303 = FILL_AREA_STYLE( '', ( #355 ) );
#304 = EDGE_CURVE( '', #356, #356, #357, .T. );
#305 = FILL_AREA_STYLE( '', ( #358 ) );
#306 = FILL_AREA_STYLE( '', ( #359 ) );
#307 = FILL_AREA_STYLE( '', ( #360 ) );
#308 = FILL_AREA_STYLE( '', ( #361 ) );
#309 = FILL_AREA_STYLE_COLOUR( '', #362 );
#310 = VERTEX_POINT( '', #363 );
#311 = CIRCLE( '', #364, 49.0000000000000 );
#312 = VERTEX_POINT( '', #365 );
#313 = CIRCLE( '', #366, 49.0000000000000 );
#314 = FILL_AREA_STYLE_COLOUR( '', #367 );
#315 = VERTEX_POINT( '', #368 );
#316 = VERTEX_POINT( '', #369 );
#317 = LINE( '', #370, #371 );
#318 = VERTEX_POINT( '', #372 );
#319 = LINE( '', #373, #374 );
#320 = VERTEX_POINT( '', #375 );
#321 = LINE( '', #376, #377 );
#322 = VERTEX_POINT( '', #378 );
#323 = LINE( '', #379, #380 );
#324 = VERTEX_POINT( '', #381 );
#325 = LINE( '', #382, #383 );
#326 = LINE( '', #384, #385 );
#327 = FILL_AREA_STYLE_COLOUR( '', #386 );
#328 = VERTEX_POINT( '', #387 );
#329 = LINE( '', #388, #389 );
#330 = VERTEX_POINT( '', #390 );
#331 = LINE( '', #391, #392 );
#332 = LINE( '', #393, #394 );
#333 = FILL_AREA_STYLE_COLOUR( '', #395 );
#334 = VERTEX_POINT( '', #396 );
#335 = CIRCLE( '', #397, 47.5185419213060 );
#336 = FILL_AREA_STYLE_COLOUR( '', #398 );
#337 = VERTEX_POINT( '', #399 );
#338 = LINE( '', #400, #401 );
#339 = LINE( '', #402, #403 );
#340 = FILL_AREA_STYLE_COLOUR( '', #404 );
#341 = VERTEX_POINT( '', #405 );
#342 = LINE( '', #406, #407 );
#343 = VERTEX_POINT( '', #408 );
#344 = LINE( '', #409, #410 );
#345 = VERTEX_POINT( '', #411 );
#346 = LINE( '', #412, #413 );
#347 = LINE( '', #414, #415 );
#348 = VERTEX_POINT( '', #416 );
#349 = CIRCLE( '', #417, 38.1882063315676 );
#350 = FILL_AREA_STYLE_COLOUR( '', #418 );
#351 = LINE( '', #419, #420 );
#352 = FILL_AREA_STYLE_COLOUR( '', #421 );
#353 = LINE( '', #422, #423 );
#354 = LINE( '', #424, #425 );
#355 = FILL_AREA_STYLE_COLOUR( '', #426 );
#356 = VERTEX_POINT( '', #427 );
#357 = CIRCLE( '', #428, 38.1882063315676 );
#358 = FILL_AREA_STYLE_COLOUR( '', #429 );
#359 = FILL_AREA_STYLE_COLOUR( '', #430 );
#360 = FILL_AREA_STYLE_COLOUR( '', #431 );
#361 = FILL_AREA_STYLE_COLOUR( '', #432 );
#362 = COLOUR_RGB( '', 0.200000002980232, 0.200000002980232, 0.200000002980232 );
#363 = CARTESIAN_POINT( '', ( 49.0000000000000, 0.000000000000000, 43.5000000000000 ) );
#364 = AXIS2_PLACEMENT_3D( '', #433, #434, #435 );
#365 = CARTESIAN_POINT( '', ( 49.0000000000000, 0.000000000000000, 0.000000000000000 ) );
#366 = AXIS2_PLACEMENT_3D( '', #436, #437, #438 );
#367 = COLOUR_RGB( '', 0.200000002980232, 0.200000002980232, 0.200000002980232 );
#368 = CARTESIAN_POINT( '', ( 23.0940107675852, 40.0000000000000, 0.000000000000000 ) );
#369 = CARTESIAN_POINT( '', ( -23.0940107675852, 40.0000000000000, 0.000000000000000 ) );
#370 = CARTESIAN_POINT( '', ( 23.0940107675852, 40.0000000000000, 0.000000000000000 ) );
#371 = VECTOR( '', #439, 1000.00000000000 );
#372 = CARTESIAN_POINT( '', ( -46.1880215351705, 3.19189119579733E-013, 0.000000000000000 ) );
#373 = CARTESIAN_POINT( '', ( -23.0940107675852, 40.0000000000000, 0.000000000000000 ) );
#374 = VECTOR( '', #440, 1000.00000000000 );
#375 = CARTESIAN_POINT( '', ( -23.0940107675852, -40.0000000000000, 0.000000000000000 ) );
#376 = CARTESIAN_POINT( '', ( -46.1880215351705, 3.18785737561796E-013, 0.000000000000000 ) );
#377 = VECTOR( '', #441, 999.999999999999 );
#378 = CARTESIAN_POINT( '', ( 23.0940107675852, -40.0000000000000, 0.000000000000000 ) );
#379 = CARTESIAN_POINT( '', ( -23.0940107675852, -40.0000000000000, 0.000000000000000 ) );
#380 = VECTOR( '', #442, 1000.00000000000 );
#381 = CARTESIAN_POINT( '', ( 46.1880215351705, 3.19189119579733E-013, 0.000000000000000 ) );
#382 = CARTESIAN_POINT( '', ( 23.0940107675852, -40.0000000000000, 0.000000000000000 ) );
#383 = VECTOR( '', #443, 999.999999999999 );
#384 = CARTESIAN_POINT( '', ( 46.1880215351705, 3.13129336288596E-013, 0.000000000000000 ) );
#385 = VECTOR( '', #444, 1000.00000000000 );
#386 = COLOUR_RGB( '', 0.200000002980232, 0.200000002980232, 0.200000002980232 );
#387 = CARTESIAN_POINT( '', ( 23.0940107675852, -40.0000000000000, 43.5000000000000 ) );
#388 = CARTESIAN_POINT( '', ( 23.0940107675852, -40.0000000000000, 43.5000000000000 ) );
#389 = VECTOR( '', #445, 1000.00000000000 );
#390 = CARTESIAN_POINT( '', ( 46.1880215351705, 3.19189119579733E-013, 43.5000000000000 ) );
#391 = CARTESIAN_POINT( '', ( 23.0940107675852, -40.0000000000000, 43.5000000000000 ) );
#392 = VECTOR( '', #446, 999.999999999999 );
#393 = CARTESIAN_POINT( '', ( 46.1880215351705, 3.19189119579733E-013, 43.5000000000000 ) );
#394 = VECTOR( '', #447, 1000.00000000000 );
#395 = COLOUR_RGB( '', 0.200000002980232, 0.200000002980232, 0.200000002980232 );
#396 = CARTESIAN_POINT( '', ( 47.5185419213060, 0.000000000000000, 44.9814580786940 ) );
#397 = AXIS2_PLACEMENT_3D( '', #448, #449, #450 );
#398 = COLOUR_RGB( '', 0.200000002980232, 0.200000002980232, 0.200000002980232 );
#399 = CARTESIAN_POINT( '', ( 23.0940107675852, 40.0000000000000, 43.5000000000000 ) );
#400 = CARTESIAN_POINT( '', ( 46.1880215351705, 3.13129336288596E-013, 43.5000000000000 ) );
#401 = VECTOR( '', #451, 1000.00000000000 );
#402 = CARTESIAN_POINT( '', ( 23.0940107675852, 40.0000000000000, 43.5000000000000 ) );
#403 = VECTOR( '', #452, 1000.00000000000 );
#404 = COLOUR_RGB( '', 0.200000002980232, 0.200000002980232, 0.200000002980232 );
#405 = CARTESIAN_POINT( '', ( -23.0940107675852, 40.0000000000000, 43.5000000000000 ) );
#406 = CARTESIAN_POINT( '', ( 23.0940107675852, 40.0000000000000, 43.5000000000000 ) );
#407 = VECTOR( '', #453, 1000.00000000000 );
#408 = CARTESIAN_POINT( '', ( -23.0940107675852, -40.0000000000000, 43.5000000000000 ) );
#409 = CARTESIAN_POINT( '', ( -23.0940107675852, -40.0000000000000, 43.5000000000000 ) );
#410 = VECTOR( '', #454, 1000.00000000000 );
#411 = CARTESIAN_POINT( '', ( -46.1880215351705, 3.19189119579733E-013, 43.5000000000000 ) );
#412 = CARTESIAN_POINT( '', ( -46.1880215351705, 3.18785737561796E-013, 43.5000000000000 ) );
#413 = VECTOR( '', #455, 999.999999999999 );
#414 = CARTESIAN_POINT( '', ( -23.0940107675852, 40.0000000000000, 43.5000000000000 ) );
#415 = VECTOR( '', #456, 1000.00000000000 );
#416 = CARTESIAN_POINT( '', ( 38.1882063315676, 0.000000000000000, 43.5000000000000 ) );
#417 = AXIS2_PLACEMENT_3D( '', #457, #458, #459 );
#418 = COLOUR_RGB( '', 0.200000002980232, 0.200000002980232, 0.200000002980232 );
#419 = CARTESIAN_POINT( '', ( -23.0940107675852, -40.0000000000000, 43.5000000000000 ) );
#420 = VECTOR( '', #460, 1000.00000000000 );
#421 = COLOUR_RGB( '', 0.200000002980232, 0.200000002980232, 0.200000002980232 );
#422 = CARTESIAN_POINT( '', ( -23.0940107675852, 40.0000000000000, 43.5000000000000 ) );
#423 = VECTOR( '', #461, 1000.00000000000 );
#424 = CARTESIAN_POINT( '', ( -46.1880215351705, 3.19189119579733E-013, 43.5000000000000 ) );
#425 = VECTOR( '', #462, 1000.00000000000 );
#426 = COLOUR_RGB( '', 0.200000002980232, 0.200000002980232, 0.200000002980232 );
#427 = CARTESIAN_POINT( '', ( 38.1882063315676, 0.000000000000000, 45.2117936684324 ) );
#428 = AXIS2_PLACEMENT_3D( '', #463, #464, #465 );
#429 = COLOUR_RGB( '', 0.200000002980232, 0.200000002980232, 0.200000002980232 );
#430 = COLOUR_RGB( '', 0.200000002980232, 0.200000002980232, 0.200000002980232 );
#431 = COLOUR_RGB( '', 0.200000002980232, 0.200000002980232, 0.200000002980232 );
#432 = COLOUR_RGB( '', 0.200000002980232, 0.200000002980232, 0.200000002980232 );
#433 = CARTESIAN_POINT( '', ( 0.000000000000000, 0.000000000000000, 43.5000000000000 ) );
#434 = DIRECTION( '', ( 0.000000000000000, 0.000000000000000, 1.00000000000000 ) );
#435 = DIRECTION( '', ( 1.00000000000000, 0.000000000000000, 0.000000000000000 ) );
#436 = CARTESIAN_POINT( '', ( 0.000000000000000, 0.000000000000000, 0.000000000000000 ) );
#437 = DIRECTION( '', ( 0.000000000000000, 0.000000000000000, 1.00000000000000 ) );
#438 = DIRECTION( '', ( 1.00000000000000, 0.000000000000000, 0.000000000000000 ) );
#439 = DIRECTION( '', ( -1.00000000000000, 0.000000000000000, 0.000000000000000 ) );
#440 = DIRECTION( '', ( -0.500000000000006, -0.866025403784435, 0.000000000000000 ) );
#441 = DIRECTION( '', ( 0.500000000000001, -0.866025403784438, 0.000000000000000 ) );
#442 = DIRECTION( '', ( 1.00000000000000, -1.35208313886343E-015, 0.000000000000000 ) );
#443 = DIRECTION( '', ( 0.500000000000001, 0.866025403784438, 0.000000000000000 ) );
#444 = DIRECTION( '', ( -0.500000000000006, 0.866025403784435, 0.000000000000000 ) );
#445 = DIRECTION( '', ( 0.000000000000000, 0.000000000000000, -1.00000000000000 ) );
#446 = DIRECTION( '', ( 0.500000000000001, 0.866025403784438, 0.000000000000000 ) );
#447 = DIRECTION( '', ( 0.000000000000000, 0.000000000000000, -1.00000000000000 ) );
#448 = CARTESIAN_POINT( '', ( 0.000000000000000, 0.000000000000000, 44.9814580786940 ) );
#449 = DIRECTION( '', ( 0.000000000000000, 0.000000000000000, 1.00000000000000 ) );
#450 = DIRECTION( '', ( 1.00000000000000, 0.000000000000000, 0.000000000000000 ) );
#451 = DIRECTION( '', ( -0.500000000000006, 0.866025403784435, 0.000000000000000 ) );
#452 = DIRECTION( '', ( 0.000000000000000, 0.000000000000000, -1.00000000000000 ) );
#453 = DIRECTION( '', ( -1.00000000000000, 0.000000000000000, 0.000000000000000 ) );
#454 = DIRECTION( '', ( 1.00000000000000, -1.35208313886343E-015, 0.000000000000000 ) );
#455 = DIRECTION( '', ( 0.500000000000001, -0.866025403784438, 0.000000000000000 ) );
#456 = DIRECTION( '', ( -0.500000000000006, -0.866025403784435, 0.000000000000000 ) );
#457 = CARTESIAN_POINT( '', ( 0.000000000000000, 0.000000000000000, 43.5000000000000 ) );
#458 = DIRECTION( '', ( 0.000000000000000, 0.000000000000000, 1.00000000000000 ) );
#459 = DIRECTION( '', ( 1.00000000000000, 0.000000000000000, 0.000000000000000 ) );
#460 = DIRECTION( '', ( 0.000000000000000, 0.000000000000000, -1.00000000000000 ) );
#461 = DIRECTION( '', ( 0.000000000000000, 0.000000000000000, -1.00000000000000 ) );
#462 = DIRECTION( '', ( 0.000000000000000, 0.000000000000000, -1.00000000000000 ) );
#463 = CARTESIAN_POINT( '', ( 0.000000000000000, 0.000000000000000, 45.2117936684324 ) );
#464 = DIRECTION( '', ( 0.000000000000000, 0.000000000000000, 1.00000000000000 ) );
#465 = DIRECTION( '', ( 1.00000000000000, 0.000000000000000, 0.000000000000000 ) );
ENDSEC;
END-ISO-10303-21;
