ISO-10303-21;
HEADER;
FILE_DESCRIPTION( ( 'Unknown' ), '1' );
FILE_NAME( '//SBS2003/HD_Usb/Disegni/08_LIB/Users_3D/PROD_GAMM_3D/CD/7371493_CD85.stp', 'Unknown', ( 'Unknown' ), ( 'Unknown' ), 'PSStep 14.0', 'Unknown', '  ' );
FILE_SCHEMA( ( 'AUTOMOTIVE_DESIGN { 1 0 10303 214 1 1 1 1 }' ) );
ENDSEC;
DATA;
#1 = MECHANICAL_DESIGN_GEOMETRIC_PRESENTATION_REPRESENTATION( ' ', ( #10, #11, #12, #13, #14, #15, #16, #17, #18, #19, #20, #21, #22 ), #6 );
#2 = PRODUCT_DEFINITION_CONTEXT( '', #23, 'design' );
#3 = APPLICATION_PROTOCOL_DEFINITION( 'international standard', 'automotive_design', 2001, #23 );
#4 = PRODUCT_CATEGORY_RELATIONSHIP( 'NONE', 'NONE', #24, #25 );
#5 = SHAPE_DEFINITION_REPRESENTATION( #26, #27 );
#6 =  ( GEOMETRIC_REPRESENTATION_CONTEXT( 3 )GLOBAL_UNCERTAINTY_ASSIGNED_CONTEXT( ( #30 ) )GLOBAL_UNIT_ASSIGNED_CONTEXT( ( #32, #33, #34 ) )REPRESENTATION_CONTEXT( 'NONE', 'WORKSPACE' ) );
#10 = STYLED_ITEM( '', ( #36 ), #37 );
#11 = STYLED_ITEM( '', ( #38 ), #39 );
#12 = STYLED_ITEM( '', ( #40 ), #41 );
#13 = STYLED_ITEM( '', ( #42 ), #43 );
#14 = STYLED_ITEM( '', ( #44 ), #45 );
#15 = STYLED_ITEM( '', ( #46 ), #47 );
#16 = STYLED_ITEM( '', ( #48 ), #49 );
#17 = STYLED_ITEM( '', ( #50 ), #51 );
#18 = STYLED_ITEM( '', ( #52 ), #53 );
#19 = STYLED_ITEM( '', ( #54 ), #55 );
#20 = STYLED_ITEM( '', ( #56 ), #57 );
#21 = STYLED_ITEM( '', ( #58 ), #59 );
#22 = STYLED_ITEM( '', ( #60 ), #61 );
#23 = APPLICATION_CONTEXT( 'core data for automotive mechanical design processes' );
#24 = PRODUCT_CATEGORY( 'part', 'NONE' );
#25 = PRODUCT_RELATED_PRODUCT_CATEGORY( 'detail', ' ', ( #62 ) );
#26 = PRODUCT_DEFINITION_SHAPE( 'NONE', 'NONE', #63 );
#27 = ADVANCED_BREP_SHAPE_REPRESENTATION( '1', ( #64, #65 ), #6 );
#30 = UNCERTAINTY_MEASURE_WITH_UNIT( LENGTH_MEASURE( 0.00100000000000000 ), #32, '', '' );
#32 =  ( CONVERSION_BASED_UNIT( 'MILLIMETRE', #68 )LENGTH_UNIT(  )NAMED_UNIT( #71 ) );
#33 =  ( NAMED_UNIT( #73 )PLANE_ANGLE_UNIT(  )SI_UNIT( $, .RADIAN. ) );
#34 =  ( NAMED_UNIT( #73 )SI_UNIT( $, .STERADIAN. )SOLID_ANGLE_UNIT(  ) );
#36 = PRESENTATION_STYLE_ASSIGNMENT( ( #79 ) );
#37 = ADVANCED_FACE( '', ( #80 ), #81, .T. );
#38 = PRESENTATION_STYLE_ASSIGNMENT( ( #82 ) );
#39 = ADVANCED_FACE( '', ( #83, #84 ), #85, .T. );
#40 = PRESENTATION_STYLE_ASSIGNMENT( ( #86 ) );
#41 = ADVANCED_FACE( '', ( #87, #88 ), #89, .T. );
#42 = PRESENTATION_STYLE_ASSIGNMENT( ( #90 ) );
#43 = ADVANCED_FACE( '', ( #91 ), #92, .T. );
#44 = PRESENTATION_STYLE_ASSIGNMENT( ( #93 ) );
#45 = ADVANCED_FACE( '', ( #94 ), #95, .F. );
#46 = PRESENTATION_STYLE_ASSIGNMENT( ( #96 ) );
#47 = ADVANCED_FACE( '', ( #97 ), #98, .T. );
#48 = PRESENTATION_STYLE_ASSIGNMENT( ( #99 ) );
#49 = ADVANCED_FACE( '', ( #100 ), #101, .T. );
#50 = PRESENTATION_STYLE_ASSIGNMENT( ( #102 ) );
#51 = ADVANCED_FACE( '', ( #103 ), #104, .T. );
#52 = PRESENTATION_STYLE_ASSIGNMENT( ( #105 ) );
#53 = ADVANCED_FACE( '', ( #106, #107 ), #108, .F. );
#54 = PRESENTATION_STYLE_ASSIGNMENT( ( #109 ) );
#55 = ADVANCED_FACE( '', ( #110 ), #111, .T. );
#56 = PRESENTATION_STYLE_ASSIGNMENT( ( #112 ) );
#57 = ADVANCED_FACE( '', ( #113, #114 ), #115, .F. );
#58 = PRESENTATION_STYLE_ASSIGNMENT( ( #116 ) );
#59 = ADVANCED_FACE( '', ( #117, #118 ), #119, .F. );
#60 = PRESENTATION_STYLE_ASSIGNMENT( ( #120 ) );
#61 = ADVANCED_FACE( '', ( #121 ), #122, .T. );
#62 = PRODUCT( '1', '1', 'PART-1-DESC', ( #123 ) );
#63 = PRODUCT_DEFINITION( 'NONE', 'NONE', #124, #2 );
#64 = MANIFOLD_SOLID_BREP( '1', #125 );
#65 = AXIS2_PLACEMENT_3D( '', #126, #127, #128 );
#68 = LENGTH_MEASURE_WITH_UNIT( LENGTH_MEASURE( 1.00000000000000 ), #129 );
#71 = DIMENSIONAL_EXPONENTS( 1.00000000000000, 0.000000000000000, 0.000000000000000, 0.000000000000000, 0.000000000000000, 0.000000000000000, 0.000000000000000 );
#73 = DIMENSIONAL_EXPONENTS( 0.000000000000000, 0.000000000000000, 0.000000000000000, 0.000000000000000, 0.000000000000000, 0.000000000000000, 0.000000000000000 );
#79 = SURFACE_STYLE_USAGE( .BOTH., #130 );
#80 = FACE_OUTER_BOUND( '', #131, .T. );
#81 = PLANE( '', #132 );
#82 = SURFACE_STYLE_USAGE( .BOTH., #133 );
#83 = FACE_BOUND( '', #134, .T. );
#84 = FACE_OUTER_BOUND( '', #135, .T. );
#85 = CONICAL_SURFACE( '', #136, 52.1000000000000, 0.785398163397449 );
#86 = SURFACE_STYLE_USAGE( .BOTH., #137 );
#87 = FACE_OUTER_BOUND( '', #138, .T. );
#88 = FACE_OUTER_BOUND( '', #139, .T. );
#89 = CYLINDRICAL_SURFACE( '', #140, 52.1000000000000 );
#90 = SURFACE_STYLE_USAGE( .BOTH., #141 );
#91 = FACE_OUTER_BOUND( '', #142, .T. );
#92 = SPHERICAL_SURFACE( '', #143, 50.0000000000000 );
#93 = SURFACE_STYLE_USAGE( .BOTH., #144 );
#94 = FACE_OUTER_BOUND( '', #145, .T. );
#95 = SPHERICAL_SURFACE( '', #146, 39.6394398947469 );
#96 = SURFACE_STYLE_USAGE( .BOTH., #147 );
#97 = FACE_OUTER_BOUND( '', #148, .T. );
#98 = PLANE( '', #149 );
#99 = SURFACE_STYLE_USAGE( .BOTH., #150 );
#100 = FACE_OUTER_BOUND( '', #151, .T. );
#101 = PLANE( '', #152 );
#102 = SURFACE_STYLE_USAGE( .BOTH., #153 );
#103 = FACE_OUTER_BOUND( '', #154, .T. );
#104 = PLANE( '', #155 );
#105 = SURFACE_STYLE_USAGE( .BOTH., #156 );
#106 = FACE_OUTER_BOUND( '', #157, .T. );
#107 = FACE_BOUND( '', #158, .T. );
#108 = PLANE( '', #159 );
#109 = SURFACE_STYLE_USAGE( .BOTH., #160 );
#110 = FACE_OUTER_BOUND( '', #161, .T. );
#111 = PLANE( '', #162 );
#112 = SURFACE_STYLE_USAGE( .BOTH., #163 );
#113 = FACE_OUTER_BOUND( '', #164, .T. );
#114 = FACE_BOUND( '', #165, .T. );
#115 = PLANE( '', #166 );
#116 = SURFACE_STYLE_USAGE( .BOTH., #167 );
#117 = FACE_OUTER_BOUND( '', #168, .T. );
#118 = FACE_OUTER_BOUND( '', #169, .T. );
#119 = CYLINDRICAL_SURFACE( '', #170, 39.6394398947469 );
#120 = SURFACE_STYLE_USAGE( .BOTH., #171 );
#121 = FACE_OUTER_BOUND( '', #172, .T. );
#122 = PLANE( '', #173 );
#123 = PRODUCT_CONTEXT( '', #23, 'mechanical' );
#124 = PRODUCT_DEFINITION_FORMATION_WITH_SPECIFIED_SOURCE( ' ', 'NONE', #62, .NOT_KNOWN. );
#125 = CLOSED_SHELL( '', ( #57, #53, #47, #49, #41, #61, #37, #51, #55, #59, #45, #43, #39 ) );
#126 = CARTESIAN_POINT( '', ( 0.000000000000000, 0.000000000000000, 0.000000000000000 ) );
#127 = DIRECTION( '', ( 0.000000000000000, 0.000000000000000, 1.00000000000000 ) );
#128 = DIRECTION( '', ( 1.00000000000000, 0.000000000000000, 0.000000000000000 ) );
#129 =  ( LENGTH_UNIT(  )NAMED_UNIT( #71 )SI_UNIT( .MILLI., .METRE. ) );
#130 = SURFACE_SIDE_STYLE( '', ( #175 ) );
#131 = EDGE_LOOP( '', ( #176, #177, #178, #179 ) );
#132 = AXIS2_PLACEMENT_3D( '', #180, #181, #182 );
#133 = SURFACE_SIDE_STYLE( '', ( #183 ) );
#134 = EDGE_LOOP( '', ( #184 ) );
#135 = EDGE_LOOP( '', ( #185 ) );
#136 = AXIS2_PLACEMENT_3D( '', #186, #187, #188 );
#137 = SURFACE_SIDE_STYLE( '', ( #189 ) );
#138 = EDGE_LOOP( '', ( #190 ) );
#139 = EDGE_LOOP( '', ( #191 ) );
#140 = AXIS2_PLACEMENT_3D( '', #192, #193, #194 );
#141 = SURFACE_SIDE_STYLE( '', ( #195 ) );
#142 = EDGE_LOOP( '', ( #196 ) );
#143 = AXIS2_PLACEMENT_3D( '', #197, #198, #199 );
#144 = SURFACE_SIDE_STYLE( '', ( #200 ) );
#145 = EDGE_LOOP( '', ( #201 ) );
#146 = AXIS2_PLACEMENT_3D( '', #202, #203, #204 );
#147 = SURFACE_SIDE_STYLE( '', ( #205 ) );
#148 = EDGE_LOOP( '', ( #206, #207, #208, #209 ) );
#149 = AXIS2_PLACEMENT_3D( '', #210, #211, #212 );
#150 = SURFACE_SIDE_STYLE( '', ( #213 ) );
#151 = EDGE_LOOP( '', ( #214, #215, #216, #217 ) );
#152 = AXIS2_PLACEMENT_3D( '', #218, #219, #220 );
#153 = SURFACE_SIDE_STYLE( '', ( #221 ) );
#154 = EDGE_LOOP( '', ( #222, #223, #224, #225 ) );
#155 = AXIS2_PLACEMENT_3D( '', #226, #227, #228 );
#156 = SURFACE_SIDE_STYLE( '', ( #229 ) );
#157 = EDGE_LOOP( '', ( #230 ) );
#158 = EDGE_LOOP( '', ( #231, #232, #233, #234, #235, #236 ) );
#159 = AXIS2_PLACEMENT_3D( '', #237, #238, #239 );
#160 = SURFACE_SIDE_STYLE( '', ( #240 ) );
#161 = EDGE_LOOP( '', ( #241, #242, #243, #244 ) );
#162 = AXIS2_PLACEMENT_3D( '', #245, #246, #247 );
#163 = SURFACE_SIDE_STYLE( '', ( #248 ) );
#164 = EDGE_LOOP( '', ( #249, #250, #251, #252, #253, #254 ) );
#165 = EDGE_LOOP( '', ( #255 ) );
#166 = AXIS2_PLACEMENT_3D( '', #256, #257, #258 );
#167 = SURFACE_SIDE_STYLE( '', ( #259 ) );
#168 = EDGE_LOOP( '', ( #260 ) );
#169 = EDGE_LOOP( '', ( #261 ) );
#170 = AXIS2_PLACEMENT_3D( '', #262, #263, #264 );
#171 = SURFACE_SIDE_STYLE( '', ( #265 ) );
#172 = EDGE_LOOP( '', ( #266, #267, #268, #269 ) );
#173 = AXIS2_PLACEMENT_3D( '', #270, #271, #272 );
#175 = SURFACE_STYLE_FILL_AREA( #273 );
#176 = ORIENTED_EDGE( '', *, *, #274, .F. );
#177 = ORIENTED_EDGE( '', *, *, #275, .F. );
#178 = ORIENTED_EDGE( '', *, *, #276, .T. );
#179 = ORIENTED_EDGE( '', *, *, #277, .T. );
#180 = CARTESIAN_POINT( '', ( 24.5373864405592, 42.5000000000000, 48.0000000000000 ) );
#181 = DIRECTION( '', ( 0.000000000000000, -1.00000000000000, 0.000000000000000 ) );
#182 = DIRECTION( '', ( 0.000000000000000, 0.000000000000000, -1.00000000000000 ) );
#183 = SURFACE_STYLE_FILL_AREA( #278 );
#184 = ORIENTED_EDGE( '', *, *, #279, .F. );
#185 = ORIENTED_EDGE( '', *, *, #280, .T. );
#186 = CARTESIAN_POINT( '', ( 0.000000000000000, 0.000000000000000, 48.0000000000000 ) );
#187 = DIRECTION( '', ( -0.000000000000000, 0.000000000000000, -1.00000000000000 ) );
#188 = DIRECTION( '', ( -1.00000000000000, 0.000000000000000, 0.000000000000000 ) );
#189 = SURFACE_STYLE_FILL_AREA( #281 );
#190 = ORIENTED_EDGE( '', *, *, #280, .F. );
#191 = ORIENTED_EDGE( '', *, *, #282, .T. );
#192 = CARTESIAN_POINT( '', ( 0.000000000000000, 0.000000000000000, 57.1500000000000 ) );
#193 = DIRECTION( '', ( -0.000000000000000, -0.000000000000000, -1.00000000000000 ) );
#194 = DIRECTION( '', ( 1.00000000000000, 0.000000000000000, 0.000000000000000 ) );
#195 = SURFACE_STYLE_FILL_AREA( #283 );
#196 = ORIENTED_EDGE( '', *, *, #279, .T. );
#197 = CARTESIAN_POINT( '', ( 0.000000000000000, 0.000000000000000, 41.6000000000000 ) );
#198 = DIRECTION( '', ( 0.000000000000000, 0.000000000000000, 1.00000000000000 ) );
#199 = DIRECTION( '', ( 1.00000000000000, 0.000000000000000, 0.000000000000000 ) );
#200 = SURFACE_STYLE_FILL_AREA( #284 );
#201 = ORIENTED_EDGE( '', *, *, #285, .F. );
#202 = CARTESIAN_POINT( '', ( 0.000000000000000, 0.000000000000000, 48.9605601052532 ) );
#203 = DIRECTION( '', ( 0.000000000000000, 0.000000000000000, 1.00000000000000 ) );
#204 = DIRECTION( '', ( 1.00000000000000, 0.000000000000000, 0.000000000000000 ) );
#205 = SURFACE_STYLE_FILL_AREA( #286 );
#206 = ORIENTED_EDGE( '', *, *, #287, .F. );
#207 = ORIENTED_EDGE( '', *, *, #288, .F. );
#208 = ORIENTED_EDGE( '', *, *, #289, .T. );
#209 = ORIENTED_EDGE( '', *, *, #290, .T. );
#210 = CARTESIAN_POINT( '', ( -24.5373864405592, -42.5000000000000, 48.0000000000000 ) );
#211 = DIRECTION( '', ( 8.48365891051566E-016, 1.00000000000000, 0.000000000000000 ) );
#212 = DIRECTION( '', ( -1.00000000000000, 8.48365891051566E-016, 0.000000000000000 ) );
#213 = SURFACE_STYLE_FILL_AREA( #291 );
#214 = ORIENTED_EDGE( '', *, *, #292, .F. );
#215 = ORIENTED_EDGE( '', *, *, #290, .F. );
#216 = ORIENTED_EDGE( '', *, *, #293, .T. );
#217 = ORIENTED_EDGE( '', *, *, #294, .T. );
#218 = CARTESIAN_POINT( '', ( 24.5373864405592, -42.5000000000000, 48.0000000000000 ) );
#219 = DIRECTION( '', ( -0.866025403784438, 0.500000000000001, 0.000000000000000 ) );
#220 = DIRECTION( '', ( -0.500000000000001, -0.866025403784438, 0.000000000000000 ) );
#221 = SURFACE_STYLE_FILL_AREA( #295 );
#222 = ORIENTED_EDGE( '', *, *, #296, .F. );
#223 = ORIENTED_EDGE( '', *, *, #277, .F. );
#224 = ORIENTED_EDGE( '', *, *, #297, .T. );
#225 = ORIENTED_EDGE( '', *, *, #298, .T. );
#226 = CARTESIAN_POINT( '', ( -24.5373864405592, 42.5000000000000, 48.0000000000000 ) );
#227 = DIRECTION( '', ( 0.866025403784435, -0.500000000000007, 0.000000000000000 ) );
#228 = DIRECTION( '', ( 0.500000000000007, 0.866025403784435, 0.000000000000000 ) );
#229 = SURFACE_STYLE_FILL_AREA( #299 );
#230 = ORIENTED_EDGE( '', *, *, #282, .F. );
#231 = ORIENTED_EDGE( '', *, *, #274, .T. );
#232 = ORIENTED_EDGE( '', *, *, #296, .T. );
#233 = ORIENTED_EDGE( '', *, *, #300, .T. );
#234 = ORIENTED_EDGE( '', *, *, #287, .T. );
#235 = ORIENTED_EDGE( '', *, *, #292, .T. );
#236 = ORIENTED_EDGE( '', *, *, #301, .T. );
#237 = CARTESIAN_POINT( '', ( 1.32414564028059E-014, 0.000000000000000, 0.000000000000000 ) );
#238 = DIRECTION( '', ( 0.000000000000000, 0.000000000000000, 1.00000000000000 ) );
#239 = DIRECTION( '', ( 1.00000000000000, 0.000000000000000, 0.000000000000000 ) );
#240 = SURFACE_STYLE_FILL_AREA( #302 );
#241 = ORIENTED_EDGE( '', *, *, #300, .F. );
#242 = ORIENTED_EDGE( '', *, *, #298, .F. );
#243 = ORIENTED_EDGE( '', *, *, #303, .T. );
#244 = ORIENTED_EDGE( '', *, *, #288, .T. );
#245 = CARTESIAN_POINT( '', ( -49.0747728811187, 3.41178734025980E-013, 48.0000000000000 ) );
#246 = DIRECTION( '', ( 0.866025403784438, 0.500000000000001, 0.000000000000000 ) );
#247 = DIRECTION( '', ( -0.500000000000001, 0.866025403784438, 0.000000000000000 ) );
#248 = SURFACE_STYLE_FILL_AREA( #304 );
#249 = ORIENTED_EDGE( '', *, *, #276, .F. );
#250 = ORIENTED_EDGE( '', *, *, #305, .F. );
#251 = ORIENTED_EDGE( '', *, *, #293, .F. );
#252 = ORIENTED_EDGE( '', *, *, #289, .F. );
#253 = ORIENTED_EDGE( '', *, *, #303, .F. );
#254 = ORIENTED_EDGE( '', *, *, #297, .F. );
#255 = ORIENTED_EDGE( '', *, *, #306, .F. );
#256 = CARTESIAN_POINT( '', ( 0.000000000000000, 0.000000000000000, 48.0000000000000 ) );
#257 = DIRECTION( '', ( 0.000000000000000, 0.000000000000000, 1.00000000000000 ) );
#258 = DIRECTION( '', ( 1.00000000000000, 0.000000000000000, 0.000000000000000 ) );
#259 = SURFACE_STYLE_FILL_AREA( #307 );
#260 = ORIENTED_EDGE( '', *, *, #285, .T. );
#261 = ORIENTED_EDGE( '', *, *, #306, .T. );
#262 = CARTESIAN_POINT( '', ( 0.000000000000000, 0.000000000000000, 57.1500000000000 ) );
#263 = DIRECTION( '', ( -0.000000000000000, -0.000000000000000, -1.00000000000000 ) );
#264 = DIRECTION( '', ( 1.00000000000000, 0.000000000000000, 0.000000000000000 ) );
#265 = SURFACE_STYLE_FILL_AREA( #308 );
#266 = ORIENTED_EDGE( '', *, *, #301, .F. );
#267 = ORIENTED_EDGE( '', *, *, #294, .F. );
#268 = ORIENTED_EDGE( '', *, *, #305, .T. );
#269 = ORIENTED_EDGE( '', *, *, #275, .T. );
#270 = CARTESIAN_POINT( '', ( 49.0747728811187, 3.35168807673205E-013, 48.0000000000000 ) );
#271 = DIRECTION( '', ( -0.866025403784435, -0.500000000000007, 0.000000000000000 ) );
#272 = DIRECTION( '', ( 0.500000000000007, -0.866025403784435, 0.000000000000000 ) );
#273 = FILL_AREA_STYLE( '', ( #309 ) );
#274 = EDGE_CURVE( '', #310, #311, #312, .T. );
#275 = EDGE_CURVE( '', #313, #310, #314, .T. );
#276 = EDGE_CURVE( '', #313, #315, #316, .T. );
#277 = EDGE_CURVE( '', #315, #311, #317, .T. );
#278 = FILL_AREA_STYLE( '', ( #318 ) );
#279 = EDGE_CURVE( '', #319, #319, #320, .T. );
#280 = EDGE_CURVE( '', #321, #321, #322, .T. );
#281 = FILL_AREA_STYLE( '', ( #323 ) );
#282 = EDGE_CURVE( '', #324, #324, #325, .T. );
#283 = FILL_AREA_STYLE( '', ( #326 ) );
#284 = FILL_AREA_STYLE( '', ( #327 ) );
#285 = EDGE_CURVE( '', #328, #328, #329, .T. );
#286 = FILL_AREA_STYLE( '', ( #330 ) );
#287 = EDGE_CURVE( '', #331, #332, #333, .T. );
#288 = EDGE_CURVE( '', #334, #331, #335, .T. );
#289 = EDGE_CURVE( '', #334, #336, #337, .T. );
#290 = EDGE_CURVE( '', #336, #332, #338, .T. );
#291 = FILL_AREA_STYLE( '', ( #339 ) );
#292 = EDGE_CURVE( '', #332, #340, #341, .T. );
#293 = EDGE_CURVE( '', #336, #342, #343, .T. );
#294 = EDGE_CURVE( '', #342, #340, #344, .T. );
#295 = FILL_AREA_STYLE( '', ( #345 ) );
#296 = EDGE_CURVE( '', #311, #346, #347, .T. );
#297 = EDGE_CURVE( '', #315, #348, #349, .T. );
#298 = EDGE_CURVE( '', #348, #346, #350, .T. );
#299 = FILL_AREA_STYLE( '', ( #351 ) );
#300 = EDGE_CURVE( '', #346, #331, #352, .T. );
#301 = EDGE_CURVE( '', #340, #310, #353, .T. );
#302 = FILL_AREA_STYLE( '', ( #354 ) );
#303 = EDGE_CURVE( '', #348, #334, #355, .T. );
#304 = FILL_AREA_STYLE( '', ( #356 ) );
#305 = EDGE_CURVE( '', #342, #313, #357, .T. );
#306 = EDGE_CURVE( '', #358, #358, #359, .F. );
#307 = FILL_AREA_STYLE( '', ( #360 ) );
#308 = FILL_AREA_STYLE( '', ( #361 ) );
#309 = FILL_AREA_STYLE_COLOUR( '', #362 );
#310 = VERTEX_POINT( '', #363 );
#311 = VERTEX_POINT( '', #364 );
#312 = LINE( '', #365, #366 );
#313 = VERTEX_POINT( '', #367 );
#314 = LINE( '', #368, #369 );
#315 = VERTEX_POINT( '', #370 );
#316 = LINE( '', #371, #372 );
#317 = LINE( '', #373, #374 );
#318 = FILL_AREA_STYLE_COLOUR( '', #375 );
#319 = VERTEX_POINT( '', #376 );
#320 = CIRCLE( '', #377, 49.1104506494692 );
#321 = VERTEX_POINT( '', #378 );
#322 = CIRCLE( '', #379, 52.1000000000000 );
#323 = FILL_AREA_STYLE_COLOUR( '', #380 );
#324 = VERTEX_POINT( '', #381 );
#325 = CIRCLE( '', #382, 52.1000000000000 );
#326 = FILL_AREA_STYLE_COLOUR( '', #383 );
#327 = FILL_AREA_STYLE_COLOUR( '', #384 );
#328 = VERTEX_POINT( '', #385 );
#329 = CIRCLE( '', #386, 39.6394398947469 );
#330 = FILL_AREA_STYLE_COLOUR( '', #387 );
#331 = VERTEX_POINT( '', #388 );
#332 = VERTEX_POINT( '', #389 );
#333 = LINE( '', #390, #391 );
#334 = VERTEX_POINT( '', #392 );
#335 = LINE( '', #393, #394 );
#336 = VERTEX_POINT( '', #395 );
#337 = LINE( '', #396, #397 );
#338 = LINE( '', #398, #399 );
#339 = FILL_AREA_STYLE_COLOUR( '', #400 );
#340 = VERTEX_POINT( '', #401 );
#341 = LINE( '', #402, #403 );
#342 = VERTEX_POINT( '', #404 );
#343 = LINE( '', #405, #406 );
#344 = LINE( '', #407, #408 );
#345 = FILL_AREA_STYLE_COLOUR( '', #409 );
#346 = VERTEX_POINT( '', #410 );
#347 = LINE( '', #411, #412 );
#348 = VERTEX_POINT( '', #413 );
#349 = LINE( '', #414, #415 );
#350 = LINE( '', #416, #417 );
#351 = FILL_AREA_STYLE_COLOUR( '', #418 );
#352 = LINE( '', #419, #420 );
#353 = LINE( '', #421, #422 );
#354 = FILL_AREA_STYLE_COLOUR( '', #423 );
#355 = LINE( '', #424, #425 );
#356 = FILL_AREA_STYLE_COLOUR( '', #426 );
#357 = LINE( '', #427, #428 );
#358 = VERTEX_POINT( '', #429 );
#359 = CIRCLE( '', #430, 39.6394398947469 );
#360 = FILL_AREA_STYLE_COLOUR( '', #431 );
#361 = FILL_AREA_STYLE_COLOUR( '', #432 );
#362 = COLOUR_RGB( '', 0.200000002980232, 0.200000002980232, 0.200000002980232 );
#363 = CARTESIAN_POINT( '', ( 24.5373864405592, 42.5000000000000, 0.000000000000000 ) );
#364 = CARTESIAN_POINT( '', ( -24.5373864405592, 42.5000000000000, 0.000000000000000 ) );
#365 = CARTESIAN_POINT( '', ( 24.5373864405592, 42.5000000000000, 0.000000000000000 ) );
#366 = VECTOR( '', #433, 1000.00000000000 );
#367 = CARTESIAN_POINT( '', ( 24.5373864405592, 42.5000000000000, 48.0000000000000 ) );
#368 = CARTESIAN_POINT( '', ( 24.5373864405592, 42.5000000000000, 48.0000000000000 ) );
#369 = VECTOR( '', #434, 1000.00000000000 );
#370 = CARTESIAN_POINT( '', ( -24.5373864405592, 42.5000000000000, 48.0000000000000 ) );
#371 = CARTESIAN_POINT( '', ( 24.5373864405592, 42.5000000000000, 48.0000000000000 ) );
#372 = VECTOR( '', #435, 1000.00000000000 );
#373 = CARTESIAN_POINT( '', ( -24.5373864405592, 42.5000000000000, 48.0000000000000 ) );
#374 = VECTOR( '', #436, 1000.00000000000 );
#375 = COLOUR_RGB( '', 0.200000002980232, 0.200000002980232, 0.200000002980232 );
#376 = CARTESIAN_POINT( '', ( 49.1104506494692, 0.000000000000000, 50.9895493505309 ) );
#377 = AXIS2_PLACEMENT_3D( '', #437, #438, #439 );
#378 = CARTESIAN_POINT( '', ( 52.1000000000000, 0.000000000000000, 48.0000000000000 ) );
#379 = AXIS2_PLACEMENT_3D( '', #440, #441, #442 );
#380 = COLOUR_RGB( '', 0.200000002980232, 0.200000002980232, 0.200000002980232 );
#381 = CARTESIAN_POINT( '', ( 52.1000000000000, 0.000000000000000, 0.000000000000000 ) );
#382 = AXIS2_PLACEMENT_3D( '', #443, #444, #445 );
#383 = COLOUR_RGB( '', 0.200000002980232, 0.200000002980232, 0.200000002980232 );
#384 = COLOUR_RGB( '', 0.200000002980232, 0.200000002980232, 0.200000002980232 );
#385 = CARTESIAN_POINT( '', ( 39.6394398947469, 0.000000000000000, 48.9605601052532 ) );
#386 = AXIS2_PLACEMENT_3D( '', #446, #447, #448 );
#387 = COLOUR_RGB( '', 0.200000002980232, 0.200000002980232, 0.200000002980232 );
#388 = CARTESIAN_POINT( '', ( -24.5373864405592, -42.5000000000000, 0.000000000000000 ) );
#389 = CARTESIAN_POINT( '', ( 24.5373864405592, -42.5000000000000, 0.000000000000000 ) );
#390 = CARTESIAN_POINT( '', ( -24.5373864405592, -42.5000000000000, 0.000000000000000 ) );
#391 = VECTOR( '', #449, 1000.00000000000 );
#392 = CARTESIAN_POINT( '', ( -24.5373864405592, -42.5000000000000, 48.0000000000000 ) );
#393 = CARTESIAN_POINT( '', ( -24.5373864405592, -42.5000000000000, 48.0000000000000 ) );
#394 = VECTOR( '', #450, 1000.00000000000 );
#395 = CARTESIAN_POINT( '', ( 24.5373864405592, -42.5000000000000, 48.0000000000000 ) );
#396 = CARTESIAN_POINT( '', ( -24.5373864405592, -42.5000000000000, 48.0000000000000 ) );
#397 = VECTOR( '', #451, 1000.00000000000 );
#398 = CARTESIAN_POINT( '', ( 24.5373864405592, -42.5000000000000, 48.0000000000000 ) );
#399 = VECTOR( '', #452, 1000.00000000000 );
#400 = COLOUR_RGB( '', 0.200000002980232, 0.200000002980232, 0.200000002980232 );
#401 = CARTESIAN_POINT( '', ( 49.0747728811187, 3.40005801291454E-013, 0.000000000000000 ) );
#402 = CARTESIAN_POINT( '', ( 24.5373864405592, -42.5000000000000, 0.000000000000000 ) );
#403 = VECTOR( '', #453, 999.999999999999 );
#404 = CARTESIAN_POINT( '', ( 49.0747728811187, 3.40005801291454E-013, 48.0000000000000 ) );
#405 = CARTESIAN_POINT( '', ( 24.5373864405592, -42.5000000000000, 48.0000000000000 ) );
#406 = VECTOR( '', #454, 999.999999999999 );
#407 = CARTESIAN_POINT( '', ( 49.0747728811187, 3.40005801291454E-013, 48.0000000000000 ) );
#408 = VECTOR( '', #455, 1000.00000000000 );
#409 = COLOUR_RGB( '', 0.200000002980232, 0.200000002980232, 0.200000002980232 );
#410 = CARTESIAN_POINT( '', ( -49.0747728811187, 3.40005801291454E-013, 0.000000000000000 ) );
#411 = CARTESIAN_POINT( '', ( -24.5373864405592, 42.5000000000000, 0.000000000000000 ) );
#412 = VECTOR( '', #456, 1000.00000000000 );
#413 = CARTESIAN_POINT( '', ( -49.0747728811187, 3.40005801291454E-013, 48.0000000000000 ) );
#414 = CARTESIAN_POINT( '', ( -24.5373864405592, 42.5000000000000, 48.0000000000000 ) );
#415 = VECTOR( '', #457, 1000.00000000000 );
#416 = CARTESIAN_POINT( '', ( -49.0747728811187, 3.40005801291454E-013, 48.0000000000000 ) );
#417 = VECTOR( '', #458, 1000.00000000000 );
#418 = COLOUR_RGB( '', 0.200000002980232, 0.200000002980232, 0.200000002980232 );
#419 = CARTESIAN_POINT( '', ( -49.0747728811187, 3.41178734025980E-013, 0.000000000000000 ) );
#420 = VECTOR( '', #459, 999.999999999999 );
#421 = CARTESIAN_POINT( '', ( 49.0747728811187, 3.35168807673205E-013, 0.000000000000000 ) );
#422 = VECTOR( '', #460, 1000.00000000000 );
#423 = COLOUR_RGB( '', 0.200000002980232, 0.200000002980232, 0.200000002980232 );
#424 = CARTESIAN_POINT( '', ( -49.0747728811187, 3.41178734025980E-013, 48.0000000000000 ) );
#425 = VECTOR( '', #461, 999.999999999999 );
#426 = COLOUR_RGB( '', 0.200000002980232, 0.200000002980232, 0.200000002980232 );
#427 = CARTESIAN_POINT( '', ( 49.0747728811187, 3.35168807673205E-013, 48.0000000000000 ) );
#428 = VECTOR( '', #462, 1000.00000000000 );
#429 = CARTESIAN_POINT( '', ( 39.6394398947469, 0.000000000000000, 48.0000000000000 ) );
#430 = AXIS2_PLACEMENT_3D( '', #463, #464, #465 );
#431 = COLOUR_RGB( '', 0.200000002980232, 0.200000002980232, 0.200000002980232 );
#432 = COLOUR_RGB( '', 0.200000002980232, 0.200000002980232, 0.200000002980232 );
#433 = DIRECTION( '', ( -1.00000000000000, 0.000000000000000, 0.000000000000000 ) );
#434 = DIRECTION( '', ( 0.000000000000000, 0.000000000000000, -1.00000000000000 ) );
#435 = DIRECTION( '', ( -1.00000000000000, 0.000000000000000, 0.000000000000000 ) );
#436 = DIRECTION( '', ( 0.000000000000000, 0.000000000000000, -1.00000000000000 ) );
#437 = CARTESIAN_POINT( '', ( 0.000000000000000, 0.000000000000000, 50.9895493505309 ) );
#438 = DIRECTION( '', ( 0.000000000000000, 0.000000000000000, 1.00000000000000 ) );
#439 = DIRECTION( '', ( 1.00000000000000, 0.000000000000000, 0.000000000000000 ) );
#440 = CARTESIAN_POINT( '', ( 0.000000000000000, 0.000000000000000, 48.0000000000000 ) );
#441 = DIRECTION( '', ( 0.000000000000000, 0.000000000000000, 1.00000000000000 ) );
#442 = DIRECTION( '', ( 1.00000000000000, 0.000000000000000, 0.000000000000000 ) );
#443 = CARTESIAN_POINT( '', ( 0.000000000000000, 0.000000000000000, 0.000000000000000 ) );
#444 = DIRECTION( '', ( 0.000000000000000, 0.000000000000000, 1.00000000000000 ) );
#445 = DIRECTION( '', ( 1.00000000000000, 0.000000000000000, 0.000000000000000 ) );
#446 = CARTESIAN_POINT( '', ( 0.000000000000000, 0.000000000000000, 48.9605601052532 ) );
#447 = DIRECTION( '', ( 0.000000000000000, 0.000000000000000, 1.00000000000000 ) );
#448 = DIRECTION( '', ( 1.00000000000000, 0.000000000000000, 0.000000000000000 ) );
#449 = DIRECTION( '', ( 1.00000000000000, -8.48365891051566E-016, 0.000000000000000 ) );
#450 = DIRECTION( '', ( 0.000000000000000, 0.000000000000000, -1.00000000000000 ) );
#451 = DIRECTION( '', ( 1.00000000000000, -8.48365891051566E-016, 0.000000000000000 ) );
#452 = DIRECTION( '', ( 0.000000000000000, 0.000000000000000, -1.00000000000000 ) );
#453 = DIRECTION( '', ( 0.500000000000001, 0.866025403784438, 0.000000000000000 ) );
#454 = DIRECTION( '', ( 0.500000000000001, 0.866025403784438, 0.000000000000000 ) );
#455 = DIRECTION( '', ( 0.000000000000000, 0.000000000000000, -1.00000000000000 ) );
#456 = DIRECTION( '', ( -0.500000000000007, -0.866025403784435, 0.000000000000000 ) );
#457 = DIRECTION( '', ( -0.500000000000007, -0.866025403784435, 0.000000000000000 ) );
#458 = DIRECTION( '', ( 0.000000000000000, 0.000000000000000, -1.00000000000000 ) );
#459 = DIRECTION( '', ( 0.500000000000001, -0.866025403784438, 0.000000000000000 ) );
#460 = DIRECTION( '', ( -0.500000000000007, 0.866025403784435, 0.000000000000000 ) );
#461 = DIRECTION( '', ( 0.500000000000001, -0.866025403784438, 0.000000000000000 ) );
#462 = DIRECTION( '', ( -0.500000000000007, 0.866025403784435, 0.000000000000000 ) );
#463 = CARTESIAN_POINT( '', ( 0.000000000000000, 0.000000000000000, 48.0000000000000 ) );
#464 = DIRECTION( '', ( 0.000000000000000, 0.000000000000000, 1.00000000000000 ) );
#465 = DIRECTION( '', ( 1.00000000000000, 0.000000000000000, 0.000000000000000 ) );
ENDSEC;
END-ISO-10303-21;
