ISO-10303-21;
HEADER;
FILE_DESCRIPTION( ( 'Unknown' ), '1' );
FILE_NAME( '//SBS2003/HD_Usb/Disegni/08_LIB/Users_3D/PROD_GAMM_3D/ECM/7371637.stp', 'Unknown', ( 'Unknown' ), ( 'Unknown' ), 'PSStep 14.0', 'Unknown', '  ' );
FILE_SCHEMA( ( 'AUTOMOTIVE_DESIGN { 1 0 10303 214 1 1 1 1 }' ) );
ENDSEC;
DATA;
#1 = MECHANICAL_DESIGN_GEOMETRIC_PRESENTATION_REPRESENTATION( ' ', ( #10, #11, #12, #13, #14 ), #6 );
#2 = PRODUCT_DEFINITION_CONTEXT( '', #15, 'design' );
#3 = APPLICATION_PROTOCOL_DEFINITION( 'international standard', 'automotive_design', 2001, #15 );
#4 = PRODUCT_CATEGORY_RELATIONSHIP( 'NONE', 'NONE', #16, #17 );
#5 = SHAPE_DEFINITION_REPRESENTATION( #18, #19 );
#6 =  ( GEOMETRIC_REPRESENTATION_CONTEXT( 3 )GLOBAL_UNCERTAINTY_ASSIGNED_CONTEXT( ( #22 ) )GLOBAL_UNIT_ASSIGNED_CONTEXT( ( #24, #25, #26 ) )REPRESENTATION_CONTEXT( 'NONE', 'WORKSPACE' ) );
#10 = STYLED_ITEM( '', ( #28 ), #29 );
#11 = STYLED_ITEM( '', ( #30 ), #31 );
#12 = STYLED_ITEM( '', ( #32 ), #33 );
#13 = STYLED_ITEM( '', ( #34 ), #35 );
#14 = STYLED_ITEM( '', ( #36 ), #37 );
#15 = APPLICATION_CONTEXT( 'core data for automotive mechanical design processes' );
#16 = PRODUCT_CATEGORY( 'part', 'NONE' );
#17 = PRODUCT_RELATED_PRODUCT_CATEGORY( 'detail', ' ', ( #38 ) );
#18 = PRODUCT_DEFINITION_SHAPE( 'NONE', 'NONE', #39 );
#19 = ADVANCED_BREP_SHAPE_REPRESENTATION( '1', ( #40, #41 ), #6 );
#22 = UNCERTAINTY_MEASURE_WITH_UNIT( LENGTH_MEASURE( 0.00100000000000000 ), #24, '', '' );
#24 =  ( CONVERSION_BASED_UNIT( 'MILLIMETRE', #44 )LENGTH_UNIT(  )NAMED_UNIT( #47 ) );
#25 =  ( NAMED_UNIT( #49 )PLANE_ANGLE_UNIT(  )SI_UNIT( $, .RADIAN. ) );
#26 =  ( NAMED_UNIT( #49 )SI_UNIT( $, .STERADIAN. )SOLID_ANGLE_UNIT(  ) );
#28 = PRESENTATION_STYLE_ASSIGNMENT( ( #55 ) );
#29 = ADVANCED_FACE( '', ( #56, #57 ), #58, .F. );
#30 = PRESENTATION_STYLE_ASSIGNMENT( ( #59 ) );
#31 = ADVANCED_FACE( '', ( #60 ), #61, .F. );
#32 = PRESENTATION_STYLE_ASSIGNMENT( ( #62 ) );
#33 = ADVANCED_FACE( '', ( #63 ), #64, .T. );
#34 = PRESENTATION_STYLE_ASSIGNMENT( ( #65 ) );
#35 = ADVANCED_FACE( '', ( #66, #67 ), #68, .T. );
#36 = PRESENTATION_STYLE_ASSIGNMENT( ( #69 ) );
#37 = ADVANCED_FACE( '', ( #70, #71 ), #72, .T. );
#38 = PRODUCT( '1', '1', 'PART-1-DESC', ( #73 ) );
#39 = PRODUCT_DEFINITION( 'NONE', 'NONE', #74, #2 );
#40 = MANIFOLD_SOLID_BREP( '1', #75 );
#41 = AXIS2_PLACEMENT_3D( '', #76, #77, #78 );
#44 = LENGTH_MEASURE_WITH_UNIT( LENGTH_MEASURE( 1.00000000000000 ), #79 );
#47 = DIMENSIONAL_EXPONENTS( 1.00000000000000, 0.000000000000000, 0.000000000000000, 0.000000000000000, 0.000000000000000, 0.000000000000000, 0.000000000000000 );
#49 = DIMENSIONAL_EXPONENTS( 0.000000000000000, 0.000000000000000, 0.000000000000000, 0.000000000000000, 0.000000000000000, 0.000000000000000, 0.000000000000000 );
#55 = SURFACE_STYLE_USAGE( .BOTH., #80 );
#56 = FACE_OUTER_BOUND( '', #81, .T. );
#57 = FACE_OUTER_BOUND( '', #82, .T. );
#58 = CYLINDRICAL_SURFACE( '', #83, 2.40000000000000 );
#59 = SURFACE_STYLE_USAGE( .BOTH., #84 );
#60 = FACE_OUTER_BOUND( '', #85, .T. );
#61 = SPHERICAL_SURFACE( '', #86, 2.40000000000000 );
#62 = SURFACE_STYLE_USAGE( .BOTH., #87 );
#63 = FACE_OUTER_BOUND( '', #88, .T. );
#64 = SPHERICAL_SURFACE( '', #89, 3.40000000000000 );
#65 = SURFACE_STYLE_USAGE( .BOTH., #90 );
#66 = FACE_OUTER_BOUND( '', #91, .T. );
#67 = FACE_OUTER_BOUND( '', #92, .T. );
#68 = CYLINDRICAL_SURFACE( '', #93, 3.40000000000000 );
#69 = SURFACE_STYLE_USAGE( .BOTH., #94 );
#70 = FACE_BOUND( '', #95, .T. );
#71 = FACE_OUTER_BOUND( '', #96, .T. );
#72 = PLANE( '', #97 );
#73 = PRODUCT_CONTEXT( '', #15, 'mechanical' );
#74 = PRODUCT_DEFINITION_FORMATION_WITH_SPECIFIED_SOURCE( ' ', 'NONE', #38, .NOT_KNOWN. );
#75 = CLOSED_SHELL( '', ( #31, #29, #33, #35, #37 ) );
#76 = CARTESIAN_POINT( '', ( 0.000000000000000, 0.000000000000000, 0.000000000000000 ) );
#77 = DIRECTION( '', ( 0.000000000000000, 0.000000000000000, 1.00000000000000 ) );
#78 = DIRECTION( '', ( 1.00000000000000, 0.000000000000000, 0.000000000000000 ) );
#79 =  ( LENGTH_UNIT(  )NAMED_UNIT( #47 )SI_UNIT( .MILLI., .METRE. ) );
#80 = SURFACE_SIDE_STYLE( '', ( #99 ) );
#81 = EDGE_LOOP( '', ( #100 ) );
#82 = EDGE_LOOP( '', ( #101 ) );
#83 = AXIS2_PLACEMENT_3D( '', #102, #103, #104 );
#84 = SURFACE_SIDE_STYLE( '', ( #105 ) );
#85 = EDGE_LOOP( '', ( #106 ) );
#86 = AXIS2_PLACEMENT_3D( '', #107, #108, #109 );
#87 = SURFACE_SIDE_STYLE( '', ( #110 ) );
#88 = EDGE_LOOP( '', ( #111 ) );
#89 = AXIS2_PLACEMENT_3D( '', #112, #113, #114 );
#90 = SURFACE_SIDE_STYLE( '', ( #115 ) );
#91 = EDGE_LOOP( '', ( #116 ) );
#92 = EDGE_LOOP( '', ( #117 ) );
#93 = AXIS2_PLACEMENT_3D( '', #118, #119, #120 );
#94 = SURFACE_SIDE_STYLE( '', ( #121 ) );
#95 = EDGE_LOOP( '', ( #122 ) );
#96 = EDGE_LOOP( '', ( #123 ) );
#97 = AXIS2_PLACEMENT_3D( '', #124, #125, #126 );
#99 = SURFACE_STYLE_FILL_AREA( #127 );
#100 = ORIENTED_EDGE( '', *, *, #128, .T. );
#101 = ORIENTED_EDGE( '', *, *, #129, .F. );
#102 = CARTESIAN_POINT( '', ( 0.000000000000000, 0.000000000000000, 57.1500000000000 ) );
#103 = DIRECTION( '', ( -0.000000000000000, -0.000000000000000, -1.00000000000000 ) );
#104 = DIRECTION( '', ( 1.00000000000000, 0.000000000000000, 0.000000000000000 ) );
#105 = SURFACE_STYLE_FILL_AREA( #130 );
#106 = ORIENTED_EDGE( '', *, *, #128, .F. );
#107 = CARTESIAN_POINT( '', ( -4.55364912443912E-015, 0.000000000000000, 25.4000000000000 ) );
#108 = DIRECTION( '', ( 0.000000000000000, 0.000000000000000, 1.00000000000000 ) );
#109 = DIRECTION( '', ( 1.00000000000000, 0.000000000000000, 0.000000000000000 ) );
#110 = SURFACE_STYLE_FILL_AREA( #131 );
#111 = ORIENTED_EDGE( '', *, *, #132, .T. );
#112 = CARTESIAN_POINT( '', ( -4.55364912443912E-015, 0.000000000000000, 25.4000000000000 ) );
#113 = DIRECTION( '', ( 0.000000000000000, 0.000000000000000, 1.00000000000000 ) );
#114 = DIRECTION( '', ( 1.00000000000000, 0.000000000000000, 0.000000000000000 ) );
#115 = SURFACE_STYLE_FILL_AREA( #133 );
#116 = ORIENTED_EDGE( '', *, *, #134, .T. );
#117 = ORIENTED_EDGE( '', *, *, #132, .F. );
#118 = CARTESIAN_POINT( '', ( 0.000000000000000, 0.000000000000000, 57.1500000000000 ) );
#119 = DIRECTION( '', ( -0.000000000000000, -0.000000000000000, -1.00000000000000 ) );
#120 = DIRECTION( '', ( 1.00000000000000, 0.000000000000000, 0.000000000000000 ) );
#121 = SURFACE_STYLE_FILL_AREA( #135 );
#122 = ORIENTED_EDGE( '', *, *, #129, .T. );
#123 = ORIENTED_EDGE( '', *, *, #134, .F. );
#124 = CARTESIAN_POINT( '', ( 2.40000000000000, 0.000000000000000, -4.33680868994202E-016 ) );
#125 = DIRECTION( '', ( 0.000000000000000, 0.000000000000000, -1.00000000000000 ) );
#126 = DIRECTION( '', ( -1.00000000000000, 0.000000000000000, 0.000000000000000 ) );
#127 = FILL_AREA_STYLE( '', ( #136 ) );
#128 = EDGE_CURVE( '', #137, #137, #138, .T. );
#129 = EDGE_CURVE( '', #139, #139, #140, .T. );
#130 = FILL_AREA_STYLE( '', ( #141 ) );
#131 = FILL_AREA_STYLE( '', ( #142 ) );
#132 = EDGE_CURVE( '', #143, #143, #144, .T. );
#133 = FILL_AREA_STYLE( '', ( #145 ) );
#134 = EDGE_CURVE( '', #146, #146, #147, .T. );
#135 = FILL_AREA_STYLE( '', ( #148 ) );
#136 = FILL_AREA_STYLE_COLOUR( '', #149 );
#137 = VERTEX_POINT( '', #150 );
#138 = CIRCLE( '', #151, 2.40000000000000 );
#139 = VERTEX_POINT( '', #152 );
#140 = CIRCLE( '', #153, 2.40000000000000 );
#141 = FILL_AREA_STYLE_COLOUR( '', #154 );
#142 = FILL_AREA_STYLE_COLOUR( '', #155 );
#143 = VERTEX_POINT( '', #156 );
#144 = CIRCLE( '', #157, 3.40000000000000 );
#145 = FILL_AREA_STYLE_COLOUR( '', #158 );
#146 = VERTEX_POINT( '', #159 );
#147 = CIRCLE( '', #160, 3.40000000000000 );
#148 = FILL_AREA_STYLE_COLOUR( '', #161 );
#149 = COLOUR_RGB( '', 0.200000002980232, 0.200000002980232, 0.200000002980232 );
#150 = CARTESIAN_POINT( '', ( 2.40000000000000, 0.000000000000000, 25.4000000000000 ) );
#151 = AXIS2_PLACEMENT_3D( '', #162, #163, #164 );
#152 = CARTESIAN_POINT( '', ( 2.40000000000000, 0.000000000000000, 0.000000000000000 ) );
#153 = AXIS2_PLACEMENT_3D( '', #165, #166, #167 );
#154 = COLOUR_RGB( '', 0.200000002980232, 0.200000002980232, 0.200000002980232 );
#155 = COLOUR_RGB( '', 0.200000002980232, 0.200000002980232, 0.200000002980232 );
#156 = CARTESIAN_POINT( '', ( 3.40000000000000, 0.000000000000000, 25.4000000000000 ) );
#157 = AXIS2_PLACEMENT_3D( '', #168, #169, #170 );
#158 = COLOUR_RGB( '', 0.200000002980232, 0.200000002980232, 0.200000002980232 );
#159 = CARTESIAN_POINT( '', ( 3.40000000000000, 0.000000000000000, 0.000000000000000 ) );
#160 = AXIS2_PLACEMENT_3D( '', #171, #172, #173 );
#161 = COLOUR_RGB( '', 0.200000002980232, 0.200000002980232, 0.200000002980232 );
#162 = CARTESIAN_POINT( '', ( 0.000000000000000, 0.000000000000000, 25.4000000000000 ) );
#163 = DIRECTION( '', ( 0.000000000000000, 0.000000000000000, 1.00000000000000 ) );
#164 = DIRECTION( '', ( 1.00000000000000, 0.000000000000000, 0.000000000000000 ) );
#165 = CARTESIAN_POINT( '', ( 0.000000000000000, 0.000000000000000, 0.000000000000000 ) );
#166 = DIRECTION( '', ( 0.000000000000000, 0.000000000000000, 1.00000000000000 ) );
#167 = DIRECTION( '', ( 1.00000000000000, 0.000000000000000, 0.000000000000000 ) );
#168 = CARTESIAN_POINT( '', ( 0.000000000000000, 0.000000000000000, 25.4000000000000 ) );
#169 = DIRECTION( '', ( 0.000000000000000, 0.000000000000000, 1.00000000000000 ) );
#170 = DIRECTION( '', ( 1.00000000000000, 0.000000000000000, 0.000000000000000 ) );
#171 = CARTESIAN_POINT( '', ( 0.000000000000000, 0.000000000000000, 0.000000000000000 ) );
#172 = DIRECTION( '', ( 0.000000000000000, 0.000000000000000, 1.00000000000000 ) );
#173 = DIRECTION( '', ( 1.00000000000000, 0.000000000000000, 0.000000000000000 ) );
ENDSEC;
END-ISO-10303-21;
