ISO-10303-21;
HEADER;
FILE_DESCRIPTION( ( 'Unknown' ), '1' );
FILE_NAME( '//SBS2003/HD_Usb/Disegni/08_LIB/Users_3D/PROD_GAMM_3D/TTP/7372502.stp', 'Unknown', ( 'Unknown' ), ( 'Unknown' ), 'PSStep 14.0', 'Unknown', '  ' );
FILE_SCHEMA( ( 'AUTOMOTIVE_DESIGN { 1 0 10303 214 1 1 1 1 }' ) );
ENDSEC;
DATA;
#1 = MECHANICAL_DESIGN_GEOMETRIC_PRESENTATION_REPRESENTATION( ' ', ( #10, #11, #12, #13, #14, #15, #16, #17 ), #6 );
#2 = PRODUCT_DEFINITION_CONTEXT( '', #18, 'design' );
#3 = APPLICATION_PROTOCOL_DEFINITION( 'international standard', 'automotive_design', 2001, #18 );
#4 = PRODUCT_CATEGORY_RELATIONSHIP( 'NONE', 'NONE', #19, #20 );
#5 = SHAPE_DEFINITION_REPRESENTATION( #21, #22 );
#6 =  ( GEOMETRIC_REPRESENTATION_CONTEXT( 3 )GLOBAL_UNCERTAINTY_ASSIGNED_CONTEXT( ( #25 ) )GLOBAL_UNIT_ASSIGNED_CONTEXT( ( #27, #28, #29 ) )REPRESENTATION_CONTEXT( 'NONE', 'WORKSPACE' ) );
#10 = STYLED_ITEM( '', ( #31 ), #32 );
#11 = STYLED_ITEM( '', ( #33 ), #34 );
#12 = STYLED_ITEM( '', ( #35 ), #36 );
#13 = STYLED_ITEM( '', ( #37 ), #38 );
#14 = STYLED_ITEM( '', ( #39 ), #40 );
#15 = STYLED_ITEM( '', ( #41 ), #42 );
#16 = STYLED_ITEM( '', ( #43 ), #44 );
#17 = STYLED_ITEM( '', ( #45 ), #46 );
#18 = APPLICATION_CONTEXT( 'core data for automotive mechanical design processes' );
#19 = PRODUCT_CATEGORY( 'part', 'NONE' );
#20 = PRODUCT_RELATED_PRODUCT_CATEGORY( 'detail', ' ', ( #47 ) );
#21 = PRODUCT_DEFINITION_SHAPE( 'NONE', 'NONE', #48 );
#22 = ADVANCED_BREP_SHAPE_REPRESENTATION( '1', ( #49, #50 ), #6 );
#25 = UNCERTAINTY_MEASURE_WITH_UNIT( LENGTH_MEASURE( 0.00100000000000000 ), #27, '', '' );
#27 =  ( CONVERSION_BASED_UNIT( 'MILLIMETRE', #53 )LENGTH_UNIT(  )NAMED_UNIT( #56 ) );
#28 =  ( NAMED_UNIT( #58 )PLANE_ANGLE_UNIT(  )SI_UNIT( $, .RADIAN. ) );
#29 =  ( NAMED_UNIT( #58 )SI_UNIT( $, .STERADIAN. )SOLID_ANGLE_UNIT(  ) );
#31 = PRESENTATION_STYLE_ASSIGNMENT( ( #64 ) );
#32 = ADVANCED_FACE( '', ( #65, #66 ), #67, .F. );
#33 = PRESENTATION_STYLE_ASSIGNMENT( ( #68 ) );
#34 = ADVANCED_FACE( '', ( #69 ), #70, .F. );
#35 = PRESENTATION_STYLE_ASSIGNMENT( ( #71 ) );
#36 = ADVANCED_FACE( '', ( #72, #73 ), #74, .F. );
#37 = PRESENTATION_STYLE_ASSIGNMENT( ( #75 ) );
#38 = ADVANCED_FACE( '', ( #76, #77 ), #78, .F. );
#39 = PRESENTATION_STYLE_ASSIGNMENT( ( #79 ) );
#40 = ADVANCED_FACE( '', ( #80 ), #81, .F. );
#41 = PRESENTATION_STYLE_ASSIGNMENT( ( #82 ) );
#42 = ADVANCED_FACE( '', ( #83, #84 ), #85, .T. );
#43 = PRESENTATION_STYLE_ASSIGNMENT( ( #86 ) );
#44 = ADVANCED_FACE( '', ( #87, #88 ), #89, .T. );
#45 = PRESENTATION_STYLE_ASSIGNMENT( ( #90 ) );
#46 = ADVANCED_FACE( '', ( #91, #92 ), #93, .T. );
#47 = PRODUCT( '1', '1', 'PART-1-DESC', ( #94 ) );
#48 = PRODUCT_DEFINITION( 'NONE', 'NONE', #95, #2 );
#49 = MANIFOLD_SOLID_BREP( '1', #96 );
#50 = AXIS2_PLACEMENT_3D( '', #97, #98, #99 );
#53 = LENGTH_MEASURE_WITH_UNIT( LENGTH_MEASURE( 1.00000000000000 ), #100 );
#56 = DIMENSIONAL_EXPONENTS( 1.00000000000000, 0.000000000000000, 0.000000000000000, 0.000000000000000, 0.000000000000000, 0.000000000000000, 0.000000000000000 );
#58 = DIMENSIONAL_EXPONENTS( 0.000000000000000, 0.000000000000000, 0.000000000000000, 0.000000000000000, 0.000000000000000, 0.000000000000000, 0.000000000000000 );
#64 = SURFACE_STYLE_USAGE( .BOTH., #101 );
#65 = FACE_OUTER_BOUND( '', #102, .T. );
#66 = FACE_OUTER_BOUND( '', #103, .T. );
#67 = CYLINDRICAL_SURFACE( '', #104, 3.65000000000000 );
#68 = SURFACE_STYLE_USAGE( .BOTH., #105 );
#69 = FACE_OUTER_BOUND( '', #106, .T. );
#70 = PLANE( '', #107 );
#71 = SURFACE_STYLE_USAGE( .BOTH., #108 );
#72 = FACE_OUTER_BOUND( '', #109, .T. );
#73 = FACE_BOUND( '', #110, .T. );
#74 = PLANE( '', #111 );
#75 = SURFACE_STYLE_USAGE( .BOTH., #112 );
#76 = FACE_OUTER_BOUND( '', #113, .T. );
#77 = FACE_BOUND( '', #114, .T. );
#78 = PLANE( '', #115 );
#79 = SURFACE_STYLE_USAGE( .BOTH., #116 );
#80 = FACE_OUTER_BOUND( '', #117, .T. );
#81 = PLANE( '', #118 );
#82 = SURFACE_STYLE_USAGE( .BOTH., #119 );
#83 = FACE_OUTER_BOUND( '', #120, .T. );
#84 = FACE_OUTER_BOUND( '', #121, .T. );
#85 = ( BOUNDED_SURFACE(  )B_SPLINE_SURFACE( 3, 3, ( ( #124, #125, #126, #127, #128, #129, #130 ), ( #131, #132, #133, #134, #135, #136, #137 ), ( #138, #139, #140, #141, #142, #143, #144 ), ( #145, #146, #147, #148, #149, #150, #151 ) ), .UNSPECIFIED., .F., .T., .F. )B_SPLINE_SURFACE_WITH_KNOTS( ( 4, 4 ), ( 4, 3, 4 ), ( 0.000000000000000, 6.28318530717959 ), ( -0.252680255142080, -7.21644966006352E-016, 0.252680255142079 ), .UNSPECIFIED. )GEOMETRIC_REPRESENTATION_ITEM(  )RATIONAL_B_SPLINE_SURFACE( ( ( 1.00000000000000, 0.333333333333333, 0.333333333333333, 1.00000000000000, 0.333333333333333, 0.333333333333333, 1.00000000000000 ), ( 0.978830557701236, 0.326276852567079, 0.326276852567079, 0.978830557701236, 0.326276852567079, 0.326276852567079, 0.978830557701236 ), ( 0.978830557701236, 0.326276852567079, 0.326276852567079, 0.978830557701236, 0.326276852567079, 0.326276852567079, 0.978830557701236 ), ( 1.00000000000000, 0.333333333333333, 0.333333333333333, 1.00000000000000, 0.333333333333333, 0.333333333333333, 1.00000000000000 ) ) )REPRESENTATION_ITEM( '' )SURFACE(  ) );
#86 = SURFACE_STYLE_USAGE( .BOTH., #157 );
#87 = FACE_OUTER_BOUND( '', #158, .T. );
#88 = FACE_OUTER_BOUND( '', #159, .T. );
#89 = TOROIDAL_SURFACE( '', #160, 6.50000000000000, 0.500000000000000 );
#90 = SURFACE_STYLE_USAGE( .BOTH., #161 );
#91 = FACE_OUTER_BOUND( '', #162, .T. );
#92 = FACE_OUTER_BOUND( '', #163, .T. );
#93 = CYLINDRICAL_SURFACE( '', #164, 7.00000000000000 );
#94 = PRODUCT_CONTEXT( '', #18, 'mechanical' );
#95 = PRODUCT_DEFINITION_FORMATION_WITH_SPECIFIED_SOURCE( ' ', 'NONE', #47, .NOT_KNOWN. );
#96 = CLOSED_SHELL( '', ( #32, #44, #40, #34, #46, #36, #42, #38 ) );
#97 = CARTESIAN_POINT( '', ( 0.000000000000000, 0.000000000000000, 0.000000000000000 ) );
#98 = DIRECTION( '', ( 0.000000000000000, 0.000000000000000, 1.00000000000000 ) );
#99 = DIRECTION( '', ( 1.00000000000000, 0.000000000000000, 0.000000000000000 ) );
#100 =  ( LENGTH_UNIT(  )NAMED_UNIT( #56 )SI_UNIT( .MILLI., .METRE. ) );
#101 = SURFACE_SIDE_STYLE( '', ( #166 ) );
#102 = EDGE_LOOP( '', ( #167 ) );
#103 = EDGE_LOOP( '', ( #168 ) );
#104 = AXIS2_PLACEMENT_3D( '', #169, #170, #171 );
#105 = SURFACE_SIDE_STYLE( '', ( #172 ) );
#106 = EDGE_LOOP( '', ( #173 ) );
#107 = AXIS2_PLACEMENT_3D( '', #174, #175, #176 );
#108 = SURFACE_SIDE_STYLE( '', ( #177 ) );
#109 = EDGE_LOOP( '', ( #178 ) );
#110 = EDGE_LOOP( '', ( #179 ) );
#111 = AXIS2_PLACEMENT_3D( '', #180, #181, #182 );
#112 = SURFACE_SIDE_STYLE( '', ( #183 ) );
#113 = EDGE_LOOP( '', ( #184 ) );
#114 = EDGE_LOOP( '', ( #185 ) );
#115 = AXIS2_PLACEMENT_3D( '', #186, #187, #188 );
#116 = SURFACE_SIDE_STYLE( '', ( #189 ) );
#117 = EDGE_LOOP( '', ( #190 ) );
#118 = AXIS2_PLACEMENT_3D( '', #191, #192, #193 );
#119 = SURFACE_SIDE_STYLE( '', ( #194 ) );
#120 = EDGE_LOOP( '', ( #195 ) );
#121 = EDGE_LOOP( '', ( #196 ) );
#124 = CARTESIAN_POINT( '', ( 4.36421252896669, 0.000000000000000, 4.50000000000000 ) );
#125 = CARTESIAN_POINT( '', ( 4.36421252896669, 8.72842505793338, 4.50000000000000 ) );
#126 = CARTESIAN_POINT( '', ( -4.36421252896669, 8.72842505793338, 4.50000000000000 ) );
#127 = CARTESIAN_POINT( '', ( -4.36421252896669, 0.000000000000000, 4.50000000000000 ) );
#128 = CARTESIAN_POINT( '', ( -4.36421252896669, -8.72842505793338, 4.50000000000000 ) );
#129 = CARTESIAN_POINT( '', ( 4.36421252896669, -8.72842505793338, 4.50000000000000 ) );
#130 = CARTESIAN_POINT( '', ( 4.36421252896669, 0.000000000000000, 4.50000000000000 ) );
#131 = CARTESIAN_POINT( '', ( 4.74732275887275, 0.000000000000000, 3.01622045981212 ) );
#132 = CARTESIAN_POINT( '', ( 4.74732275887275, 9.49464551774550, 3.01622045981212 ) );
#133 = CARTESIAN_POINT( '', ( -4.74732275887275, 9.49464551774550, 3.01622045981212 ) );
#134 = CARTESIAN_POINT( '', ( -4.74732275887275, 0.000000000000000, 3.01622045981212 ) );
#135 = CARTESIAN_POINT( '', ( -4.74732275887275, -9.49464551774550, 3.01622045981212 ) );
#136 = CARTESIAN_POINT( '', ( 4.74732275887275, -9.49464551774550, 3.01622045981212 ) );
#137 = CARTESIAN_POINT( '', ( 4.74732275887275, 0.000000000000000, 3.01622045981212 ) );
#138 = CARTESIAN_POINT( '', ( 4.74732275887275, 0.000000000000000, 1.48377954018786 ) );
#139 = CARTESIAN_POINT( '', ( 4.74732275887275, 9.49464551774550, 1.48377954018787 ) );
#140 = CARTESIAN_POINT( '', ( -4.74732275887275, 9.49464551774550, 1.48377954018787 ) );
#141 = CARTESIAN_POINT( '', ( -4.74732275887275, 0.000000000000000, 1.48377954018786 ) );
#142 = CARTESIAN_POINT( '', ( -4.74732275887275, -9.49464551774550, 1.48377954018787 ) );
#143 = CARTESIAN_POINT( '', ( 4.74732275887275, -9.49464551774550, 1.48377954018787 ) );
#144 = CARTESIAN_POINT( '', ( 4.74732275887275, 0.000000000000000, 1.48377954018786 ) );
#145 = CARTESIAN_POINT( '', ( 4.36421252896668, 0.000000000000000, -1.34441069388203E-014 ) );
#146 = CARTESIAN_POINT( '', ( 4.36421252896668, 8.72842505793337, -1.34441069388203E-014 ) );
#147 = CARTESIAN_POINT( '', ( -4.36421252896668, 8.72842505793337, -1.34441069388203E-014 ) );
#148 = CARTESIAN_POINT( '', ( -4.36421252896668, 0.000000000000000, -1.34441069388203E-014 ) );
#149 = CARTESIAN_POINT( '', ( -4.36421252896668, -8.72842505793337, -1.34441069388203E-014 ) );
#150 = CARTESIAN_POINT( '', ( 4.36421252896668, -8.72842505793337, -1.34441069388203E-014 ) );
#151 = CARTESIAN_POINT( '', ( 4.36421252896668, 0.000000000000000, -1.34441069388203E-014 ) );
#157 = SURFACE_SIDE_STYLE( '', ( #197 ) );
#158 = EDGE_LOOP( '', ( #198 ) );
#159 = EDGE_LOOP( '', ( #199 ) );
#160 = AXIS2_PLACEMENT_3D( '', #200, #201, #202 );
#161 = SURFACE_SIDE_STYLE( '', ( #203 ) );
#162 = EDGE_LOOP( '', ( #204 ) );
#163 = EDGE_LOOP( '', ( #205 ) );
#164 = AXIS2_PLACEMENT_3D( '', #206, #207, #208 );
#166 = SURFACE_STYLE_FILL_AREA( #209 );
#167 = ORIENTED_EDGE( '', *, *, #210, .F. );
#168 = ORIENTED_EDGE( '', *, *, #211, .T. );
#169 = CARTESIAN_POINT( '', ( 0.000000000000000, 0.000000000000000, 57.1500000000000 ) );
#170 = DIRECTION( '', ( -0.000000000000000, -0.000000000000000, -1.00000000000000 ) );
#171 = DIRECTION( '', ( 1.00000000000000, 0.000000000000000, 0.000000000000000 ) );
#172 = SURFACE_STYLE_FILL_AREA( #212 );
#173 = ORIENTED_EDGE( '', *, *, #213, .T. );
#174 = CARTESIAN_POINT( '', ( 7.00000000000000, 0.000000000000000, 6.50000000000000 ) );
#175 = DIRECTION( '', ( 0.000000000000000, 0.000000000000000, -1.00000000000000 ) );
#176 = DIRECTION( '', ( -1.00000000000000, 0.000000000000000, 0.000000000000000 ) );
#177 = SURFACE_STYLE_FILL_AREA( #214 );
#178 = ORIENTED_EDGE( '', *, *, #215, .F. );
#179 = ORIENTED_EDGE( '', *, *, #210, .T. );
#180 = CARTESIAN_POINT( '', ( 3.65000000000000, 0.000000000000000, 0.000000000000000 ) );
#181 = DIRECTION( '', ( 0.000000000000000, 0.000000000000000, 1.00000000000000 ) );
#182 = DIRECTION( '', ( 1.00000000000000, 0.000000000000000, 0.000000000000000 ) );
#183 = SURFACE_STYLE_FILL_AREA( #216 );
#184 = ORIENTED_EDGE( '', *, *, #217, .F. );
#185 = ORIENTED_EDGE( '', *, *, #218, .T. );
#186 = CARTESIAN_POINT( '', ( 4.36421252896669, 0.000000000000000, 4.50000000000000 ) );
#187 = DIRECTION( '', ( 0.000000000000000, 0.000000000000000, 1.00000000000000 ) );
#188 = DIRECTION( '', ( 1.00000000000000, 0.000000000000000, 0.000000000000000 ) );
#189 = SURFACE_STYLE_FILL_AREA( #219 );
#190 = ORIENTED_EDGE( '', *, *, #211, .F. );
#191 = CARTESIAN_POINT( '', ( 4.28626379701574E-016, 0.000000000000000, 4.50000000000000 ) );
#192 = DIRECTION( '', ( 0.000000000000000, 0.000000000000000, 1.00000000000000 ) );
#193 = DIRECTION( '', ( 1.00000000000000, 0.000000000000000, 0.000000000000000 ) );
#194 = SURFACE_STYLE_FILL_AREA( #220 );
#195 = ORIENTED_EDGE( '', *, *, #218, .F. );
#196 = ORIENTED_EDGE( '', *, *, #215, .T. );
#197 = SURFACE_STYLE_FILL_AREA( #221 );
#198 = ORIENTED_EDGE( '', *, *, #222, .F. );
#199 = ORIENTED_EDGE( '', *, *, #213, .F. );
#200 = CARTESIAN_POINT( '', ( 0.000000000000000, 0.000000000000000, 6.00000000000000 ) );
#201 = DIRECTION( '', ( 0.000000000000000, 0.000000000000000, -1.00000000000000 ) );
#202 = DIRECTION( '', ( -1.00000000000000, 0.000000000000000, 0.000000000000000 ) );
#203 = SURFACE_STYLE_FILL_AREA( #223 );
#204 = ORIENTED_EDGE( '', *, *, #222, .T. );
#205 = ORIENTED_EDGE( '', *, *, #217, .T. );
#206 = CARTESIAN_POINT( '', ( 0.000000000000000, 0.000000000000000, 57.1500000000000 ) );
#207 = DIRECTION( '', ( -0.000000000000000, -0.000000000000000, -1.00000000000000 ) );
#208 = DIRECTION( '', ( 1.00000000000000, 0.000000000000000, 0.000000000000000 ) );
#209 = FILL_AREA_STYLE( '', ( #224 ) );
#210 = EDGE_CURVE( '', #225, #225, #226, .T. );
#211 = EDGE_CURVE( '', #227, #227, #228, .T. );
#212 = FILL_AREA_STYLE( '', ( #229 ) );
#213 = EDGE_CURVE( '', #230, #230, #231, .F. );
#214 = FILL_AREA_STYLE( '', ( #232 ) );
#215 = EDGE_CURVE( '', #233, #233, #234, .T. );
#216 = FILL_AREA_STYLE( '', ( #235 ) );
#217 = EDGE_CURVE( '', #236, #236, #237, .T. );
#218 = EDGE_CURVE( '', #238, #238, #239, .T. );
#219 = FILL_AREA_STYLE( '', ( #240 ) );
#220 = FILL_AREA_STYLE( '', ( #241 ) );
#221 = FILL_AREA_STYLE( '', ( #242 ) );
#222 = EDGE_CURVE( '', #243, #243, #244, .T. );
#223 = FILL_AREA_STYLE( '', ( #245 ) );
#224 = FILL_AREA_STYLE_COLOUR( '', #246 );
#225 = VERTEX_POINT( '', #247 );
#226 = CIRCLE( '', #248, 3.65000000000000 );
#227 = VERTEX_POINT( '', #249 );
#228 = CIRCLE( '', #250, 3.65000000000000 );
#229 = FILL_AREA_STYLE_COLOUR( '', #251 );
#230 = VERTEX_POINT( '', #252 );
#231 = CIRCLE( '', #253, 6.50000000000000 );
#232 = FILL_AREA_STYLE_COLOUR( '', #254 );
#233 = VERTEX_POINT( '', #255 );
#234 = CIRCLE( '', #256, 4.36421252896669 );
#235 = FILL_AREA_STYLE_COLOUR( '', #257 );
#236 = VERTEX_POINT( '', #258 );
#237 = CIRCLE( '', #259, 7.00000000000000 );
#238 = VERTEX_POINT( '', #260 );
#239 = CIRCLE( '', #261, 4.36421252896669 );
#240 = FILL_AREA_STYLE_COLOUR( '', #262 );
#241 = FILL_AREA_STYLE_COLOUR( '', #263 );
#242 = FILL_AREA_STYLE_COLOUR( '', #264 );
#243 = VERTEX_POINT( '', #265 );
#244 = CIRCLE( '', #266, 7.00000000000000 );
#245 = FILL_AREA_STYLE_COLOUR( '', #267 );
#246 = COLOUR_RGB( '', 1.00000000000000, 1.00000000000000, 1.00000000000000 );
#247 = CARTESIAN_POINT( '', ( 3.65000000000000, 0.000000000000000, 1.38777878078145E-014 ) );
#248 = AXIS2_PLACEMENT_3D( '', #268, #269, #270 );
#249 = CARTESIAN_POINT( '', ( 3.65000000000000, 0.000000000000000, 4.50000000000000 ) );
#250 = AXIS2_PLACEMENT_3D( '', #271, #272, #273 );
#251 = COLOUR_RGB( '', 1.00000000000000, 1.00000000000000, 1.00000000000000 );
#252 = CARTESIAN_POINT( '', ( -6.50000000000000, 0.000000000000000, 6.50000000000000 ) );
#253 = AXIS2_PLACEMENT_3D( '', #274, #275, #276 );
#254 = COLOUR_RGB( '', 1.00000000000000, 1.00000000000000, 1.00000000000000 );
#255 = CARTESIAN_POINT( '', ( 4.36421252896669, 0.000000000000000, -1.38777878078145E-014 ) );
#256 = AXIS2_PLACEMENT_3D( '', #277, #278, #279 );
#257 = COLOUR_RGB( '', 1.00000000000000, 1.00000000000000, 1.00000000000000 );
#258 = CARTESIAN_POINT( '', ( 7.00000000000000, 0.000000000000000, 4.50000000000000 ) );
#259 = AXIS2_PLACEMENT_3D( '', #280, #281, #282 );
#260 = CARTESIAN_POINT( '', ( 4.36421252896669, 0.000000000000000, 4.50000000000000 ) );
#261 = AXIS2_PLACEMENT_3D( '', #283, #284, #285 );
#262 = COLOUR_RGB( '', 1.00000000000000, 1.00000000000000, 1.00000000000000 );
#263 = COLOUR_RGB( '', 1.00000000000000, 1.00000000000000, 1.00000000000000 );
#264 = COLOUR_RGB( '', 1.00000000000000, 1.00000000000000, 1.00000000000000 );
#265 = CARTESIAN_POINT( '', ( -7.00000000000000, 0.000000000000000, 6.00000000000000 ) );
#266 = AXIS2_PLACEMENT_3D( '', #286, #287, #288 );
#267 = COLOUR_RGB( '', 1.00000000000000, 1.00000000000000, 1.00000000000000 );
#268 = CARTESIAN_POINT( '', ( 0.000000000000000, 0.000000000000000, 1.38777878078145E-014 ) );
#269 = DIRECTION( '', ( 0.000000000000000, 0.000000000000000, 1.00000000000000 ) );
#270 = DIRECTION( '', ( 1.00000000000000, 0.000000000000000, 0.000000000000000 ) );
#271 = CARTESIAN_POINT( '', ( 0.000000000000000, 0.000000000000000, 4.50000000000000 ) );
#272 = DIRECTION( '', ( 0.000000000000000, 0.000000000000000, 1.00000000000000 ) );
#273 = DIRECTION( '', ( 1.00000000000000, 0.000000000000000, 0.000000000000000 ) );
#274 = CARTESIAN_POINT( '', ( 0.000000000000000, 0.000000000000000, 6.50000000000000 ) );
#275 = DIRECTION( '', ( 0.000000000000000, 0.000000000000000, -1.00000000000000 ) );
#276 = DIRECTION( '', ( -1.00000000000000, 0.000000000000000, 0.000000000000000 ) );
#277 = CARTESIAN_POINT( '', ( 0.000000000000000, 0.000000000000000, -1.38777878078145E-014 ) );
#278 = DIRECTION( '', ( 0.000000000000000, 0.000000000000000, 1.00000000000000 ) );
#279 = DIRECTION( '', ( 1.00000000000000, 0.000000000000000, 0.000000000000000 ) );
#280 = CARTESIAN_POINT( '', ( 0.000000000000000, 0.000000000000000, 4.50000000000000 ) );
#281 = DIRECTION( '', ( 0.000000000000000, 0.000000000000000, 1.00000000000000 ) );
#282 = DIRECTION( '', ( 1.00000000000000, 0.000000000000000, 0.000000000000000 ) );
#283 = CARTESIAN_POINT( '', ( 0.000000000000000, 0.000000000000000, 4.50000000000000 ) );
#284 = DIRECTION( '', ( 0.000000000000000, 0.000000000000000, 1.00000000000000 ) );
#285 = DIRECTION( '', ( 1.00000000000000, 0.000000000000000, 0.000000000000000 ) );
#286 = CARTESIAN_POINT( '', ( 0.000000000000000, 0.000000000000000, 6.00000000000000 ) );
#287 = DIRECTION( '', ( 0.000000000000000, 0.000000000000000, -1.00000000000000 ) );
#288 = DIRECTION( '', ( -1.00000000000000, 0.000000000000000, 0.000000000000000 ) );
ENDSEC;
END-ISO-10303-21;
