ISO-10303-21;
HEADER;
FILE_DESCRIPTION( ( 'Unknown' ), '1' );
FILE_NAME( '//SBS2003/HD_Usb/Disegni/08_LIB/Users_3D/PROD_GAMM_3D/TTP/7372504.stp', 'Unknown', ( 'Unknown' ), ( 'Unknown' ), 'PSStep 14.0', 'Unknown', '  ' );
FILE_SCHEMA( ( 'AUTOMOTIVE_DESIGN { 1 0 10303 214 1 1 1 1 }' ) );
ENDSEC;
DATA;
#1 = MECHANICAL_DESIGN_GEOMETRIC_PRESENTATION_REPRESENTATION( ' ', ( #10, #11, #12, #13, #14, #15, #16, #17 ), #6 );
#2 = PRODUCT_DEFINITION_CONTEXT( '', #18, 'design' );
#3 = APPLICATION_PROTOCOL_DEFINITION( 'international standard', 'automotive_design', 2001, #18 );
#4 = PRODUCT_CATEGORY_RELATIONSHIP( 'NONE', 'NONE', #19, #20 );
#5 = SHAPE_DEFINITION_REPRESENTATION( #21, #22 );
#6 =  ( GEOMETRIC_REPRESENTATION_CONTEXT( 3 )GLOBAL_UNCERTAINTY_ASSIGNED_CONTEXT( ( #25 ) )GLOBAL_UNIT_ASSIGNED_CONTEXT( ( #27, #28, #29 ) )REPRESENTATION_CONTEXT( 'NONE', 'WORKSPACE' ) );
#10 = STYLED_ITEM( '', ( #31 ), #32 );
#11 = STYLED_ITEM( '', ( #33 ), #34 );
#12 = STYLED_ITEM( '', ( #35 ), #36 );
#13 = STYLED_ITEM( '', ( #37 ), #38 );
#14 = STYLED_ITEM( '', ( #39 ), #40 );
#15 = STYLED_ITEM( '', ( #41 ), #42 );
#16 = STYLED_ITEM( '', ( #43 ), #44 );
#17 = STYLED_ITEM( '', ( #45 ), #46 );
#18 = APPLICATION_CONTEXT( 'core data for automotive mechanical design processes' );
#19 = PRODUCT_CATEGORY( 'part', 'NONE' );
#20 = PRODUCT_RELATED_PRODUCT_CATEGORY( 'detail', ' ', ( #47 ) );
#21 = PRODUCT_DEFINITION_SHAPE( 'NONE', 'NONE', #48 );
#22 = ADVANCED_BREP_SHAPE_REPRESENTATION( '1', ( #49, #50 ), #6 );
#25 = UNCERTAINTY_MEASURE_WITH_UNIT( LENGTH_MEASURE( 0.00100000000000000 ), #27, '', '' );
#27 =  ( CONVERSION_BASED_UNIT( 'MILLIMETRE', #53 )LENGTH_UNIT(  )NAMED_UNIT( #56 ) );
#28 =  ( NAMED_UNIT( #58 )PLANE_ANGLE_UNIT(  )SI_UNIT( $, .RADIAN. ) );
#29 =  ( NAMED_UNIT( #58 )SI_UNIT( $, .STERADIAN. )SOLID_ANGLE_UNIT(  ) );
#31 = PRESENTATION_STYLE_ASSIGNMENT( ( #64 ) );
#32 = ADVANCED_FACE( '', ( #65, #66 ), #67, .T. );
#33 = PRESENTATION_STYLE_ASSIGNMENT( ( #68 ) );
#34 = ADVANCED_FACE( '', ( #69 ), #70, .F. );
#35 = PRESENTATION_STYLE_ASSIGNMENT( ( #71 ) );
#36 = ADVANCED_FACE( '', ( #72, #73 ), #74, .F. );
#37 = PRESENTATION_STYLE_ASSIGNMENT( ( #75 ) );
#38 = ADVANCED_FACE( '', ( #76 ), #77, .F. );
#39 = PRESENTATION_STYLE_ASSIGNMENT( ( #78 ) );
#40 = ADVANCED_FACE( '', ( #79, #80 ), #81, .F. );
#41 = PRESENTATION_STYLE_ASSIGNMENT( ( #82 ) );
#42 = ADVANCED_FACE( '', ( #83, #84 ), #85, .F. );
#43 = PRESENTATION_STYLE_ASSIGNMENT( ( #86 ) );
#44 = ADVANCED_FACE( '', ( #87, #88 ), #89, .T. );
#45 = PRESENTATION_STYLE_ASSIGNMENT( ( #90 ) );
#46 = ADVANCED_FACE( '', ( #91, #92 ), #93, .T. );
#47 = PRODUCT( '1', '1', 'PART-1-DESC', ( #94 ) );
#48 = PRODUCT_DEFINITION( 'NONE', 'NONE', #95, #2 );
#49 = MANIFOLD_SOLID_BREP( '1', #96 );
#50 = AXIS2_PLACEMENT_3D( '', #97, #98, #99 );
#53 = LENGTH_MEASURE_WITH_UNIT( LENGTH_MEASURE( 1.00000000000000 ), #100 );
#56 = DIMENSIONAL_EXPONENTS( 1.00000000000000, 0.000000000000000, 0.000000000000000, 0.000000000000000, 0.000000000000000, 0.000000000000000, 0.000000000000000 );
#58 = DIMENSIONAL_EXPONENTS( 0.000000000000000, 0.000000000000000, 0.000000000000000, 0.000000000000000, 0.000000000000000, 0.000000000000000, 0.000000000000000 );
#64 = SURFACE_STYLE_USAGE( .BOTH., #101 );
#65 = FACE_OUTER_BOUND( '', #102, .T. );
#66 = FACE_OUTER_BOUND( '', #103, .T. );
#67 = ( BOUNDED_SURFACE(  )B_SPLINE_SURFACE( 3, 3, ( ( #106, #107, #108, #109, #110, #111, #112 ), ( #113, #114, #115, #116, #117, #118, #119 ), ( #120, #121, #122, #123, #124, #125, #126 ), ( #127, #128, #129, #130, #131, #132, #133 ) ), .UNSPECIFIED., .F., .T., .F. )B_SPLINE_SURFACE_WITH_KNOTS( ( 4, 4 ), ( 4, 3, 4 ), ( 0.000000000000000, 6.28318530717959 ), ( -0.387395041056253, 0.000000000000000, 0.387395041056253 ), .UNSPECIFIED. )GEOMETRIC_REPRESENTATION_ITEM(  )RATIONAL_B_SPLINE_SURFACE( ( ( 1.00000000000000, 0.333333333333333, 0.333333333333333, 1.00000000000000, 0.333333333333333, 0.333333333333333, 1.00000000000000 ), ( 0.950597530548138, 0.316865843516046, 0.316865843516046, 0.950597530548138, 0.316865843516046, 0.316865843516046, 0.950597530548138 ), ( 0.950597530548138, 0.316865843516046, 0.316865843516046, 0.950597530548138, 0.316865843516046, 0.316865843516046, 0.950597530548138 ), ( 1.00000000000000, 0.333333333333333, 0.333333333333333, 1.00000000000000, 0.333333333333333, 0.333333333333333, 1.00000000000000 ) ) )REPRESENTATION_ITEM( '' )SURFACE(  ) );
#68 = SURFACE_STYLE_USAGE( .BOTH., #139 );
#69 = FACE_OUTER_BOUND( '', #140, .T. );
#70 = PLANE( '', #141 );
#71 = SURFACE_STYLE_USAGE( .BOTH., #142 );
#72 = FACE_OUTER_BOUND( '', #143, .T. );
#73 = FACE_OUTER_BOUND( '', #144, .T. );
#74 = CYLINDRICAL_SURFACE( '', #145, 3.15000000000000 );
#75 = SURFACE_STYLE_USAGE( .BOTH., #146 );
#76 = FACE_OUTER_BOUND( '', #147, .T. );
#77 = PLANE( '', #148 );
#78 = SURFACE_STYLE_USAGE( .BOTH., #149 );
#79 = FACE_OUTER_BOUND( '', #150, .T. );
#80 = FACE_BOUND( '', #151, .T. );
#81 = PLANE( '', #152 );
#82 = SURFACE_STYLE_USAGE( .BOTH., #153 );
#83 = FACE_OUTER_BOUND( '', #154, .T. );
#84 = FACE_BOUND( '', #155, .T. );
#85 = PLANE( '', #156 );
#86 = SURFACE_STYLE_USAGE( .BOTH., #157 );
#87 = FACE_OUTER_BOUND( '', #158, .T. );
#88 = FACE_OUTER_BOUND( '', #159, .T. );
#89 = TOROIDAL_SURFACE( '', #160, 7.50000000000000, 0.500000000000000 );
#90 = SURFACE_STYLE_USAGE( .BOTH., #161 );
#91 = FACE_OUTER_BOUND( '', #162, .T. );
#92 = FACE_OUTER_BOUND( '', #163, .T. );
#93 = CYLINDRICAL_SURFACE( '', #164, 8.00000000000000 );
#94 = PRODUCT_CONTEXT( '', #18, 'mechanical' );
#95 = PRODUCT_DEFINITION_FORMATION_WITH_SPECIFIED_SOURCE( ' ', 'NONE', #47, .NOT_KNOWN. );
#96 = CLOSED_SHELL( '', ( #36, #44, #34, #38, #46, #40, #32, #42 ) );
#97 = CARTESIAN_POINT( '', ( 0.000000000000000, 0.000000000000000, 0.000000000000000 ) );
#98 = DIRECTION( '', ( 0.000000000000000, 0.000000000000000, 1.00000000000000 ) );
#99 = DIRECTION( '', ( 1.00000000000000, 0.000000000000000, 0.000000000000000 ) );
#100 =  ( LENGTH_UNIT(  )NAMED_UNIT( #56 )SI_UNIT( .MILLI., .METRE. ) );
#101 = SURFACE_SIDE_STYLE( '', ( #166 ) );
#102 = EDGE_LOOP( '', ( #167 ) );
#103 = EDGE_LOOP( '', ( #168 ) );
#106 = CARTESIAN_POINT( '', ( 3.98306666239986, 0.000000000000000, 6.80000000000000 ) );
#107 = CARTESIAN_POINT( '', ( 3.98306666239986, 7.96613332479973, 6.80000000000000 ) );
#108 = CARTESIAN_POINT( '', ( -3.98306666239986, 7.96613332479973, 6.80000000000000 ) );
#109 = CARTESIAN_POINT( '', ( -3.98306666239986, 0.000000000000000, 6.80000000000000 ) );
#110 = CARTESIAN_POINT( '', ( -3.98306666239986, -7.96613332479973, 6.80000000000000 ) );
#111 = CARTESIAN_POINT( '', ( 3.98306666239986, -7.96613332479973, 6.80000000000000 ) );
#112 = CARTESIAN_POINT( '', ( 3.98306666239986, 0.000000000000000, 6.80000000000000 ) );
#113 = CARTESIAN_POINT( '', ( 4.88386460135783, 0.000000000000000, 4.59223256626790 ) );
#114 = CARTESIAN_POINT( '', ( 4.88386460135783, 9.76772920271566, 4.59223256626790 ) );
#115 = CARTESIAN_POINT( '', ( -4.88386460135783, 9.76772920271566, 4.59223256626790 ) );
#116 = CARTESIAN_POINT( '', ( -4.88386460135783, 0.000000000000000, 4.59223256626790 ) );
#117 = CARTESIAN_POINT( '', ( -4.88386460135783, -9.76772920271566, 4.59223256626790 ) );
#118 = CARTESIAN_POINT( '', ( 4.88386460135783, -9.76772920271566, 4.59223256626790 ) );
#119 = CARTESIAN_POINT( '', ( 4.88386460135783, 0.000000000000000, 4.59223256626790 ) );
#120 = CARTESIAN_POINT( '', ( 4.88386460135783, 0.000000000000000, 2.20776743373210 ) );
#121 = CARTESIAN_POINT( '', ( 4.88386460135783, 9.76772920271566, 2.20776743373210 ) );
#122 = CARTESIAN_POINT( '', ( -4.88386460135783, 9.76772920271566, 2.20776743373210 ) );
#123 = CARTESIAN_POINT( '', ( -4.88386460135783, 0.000000000000000, 2.20776743373210 ) );
#124 = CARTESIAN_POINT( '', ( -4.88386460135783, -9.76772920271566, 2.20776743373210 ) );
#125 = CARTESIAN_POINT( '', ( 4.88386460135783, -9.76772920271566, 2.20776743373210 ) );
#126 = CARTESIAN_POINT( '', ( 4.88386460135783, 0.000000000000000, 2.20776743373210 ) );
#127 = CARTESIAN_POINT( '', ( 3.98306666239986, 0.000000000000000, 0.000000000000000 ) );
#128 = CARTESIAN_POINT( '', ( 3.98306666239986, 7.96613332479973, 0.000000000000000 ) );
#129 = CARTESIAN_POINT( '', ( -3.98306666239986, 7.96613332479973, 0.000000000000000 ) );
#130 = CARTESIAN_POINT( '', ( -3.98306666239986, 0.000000000000000, 0.000000000000000 ) );
#131 = CARTESIAN_POINT( '', ( -3.98306666239986, -7.96613332479973, 0.000000000000000 ) );
#132 = CARTESIAN_POINT( '', ( 3.98306666239986, -7.96613332479973, 0.000000000000000 ) );
#133 = CARTESIAN_POINT( '', ( 3.98306666239986, 0.000000000000000, 0.000000000000000 ) );
#139 = SURFACE_SIDE_STYLE( '', ( #169 ) );
#140 = EDGE_LOOP( '', ( #170 ) );
#141 = AXIS2_PLACEMENT_3D( '', #171, #172, #173 );
#142 = SURFACE_SIDE_STYLE( '', ( #174 ) );
#143 = EDGE_LOOP( '', ( #175 ) );
#144 = EDGE_LOOP( '', ( #176 ) );
#145 = AXIS2_PLACEMENT_3D( '', #177, #178, #179 );
#146 = SURFACE_SIDE_STYLE( '', ( #180 ) );
#147 = EDGE_LOOP( '', ( #181 ) );
#148 = AXIS2_PLACEMENT_3D( '', #182, #183, #184 );
#149 = SURFACE_SIDE_STYLE( '', ( #185 ) );
#150 = EDGE_LOOP( '', ( #186 ) );
#151 = EDGE_LOOP( '', ( #187 ) );
#152 = AXIS2_PLACEMENT_3D( '', #188, #189, #190 );
#153 = SURFACE_SIDE_STYLE( '', ( #191 ) );
#154 = EDGE_LOOP( '', ( #192 ) );
#155 = EDGE_LOOP( '', ( #193 ) );
#156 = AXIS2_PLACEMENT_3D( '', #194, #195, #196 );
#157 = SURFACE_SIDE_STYLE( '', ( #197 ) );
#158 = EDGE_LOOP( '', ( #198 ) );
#159 = EDGE_LOOP( '', ( #199 ) );
#160 = AXIS2_PLACEMENT_3D( '', #200, #201, #202 );
#161 = SURFACE_SIDE_STYLE( '', ( #203 ) );
#162 = EDGE_LOOP( '', ( #204 ) );
#163 = EDGE_LOOP( '', ( #205 ) );
#164 = AXIS2_PLACEMENT_3D( '', #206, #207, #208 );
#166 = SURFACE_STYLE_FILL_AREA( #209 );
#167 = ORIENTED_EDGE( '', *, *, #210, .F. );
#168 = ORIENTED_EDGE( '', *, *, #211, .T. );
#169 = SURFACE_STYLE_FILL_AREA( #212 );
#170 = ORIENTED_EDGE( '', *, *, #213, .F. );
#171 = CARTESIAN_POINT( '', ( 1.83697019872102E-016, 0.000000000000000, 6.80000000000000 ) );
#172 = DIRECTION( '', ( 0.000000000000000, 0.000000000000000, 1.00000000000000 ) );
#173 = DIRECTION( '', ( 1.00000000000000, 0.000000000000000, 0.000000000000000 ) );
#174 = SURFACE_STYLE_FILL_AREA( #214 );
#175 = ORIENTED_EDGE( '', *, *, #215, .F. );
#176 = ORIENTED_EDGE( '', *, *, #213, .T. );
#177 = CARTESIAN_POINT( '', ( 0.000000000000000, 0.000000000000000, 57.1500000000000 ) );
#178 = DIRECTION( '', ( -0.000000000000000, -0.000000000000000, -1.00000000000000 ) );
#179 = DIRECTION( '', ( 1.00000000000000, 0.000000000000000, 0.000000000000000 ) );
#180 = SURFACE_STYLE_FILL_AREA( #216 );
#181 = ORIENTED_EDGE( '', *, *, #217, .T. );
#182 = CARTESIAN_POINT( '', ( 8.00000000000000, 0.000000000000000, 8.30000000000000 ) );
#183 = DIRECTION( '', ( 0.000000000000000, 0.000000000000000, -1.00000000000000 ) );
#184 = DIRECTION( '', ( -1.00000000000000, 0.000000000000000, 0.000000000000000 ) );
#185 = SURFACE_STYLE_FILL_AREA( #218 );
#186 = ORIENTED_EDGE( '', *, *, #211, .F. );
#187 = ORIENTED_EDGE( '', *, *, #215, .T. );
#188 = CARTESIAN_POINT( '', ( 3.15000000000000, 0.000000000000000, 0.000000000000000 ) );
#189 = DIRECTION( '', ( 0.000000000000000, 0.000000000000000, 1.00000000000000 ) );
#190 = DIRECTION( '', ( 1.00000000000000, 0.000000000000000, 0.000000000000000 ) );
#191 = SURFACE_STYLE_FILL_AREA( #219 );
#192 = ORIENTED_EDGE( '', *, *, #220, .F. );
#193 = ORIENTED_EDGE( '', *, *, #210, .T. );
#194 = CARTESIAN_POINT( '', ( 3.98306666239987, 0.000000000000000, 6.80000000000000 ) );
#195 = DIRECTION( '', ( 0.000000000000000, 0.000000000000000, 1.00000000000000 ) );
#196 = DIRECTION( '', ( 1.00000000000000, 0.000000000000000, 0.000000000000000 ) );
#197 = SURFACE_STYLE_FILL_AREA( #221 );
#198 = ORIENTED_EDGE( '', *, *, #222, .F. );
#199 = ORIENTED_EDGE( '', *, *, #217, .F. );
#200 = CARTESIAN_POINT( '', ( 0.000000000000000, 0.000000000000000, 7.80000000000000 ) );
#201 = DIRECTION( '', ( 0.000000000000000, 0.000000000000000, -1.00000000000000 ) );
#202 = DIRECTION( '', ( -1.00000000000000, 0.000000000000000, 0.000000000000000 ) );
#203 = SURFACE_STYLE_FILL_AREA( #223 );
#204 = ORIENTED_EDGE( '', *, *, #222, .T. );
#205 = ORIENTED_EDGE( '', *, *, #220, .T. );
#206 = CARTESIAN_POINT( '', ( 0.000000000000000, 0.000000000000000, 57.1500000000000 ) );
#207 = DIRECTION( '', ( -0.000000000000000, -0.000000000000000, -1.00000000000000 ) );
#208 = DIRECTION( '', ( 1.00000000000000, 0.000000000000000, 0.000000000000000 ) );
#209 = FILL_AREA_STYLE( '', ( #224 ) );
#210 = EDGE_CURVE( '', #225, #225, #226, .T. );
#211 = EDGE_CURVE( '', #227, #227, #228, .T. );
#212 = FILL_AREA_STYLE( '', ( #229 ) );
#213 = EDGE_CURVE( '', #230, #230, #231, .T. );
#214 = FILL_AREA_STYLE( '', ( #232 ) );
#215 = EDGE_CURVE( '', #233, #233, #234, .T. );
#216 = FILL_AREA_STYLE( '', ( #235 ) );
#217 = EDGE_CURVE( '', #236, #236, #237, .F. );
#218 = FILL_AREA_STYLE( '', ( #238 ) );
#219 = FILL_AREA_STYLE( '', ( #239 ) );
#220 = EDGE_CURVE( '', #240, #240, #241, .T. );
#221 = FILL_AREA_STYLE( '', ( #242 ) );
#222 = EDGE_CURVE( '', #243, #243, #244, .T. );
#223 = FILL_AREA_STYLE( '', ( #245 ) );
#224 = FILL_AREA_STYLE_COLOUR( '', #246 );
#225 = VERTEX_POINT( '', #247 );
#226 = CIRCLE( '', #248, 3.98306666239987 );
#227 = VERTEX_POINT( '', #249 );
#228 = CIRCLE( '', #250, 3.98306666239987 );
#229 = FILL_AREA_STYLE_COLOUR( '', #251 );
#230 = VERTEX_POINT( '', #252 );
#231 = CIRCLE( '', #253, 3.15000000000000 );
#232 = FILL_AREA_STYLE_COLOUR( '', #254 );
#233 = VERTEX_POINT( '', #255 );
#234 = CIRCLE( '', #256, 3.15000000000000 );
#235 = FILL_AREA_STYLE_COLOUR( '', #257 );
#236 = VERTEX_POINT( '', #258 );
#237 = CIRCLE( '', #259, 7.50000000000000 );
#238 = FILL_AREA_STYLE_COLOUR( '', #260 );
#239 = FILL_AREA_STYLE_COLOUR( '', #261 );
#240 = VERTEX_POINT( '', #262 );
#241 = CIRCLE( '', #263, 8.00000000000000 );
#242 = FILL_AREA_STYLE_COLOUR( '', #264 );
#243 = VERTEX_POINT( '', #265 );
#244 = CIRCLE( '', #266, 8.00000000000000 );
#245 = FILL_AREA_STYLE_COLOUR( '', #267 );
#246 = COLOUR_RGB( '', 1.00000000000000, 1.00000000000000, 1.00000000000000 );
#247 = CARTESIAN_POINT( '', ( 3.98306666239987, 0.000000000000000, 6.80000000000000 ) );
#248 = AXIS2_PLACEMENT_3D( '', #268, #269, #270 );
#249 = CARTESIAN_POINT( '', ( 3.98306666239987, 0.000000000000000, 0.000000000000000 ) );
#250 = AXIS2_PLACEMENT_3D( '', #271, #272, #273 );
#251 = COLOUR_RGB( '', 1.00000000000000, 1.00000000000000, 1.00000000000000 );
#252 = CARTESIAN_POINT( '', ( 3.15000000000000, 0.000000000000000, 6.80000000000000 ) );
#253 = AXIS2_PLACEMENT_3D( '', #274, #275, #276 );
#254 = COLOUR_RGB( '', 1.00000000000000, 1.00000000000000, 1.00000000000000 );
#255 = CARTESIAN_POINT( '', ( 3.15000000000000, 0.000000000000000, 0.000000000000000 ) );
#256 = AXIS2_PLACEMENT_3D( '', #277, #278, #279 );
#257 = COLOUR_RGB( '', 1.00000000000000, 1.00000000000000, 1.00000000000000 );
#258 = CARTESIAN_POINT( '', ( -7.50000000000000, 0.000000000000000, 8.30000000000000 ) );
#259 = AXIS2_PLACEMENT_3D( '', #280, #281, #282 );
#260 = COLOUR_RGB( '', 1.00000000000000, 1.00000000000000, 1.00000000000000 );
#261 = COLOUR_RGB( '', 1.00000000000000, 1.00000000000000, 1.00000000000000 );
#262 = CARTESIAN_POINT( '', ( 8.00000000000000, 0.000000000000000, 6.80000000000000 ) );
#263 = AXIS2_PLACEMENT_3D( '', #283, #284, #285 );
#264 = COLOUR_RGB( '', 1.00000000000000, 1.00000000000000, 1.00000000000000 );
#265 = CARTESIAN_POINT( '', ( -8.00000000000000, 0.000000000000000, 7.80000000000000 ) );
#266 = AXIS2_PLACEMENT_3D( '', #286, #287, #288 );
#267 = COLOUR_RGB( '', 1.00000000000000, 1.00000000000000, 1.00000000000000 );
#268 = CARTESIAN_POINT( '', ( 0.000000000000000, 0.000000000000000, 6.80000000000000 ) );
#269 = DIRECTION( '', ( 0.000000000000000, 0.000000000000000, 1.00000000000000 ) );
#270 = DIRECTION( '', ( 1.00000000000000, 0.000000000000000, 0.000000000000000 ) );
#271 = CARTESIAN_POINT( '', ( 0.000000000000000, 0.000000000000000, 0.000000000000000 ) );
#272 = DIRECTION( '', ( 0.000000000000000, 0.000000000000000, 1.00000000000000 ) );
#273 = DIRECTION( '', ( 1.00000000000000, 0.000000000000000, 0.000000000000000 ) );
#274 = CARTESIAN_POINT( '', ( 0.000000000000000, 0.000000000000000, 6.80000000000000 ) );
#275 = DIRECTION( '', ( 0.000000000000000, 0.000000000000000, 1.00000000000000 ) );
#276 = DIRECTION( '', ( 1.00000000000000, 0.000000000000000, 0.000000000000000 ) );
#277 = CARTESIAN_POINT( '', ( 0.000000000000000, 0.000000000000000, 0.000000000000000 ) );
#278 = DIRECTION( '', ( 0.000000000000000, 0.000000000000000, 1.00000000000000 ) );
#279 = DIRECTION( '', ( 1.00000000000000, 0.000000000000000, 0.000000000000000 ) );
#280 = CARTESIAN_POINT( '', ( 0.000000000000000, 0.000000000000000, 8.30000000000000 ) );
#281 = DIRECTION( '', ( 0.000000000000000, 0.000000000000000, -1.00000000000000 ) );
#282 = DIRECTION( '', ( -1.00000000000000, 0.000000000000000, 0.000000000000000 ) );
#283 = CARTESIAN_POINT( '', ( 0.000000000000000, 0.000000000000000, 6.80000000000000 ) );
#284 = DIRECTION( '', ( 0.000000000000000, 0.000000000000000, 1.00000000000000 ) );
#285 = DIRECTION( '', ( 1.00000000000000, 0.000000000000000, 0.000000000000000 ) );
#286 = CARTESIAN_POINT( '', ( 0.000000000000000, 0.000000000000000, 7.80000000000000 ) );
#287 = DIRECTION( '', ( 0.000000000000000, 0.000000000000000, -1.00000000000000 ) );
#288 = DIRECTION( '', ( -1.00000000000000, 0.000000000000000, 0.000000000000000 ) );
ENDSEC;
END-ISO-10303-21;
