ISO-10303-21;
HEADER;
FILE_DESCRIPTION( ( 'Unknown' ), '1' );
FILE_NAME( '//SBS2003/HD_Usb/Disegni/08_LIB/Users_3D/PROD_GAMM_3D/TTP/7372508.stp', 'Unknown', ( 'Unknown' ), ( 'Unknown' ), 'PSStep 14.0', 'Unknown', '  ' );
FILE_SCHEMA( ( 'AUTOMOTIVE_DESIGN { 1 0 10303 214 1 1 1 1 }' ) );
ENDSEC;
DATA;
#1 = MECHANICAL_DESIGN_GEOMETRIC_PRESENTATION_REPRESENTATION( ' ', ( #10, #11, #12, #13, #14, #15, #16, #17 ), #6 );
#2 = PRODUCT_DEFINITION_CONTEXT( '', #18, 'design' );
#3 = APPLICATION_PROTOCOL_DEFINITION( 'international standard', 'automotive_design', 2001, #18 );
#4 = PRODUCT_CATEGORY_RELATIONSHIP( 'NONE', 'NONE', #19, #20 );
#5 = SHAPE_DEFINITION_REPRESENTATION( #21, #22 );
#6 =  ( GEOMETRIC_REPRESENTATION_CONTEXT( 3 )GLOBAL_UNCERTAINTY_ASSIGNED_CONTEXT( ( #25 ) )GLOBAL_UNIT_ASSIGNED_CONTEXT( ( #27, #28, #29 ) )REPRESENTATION_CONTEXT( 'NONE', 'WORKSPACE' ) );
#10 = STYLED_ITEM( '', ( #31 ), #32 );
#11 = STYLED_ITEM( '', ( #33 ), #34 );
#12 = STYLED_ITEM( '', ( #35 ), #36 );
#13 = STYLED_ITEM( '', ( #37 ), #38 );
#14 = STYLED_ITEM( '', ( #39 ), #40 );
#15 = STYLED_ITEM( '', ( #41 ), #42 );
#16 = STYLED_ITEM( '', ( #43 ), #44 );
#17 = STYLED_ITEM( '', ( #45 ), #46 );
#18 = APPLICATION_CONTEXT( 'core data for automotive mechanical design processes' );
#19 = PRODUCT_CATEGORY( 'part', 'NONE' );
#20 = PRODUCT_RELATED_PRODUCT_CATEGORY( 'detail', ' ', ( #47 ) );
#21 = PRODUCT_DEFINITION_SHAPE( 'NONE', 'NONE', #48 );
#22 = ADVANCED_BREP_SHAPE_REPRESENTATION( '1', ( #49, #50 ), #6 );
#25 = UNCERTAINTY_MEASURE_WITH_UNIT( LENGTH_MEASURE( 0.00100000000000000 ), #27, '', '' );
#27 =  ( CONVERSION_BASED_UNIT( 'MILLIMETRE', #53 )LENGTH_UNIT(  )NAMED_UNIT( #56 ) );
#28 =  ( NAMED_UNIT( #58 )PLANE_ANGLE_UNIT(  )SI_UNIT( $, .RADIAN. ) );
#29 =  ( NAMED_UNIT( #58 )SI_UNIT( $, .STERADIAN. )SOLID_ANGLE_UNIT(  ) );
#31 = PRESENTATION_STYLE_ASSIGNMENT( ( #64 ) );
#32 = ADVANCED_FACE( '', ( #65, #66 ), #67, .T. );
#33 = PRESENTATION_STYLE_ASSIGNMENT( ( #68 ) );
#34 = ADVANCED_FACE( '', ( #69, #70 ), #71, .F. );
#35 = PRESENTATION_STYLE_ASSIGNMENT( ( #72 ) );
#36 = ADVANCED_FACE( '', ( #73, #74 ), #75, .T. );
#37 = PRESENTATION_STYLE_ASSIGNMENT( ( #76 ) );
#38 = ADVANCED_FACE( '', ( #77, #78 ), #79, .F. );
#39 = PRESENTATION_STYLE_ASSIGNMENT( ( #80 ) );
#40 = ADVANCED_FACE( '', ( #81, #82 ), #83, .T. );
#41 = PRESENTATION_STYLE_ASSIGNMENT( ( #84 ) );
#42 = ADVANCED_FACE( '', ( #85 ), #86, .F. );
#43 = PRESENTATION_STYLE_ASSIGNMENT( ( #87 ) );
#44 = ADVANCED_FACE( '', ( #88 ), #89, .F. );
#45 = PRESENTATION_STYLE_ASSIGNMENT( ( #90 ) );
#46 = ADVANCED_FACE( '', ( #91, #92 ), #93, .F. );
#47 = PRODUCT( '1', '1', 'PART-1-DESC', ( #94 ) );
#48 = PRODUCT_DEFINITION( 'NONE', 'NONE', #95, #2 );
#49 = MANIFOLD_SOLID_BREP( '1', #96 );
#50 = AXIS2_PLACEMENT_3D( '', #97, #98, #99 );
#53 = LENGTH_MEASURE_WITH_UNIT( LENGTH_MEASURE( 1.00000000000000 ), #100 );
#56 = DIMENSIONAL_EXPONENTS( 1.00000000000000, 0.000000000000000, 0.000000000000000, 0.000000000000000, 0.000000000000000, 0.000000000000000, 0.000000000000000 );
#58 = DIMENSIONAL_EXPONENTS( 0.000000000000000, 0.000000000000000, 0.000000000000000, 0.000000000000000, 0.000000000000000, 0.000000000000000, 0.000000000000000 );
#64 = SURFACE_STYLE_USAGE( .BOTH., #101 );
#65 = FACE_OUTER_BOUND( '', #102, .T. );
#66 = FACE_OUTER_BOUND( '', #103, .T. );
#67 = CYLINDRICAL_SURFACE( '', #104, 8.00000000000000 );
#68 = SURFACE_STYLE_USAGE( .BOTH., #105 );
#69 = FACE_OUTER_BOUND( '', #106, .T. );
#70 = FACE_BOUND( '', #107, .T. );
#71 = PLANE( '', #108 );
#72 = SURFACE_STYLE_USAGE( .BOTH., #109 );
#73 = FACE_OUTER_BOUND( '', #110, .T. );
#74 = FACE_OUTER_BOUND( '', #111, .T. );
#75 = ( BOUNDED_SURFACE(  )B_SPLINE_SURFACE( 3, 3, ( ( #114, #115, #116, #117, #118, #119, #120 ), ( #121, #122, #123, #124, #125, #126, #127 ), ( #128, #129, #130, #131, #132, #133, #134 ), ( #135, #136, #137, #138, #139, #140, #141 ) ), .UNSPECIFIED., .F., .T., .F. )B_SPLINE_SURFACE_WITH_KNOTS( ( 4, 4 ), ( 4, 3, 4 ), ( 0.000000000000000, 6.28318530717959 ), ( -0.235504236720800, -2.22044604925031E-016, 0.235504236720800 ), .UNSPECIFIED. )GEOMETRIC_REPRESENTATION_ITEM(  )RATIONAL_B_SPLINE_SURFACE( ( ( 1.00000000000000, 0.333333333333333, 0.333333333333333, 1.00000000000000, 0.333333333333333, 0.333333333333333, 1.00000000000000 ), ( 0.981597873147325, 0.327199291049108, 0.327199291049108, 0.981597873147325, 0.327199291049108, 0.327199291049108, 0.981597873147325 ), ( 0.981597873147325, 0.327199291049108, 0.327199291049108, 0.981597873147325, 0.327199291049108, 0.327199291049108, 0.981597873147325 ), ( 1.00000000000000, 0.333333333333333, 0.333333333333333, 1.00000000000000, 0.333333333333333, 0.333333333333333, 1.00000000000000 ) ) )REPRESENTATION_ITEM( '' )SURFACE(  ) );
#76 = SURFACE_STYLE_USAGE( .BOTH., #147 );
#77 = FACE_OUTER_BOUND( '', #148, .T. );
#78 = FACE_BOUND( '', #149, .T. );
#79 = PLANE( '', #150 );
#80 = SURFACE_STYLE_USAGE( .BOTH., #151 );
#81 = FACE_OUTER_BOUND( '', #152, .T. );
#82 = FACE_OUTER_BOUND( '', #153, .T. );
#83 = TOROIDAL_SURFACE( '', #154, 7.50000000000000, 0.500000000000000 );
#84 = SURFACE_STYLE_USAGE( .BOTH., #155 );
#85 = FACE_OUTER_BOUND( '', #156, .T. );
#86 = PLANE( '', #157 );
#87 = SURFACE_STYLE_USAGE( .BOTH., #158 );
#88 = FACE_OUTER_BOUND( '', #159, .T. );
#89 = PLANE( '', #160 );
#90 = SURFACE_STYLE_USAGE( .BOTH., #161 );
#91 = FACE_OUTER_BOUND( '', #162, .T. );
#92 = FACE_OUTER_BOUND( '', #163, .T. );
#93 = CYLINDRICAL_SURFACE( '', #164, 4.95000000000000 );
#94 = PRODUCT_CONTEXT( '', #18, 'mechanical' );
#95 = PRODUCT_DEFINITION_FORMATION_WITH_SPECIFIED_SOURCE( ' ', 'NONE', #47, .NOT_KNOWN. );
#96 = CLOSED_SHELL( '', ( #46, #40, #42, #44, #32, #34, #36, #38 ) );
#97 = CARTESIAN_POINT( '', ( 0.000000000000000, 0.000000000000000, 0.000000000000000 ) );
#98 = DIRECTION( '', ( 0.000000000000000, 0.000000000000000, 1.00000000000000 ) );
#99 = DIRECTION( '', ( 1.00000000000000, 0.000000000000000, 0.000000000000000 ) );
#100 =  ( LENGTH_UNIT(  )NAMED_UNIT( #56 )SI_UNIT( .MILLI., .METRE. ) );
#101 = SURFACE_SIDE_STYLE( '', ( #166 ) );
#102 = EDGE_LOOP( '', ( #167 ) );
#103 = EDGE_LOOP( '', ( #168 ) );
#104 = AXIS2_PLACEMENT_3D( '', #169, #170, #171 );
#105 = SURFACE_SIDE_STYLE( '', ( #172 ) );
#106 = EDGE_LOOP( '', ( #173 ) );
#107 = EDGE_LOOP( '', ( #174 ) );
#108 = AXIS2_PLACEMENT_3D( '', #175, #176, #177 );
#109 = SURFACE_SIDE_STYLE( '', ( #178 ) );
#110 = EDGE_LOOP( '', ( #179 ) );
#111 = EDGE_LOOP( '', ( #180 ) );
#114 = CARTESIAN_POINT( '', ( 5.53595214581482, 0.000000000000000, 7.00000000000000 ) );
#115 = CARTESIAN_POINT( '', ( 5.53595214581482, 11.0719042916296, 7.00000000000000 ) );
#116 = CARTESIAN_POINT( '', ( -5.53595214581482, 11.0719042916296, 7.00000000000000 ) );
#117 = CARTESIAN_POINT( '', ( -5.53595214581482, 0.000000000000000, 7.00000000000000 ) );
#118 = CARTESIAN_POINT( '', ( -5.53595214581482, -11.0719042916296, 7.00000000000000 ) );
#119 = CARTESIAN_POINT( '', ( 5.53595214581482, -11.0719042916296, 7.00000000000000 ) );
#120 = CARTESIAN_POINT( '', ( 5.53595214581482, 0.000000000000000, 7.00000000000000 ) );
#121 = CARTESIAN_POINT( '', ( 6.09060335211662, 0.000000000000000, 4.68853829921814 ) );
#122 = CARTESIAN_POINT( '', ( 6.09060335211662, 12.1812067042332, 4.68853829921814 ) );
#123 = CARTESIAN_POINT( '', ( -6.09060335211662, 12.1812067042332, 4.68853829921814 ) );
#124 = CARTESIAN_POINT( '', ( -6.09060335211662, 0.000000000000000, 4.68853829921814 ) );
#125 = CARTESIAN_POINT( '', ( -6.09060335211662, -12.1812067042332, 4.68853829921814 ) );
#126 = CARTESIAN_POINT( '', ( 6.09060335211662, -12.1812067042332, 4.68853829921814 ) );
#127 = CARTESIAN_POINT( '', ( 6.09060335211662, 0.000000000000000, 4.68853829921814 ) );
#128 = CARTESIAN_POINT( '', ( 6.09060335211662, 0.000000000000000, 2.31146170078185 ) );
#129 = CARTESIAN_POINT( '', ( 6.09060335211662, 12.1812067042332, 2.31146170078185 ) );
#130 = CARTESIAN_POINT( '', ( -6.09060335211662, 12.1812067042332, 2.31146170078185 ) );
#131 = CARTESIAN_POINT( '', ( -6.09060335211662, 0.000000000000000, 2.31146170078185 ) );
#132 = CARTESIAN_POINT( '', ( -6.09060335211662, -12.1812067042332, 2.31146170078185 ) );
#133 = CARTESIAN_POINT( '', ( 6.09060335211662, -12.1812067042332, 2.31146170078185 ) );
#134 = CARTESIAN_POINT( '', ( 6.09060335211662, 0.000000000000000, 2.31146170078185 ) );
#135 = CARTESIAN_POINT( '', ( 5.53595214581482, 0.000000000000000, -6.93889390390723E-015 ) );
#136 = CARTESIAN_POINT( '', ( 5.53595214581482, 11.0719042916296, -6.93889390390723E-015 ) );
#137 = CARTESIAN_POINT( '', ( -5.53595214581482, 11.0719042916296, -6.93889390390723E-015 ) );
#138 = CARTESIAN_POINT( '', ( -5.53595214581482, 0.000000000000000, -6.93889390390723E-015 ) );
#139 = CARTESIAN_POINT( '', ( -5.53595214581482, -11.0719042916296, -6.93889390390723E-015 ) );
#140 = CARTESIAN_POINT( '', ( 5.53595214581482, -11.0719042916296, -6.93889390390723E-015 ) );
#141 = CARTESIAN_POINT( '', ( 5.53595214581482, 0.000000000000000, -6.93889390390723E-015 ) );
#147 = SURFACE_SIDE_STYLE( '', ( #181 ) );
#148 = EDGE_LOOP( '', ( #182 ) );
#149 = EDGE_LOOP( '', ( #183 ) );
#150 = AXIS2_PLACEMENT_3D( '', #184, #185, #186 );
#151 = SURFACE_SIDE_STYLE( '', ( #187 ) );
#152 = EDGE_LOOP( '', ( #188 ) );
#153 = EDGE_LOOP( '', ( #189 ) );
#154 = AXIS2_PLACEMENT_3D( '', #190, #191, #192 );
#155 = SURFACE_SIDE_STYLE( '', ( #193 ) );
#156 = EDGE_LOOP( '', ( #194 ) );
#157 = AXIS2_PLACEMENT_3D( '', #195, #196, #197 );
#158 = SURFACE_SIDE_STYLE( '', ( #198 ) );
#159 = EDGE_LOOP( '', ( #199 ) );
#160 = AXIS2_PLACEMENT_3D( '', #200, #201, #202 );
#161 = SURFACE_SIDE_STYLE( '', ( #203 ) );
#162 = EDGE_LOOP( '', ( #204 ) );
#163 = EDGE_LOOP( '', ( #205 ) );
#164 = AXIS2_PLACEMENT_3D( '', #206, #207, #208 );
#166 = SURFACE_STYLE_FILL_AREA( #209 );
#167 = ORIENTED_EDGE( '', *, *, #210, .T. );
#168 = ORIENTED_EDGE( '', *, *, #211, .T. );
#169 = CARTESIAN_POINT( '', ( 0.000000000000000, 0.000000000000000, 57.1500000000000 ) );
#170 = DIRECTION( '', ( -0.000000000000000, -0.000000000000000, -1.00000000000000 ) );
#171 = DIRECTION( '', ( 1.00000000000000, 0.000000000000000, 0.000000000000000 ) );
#172 = SURFACE_STYLE_FILL_AREA( #212 );
#173 = ORIENTED_EDGE( '', *, *, #213, .F. );
#174 = ORIENTED_EDGE( '', *, *, #214, .T. );
#175 = CARTESIAN_POINT( '', ( 4.95000000000000, 0.000000000000000, 0.000000000000000 ) );
#176 = DIRECTION( '', ( 0.000000000000000, 0.000000000000000, 1.00000000000000 ) );
#177 = DIRECTION( '', ( 1.00000000000000, 0.000000000000000, 0.000000000000000 ) );
#178 = SURFACE_STYLE_FILL_AREA( #215 );
#179 = ORIENTED_EDGE( '', *, *, #216, .F. );
#180 = ORIENTED_EDGE( '', *, *, #213, .T. );
#181 = SURFACE_STYLE_FILL_AREA( #217 );
#182 = ORIENTED_EDGE( '', *, *, #211, .F. );
#183 = ORIENTED_EDGE( '', *, *, #216, .T. );
#184 = CARTESIAN_POINT( '', ( 5.53595214581482, 0.000000000000000, 7.00000000000000 ) );
#185 = DIRECTION( '', ( 0.000000000000000, 0.000000000000000, 1.00000000000000 ) );
#186 = DIRECTION( '', ( 1.00000000000000, 0.000000000000000, 0.000000000000000 ) );
#187 = SURFACE_STYLE_FILL_AREA( #218 );
#188 = ORIENTED_EDGE( '', *, *, #210, .F. );
#189 = ORIENTED_EDGE( '', *, *, #219, .F. );
#190 = CARTESIAN_POINT( '', ( 0.000000000000000, 0.000000000000000, 8.50000000000000 ) );
#191 = DIRECTION( '', ( 0.000000000000000, 0.000000000000000, -1.00000000000000 ) );
#192 = DIRECTION( '', ( -1.00000000000000, 0.000000000000000, 0.000000000000000 ) );
#193 = SURFACE_STYLE_FILL_AREA( #220 );
#194 = ORIENTED_EDGE( '', *, *, #221, .F. );
#195 = CARTESIAN_POINT( '', ( 6.12323399573669E-017, 0.000000000000000, 7.00000000000000 ) );
#196 = DIRECTION( '', ( 0.000000000000000, 0.000000000000000, 1.00000000000000 ) );
#197 = DIRECTION( '', ( 1.00000000000000, 0.000000000000000, 0.000000000000000 ) );
#198 = SURFACE_STYLE_FILL_AREA( #222 );
#199 = ORIENTED_EDGE( '', *, *, #219, .T. );
#200 = CARTESIAN_POINT( '', ( 8.00000000000000, 0.000000000000000, 9.00000000000000 ) );
#201 = DIRECTION( '', ( 0.000000000000000, 0.000000000000000, -1.00000000000000 ) );
#202 = DIRECTION( '', ( -1.00000000000000, 0.000000000000000, 0.000000000000000 ) );
#203 = SURFACE_STYLE_FILL_AREA( #223 );
#204 = ORIENTED_EDGE( '', *, *, #214, .F. );
#205 = ORIENTED_EDGE( '', *, *, #221, .T. );
#206 = CARTESIAN_POINT( '', ( 0.000000000000000, 0.000000000000000, 57.1500000000000 ) );
#207 = DIRECTION( '', ( -0.000000000000000, -0.000000000000000, -1.00000000000000 ) );
#208 = DIRECTION( '', ( 1.00000000000000, 0.000000000000000, 0.000000000000000 ) );
#209 = FILL_AREA_STYLE( '', ( #224 ) );
#210 = EDGE_CURVE( '', #225, #225, #226, .T. );
#211 = EDGE_CURVE( '', #227, #227, #228, .T. );
#212 = FILL_AREA_STYLE( '', ( #229 ) );
#213 = EDGE_CURVE( '', #230, #230, #231, .T. );
#214 = EDGE_CURVE( '', #232, #232, #233, .T. );
#215 = FILL_AREA_STYLE( '', ( #234 ) );
#216 = EDGE_CURVE( '', #235, #235, #236, .T. );
#217 = FILL_AREA_STYLE( '', ( #237 ) );
#218 = FILL_AREA_STYLE( '', ( #238 ) );
#219 = EDGE_CURVE( '', #239, #239, #240, .F. );
#220 = FILL_AREA_STYLE( '', ( #241 ) );
#221 = EDGE_CURVE( '', #242, #242, #243, .T. );
#222 = FILL_AREA_STYLE( '', ( #244 ) );
#223 = FILL_AREA_STYLE( '', ( #245 ) );
#224 = FILL_AREA_STYLE_COLOUR( '', #246 );
#225 = VERTEX_POINT( '', #247 );
#226 = CIRCLE( '', #248, 8.00000000000000 );
#227 = VERTEX_POINT( '', #249 );
#228 = CIRCLE( '', #250, 8.00000000000000 );
#229 = FILL_AREA_STYLE_COLOUR( '', #251 );
#230 = VERTEX_POINT( '', #252 );
#231 = CIRCLE( '', #253, 5.53595214581482 );
#232 = VERTEX_POINT( '', #254 );
#233 = CIRCLE( '', #255, 4.95000000000000 );
#234 = FILL_AREA_STYLE_COLOUR( '', #256 );
#235 = VERTEX_POINT( '', #257 );
#236 = CIRCLE( '', #258, 5.53595214581482 );
#237 = FILL_AREA_STYLE_COLOUR( '', #259 );
#238 = FILL_AREA_STYLE_COLOUR( '', #260 );
#239 = VERTEX_POINT( '', #261 );
#240 = CIRCLE( '', #262, 7.50000000000000 );
#241 = FILL_AREA_STYLE_COLOUR( '', #263 );
#242 = VERTEX_POINT( '', #264 );
#243 = CIRCLE( '', #265, 4.95000000000000 );
#244 = FILL_AREA_STYLE_COLOUR( '', #266 );
#245 = FILL_AREA_STYLE_COLOUR( '', #267 );
#246 = COLOUR_RGB( '', 1.00000000000000, 1.00000000000000, 1.00000000000000 );
#247 = CARTESIAN_POINT( '', ( -8.00000000000000, 0.000000000000000, 8.50000000000000 ) );
#248 = AXIS2_PLACEMENT_3D( '', #268, #269, #270 );
#249 = CARTESIAN_POINT( '', ( 8.00000000000000, 0.000000000000000, 7.00000000000000 ) );
#250 = AXIS2_PLACEMENT_3D( '', #271, #272, #273 );
#251 = COLOUR_RGB( '', 1.00000000000000, 1.00000000000000, 1.00000000000000 );
#252 = CARTESIAN_POINT( '', ( 5.53595214581482, 0.000000000000000, -6.93889390390723E-015 ) );
#253 = AXIS2_PLACEMENT_3D( '', #274, #275, #276 );
#254 = CARTESIAN_POINT( '', ( 4.95000000000000, 0.000000000000000, 6.93889390390723E-015 ) );
#255 = AXIS2_PLACEMENT_3D( '', #277, #278, #279 );
#256 = COLOUR_RGB( '', 1.00000000000000, 1.00000000000000, 1.00000000000000 );
#257 = CARTESIAN_POINT( '', ( 5.53595214581482, 0.000000000000000, 7.00000000000000 ) );
#258 = AXIS2_PLACEMENT_3D( '', #280, #281, #282 );
#259 = COLOUR_RGB( '', 1.00000000000000, 1.00000000000000, 1.00000000000000 );
#260 = COLOUR_RGB( '', 1.00000000000000, 1.00000000000000, 1.00000000000000 );
#261 = CARTESIAN_POINT( '', ( -7.50000000000000, 0.000000000000000, 9.00000000000000 ) );
#262 = AXIS2_PLACEMENT_3D( '', #283, #284, #285 );
#263 = COLOUR_RGB( '', 1.00000000000000, 1.00000000000000, 1.00000000000000 );
#264 = CARTESIAN_POINT( '', ( 4.95000000000000, 0.000000000000000, 7.00000000000000 ) );
#265 = AXIS2_PLACEMENT_3D( '', #286, #287, #288 );
#266 = COLOUR_RGB( '', 1.00000000000000, 1.00000000000000, 1.00000000000000 );
#267 = COLOUR_RGB( '', 1.00000000000000, 1.00000000000000, 1.00000000000000 );
#268 = CARTESIAN_POINT( '', ( 0.000000000000000, 0.000000000000000, 8.50000000000000 ) );
#269 = DIRECTION( '', ( 0.000000000000000, 0.000000000000000, -1.00000000000000 ) );
#270 = DIRECTION( '', ( -1.00000000000000, 0.000000000000000, 0.000000000000000 ) );
#271 = CARTESIAN_POINT( '', ( 0.000000000000000, 0.000000000000000, 7.00000000000000 ) );
#272 = DIRECTION( '', ( 0.000000000000000, 0.000000000000000, 1.00000000000000 ) );
#273 = DIRECTION( '', ( 1.00000000000000, 0.000000000000000, 0.000000000000000 ) );
#274 = CARTESIAN_POINT( '', ( 0.000000000000000, 0.000000000000000, -6.93889390390723E-015 ) );
#275 = DIRECTION( '', ( 0.000000000000000, 0.000000000000000, 1.00000000000000 ) );
#276 = DIRECTION( '', ( 1.00000000000000, 0.000000000000000, 0.000000000000000 ) );
#277 = CARTESIAN_POINT( '', ( 0.000000000000000, 0.000000000000000, 6.93889390390723E-015 ) );
#278 = DIRECTION( '', ( 0.000000000000000, 0.000000000000000, 1.00000000000000 ) );
#279 = DIRECTION( '', ( 1.00000000000000, 0.000000000000000, 0.000000000000000 ) );
#280 = CARTESIAN_POINT( '', ( 0.000000000000000, 0.000000000000000, 7.00000000000000 ) );
#281 = DIRECTION( '', ( 0.000000000000000, 0.000000000000000, 1.00000000000000 ) );
#282 = DIRECTION( '', ( 1.00000000000000, 0.000000000000000, 0.000000000000000 ) );
#283 = CARTESIAN_POINT( '', ( 0.000000000000000, 0.000000000000000, 9.00000000000000 ) );
#284 = DIRECTION( '', ( 0.000000000000000, 0.000000000000000, -1.00000000000000 ) );
#285 = DIRECTION( '', ( -1.00000000000000, 0.000000000000000, 0.000000000000000 ) );
#286 = CARTESIAN_POINT( '', ( 0.000000000000000, 0.000000000000000, 7.00000000000000 ) );
#287 = DIRECTION( '', ( 0.000000000000000, 0.000000000000000, 1.00000000000000 ) );
#288 = DIRECTION( '', ( 1.00000000000000, 0.000000000000000, 0.000000000000000 ) );
ENDSEC;
END-ISO-10303-21;
