ISO-10303-21;
HEADER;
FILE_DESCRIPTION( ( 'Unknown' ), '1' );
FILE_NAME( '//SBS2003/HD_Usb/Disegni/08_LIB/Users_3D/PROD_GAMM_3D/TTP/7372510.stp', 'Unknown', ( 'Unknown' ), ( 'Unknown' ), 'PSStep 14.0', 'Unknown', '  ' );
FILE_SCHEMA( ( 'AUTOMOTIVE_DESIGN { 1 0 10303 214 1 1 1 1 }' ) );
ENDSEC;
DATA;
#1 = MECHANICAL_DESIGN_GEOMETRIC_PRESENTATION_REPRESENTATION( ' ', ( #10, #11, #12, #13, #14, #15, #16, #17 ), #6 );
#2 = PRODUCT_DEFINITION_CONTEXT( '', #18, 'design' );
#3 = APPLICATION_PROTOCOL_DEFINITION( 'international standard', 'automotive_design', 2001, #18 );
#4 = PRODUCT_CATEGORY_RELATIONSHIP( 'NONE', 'NONE', #19, #20 );
#5 = SHAPE_DEFINITION_REPRESENTATION( #21, #22 );
#6 =  ( GEOMETRIC_REPRESENTATION_CONTEXT( 3 )GLOBAL_UNCERTAINTY_ASSIGNED_CONTEXT( ( #25 ) )GLOBAL_UNIT_ASSIGNED_CONTEXT( ( #27, #28, #29 ) )REPRESENTATION_CONTEXT( 'NONE', 'WORKSPACE' ) );
#10 = STYLED_ITEM( '', ( #31 ), #32 );
#11 = STYLED_ITEM( '', ( #33 ), #34 );
#12 = STYLED_ITEM( '', ( #35 ), #36 );
#13 = STYLED_ITEM( '', ( #37 ), #38 );
#14 = STYLED_ITEM( '', ( #39 ), #40 );
#15 = STYLED_ITEM( '', ( #41 ), #42 );
#16 = STYLED_ITEM( '', ( #43 ), #44 );
#17 = STYLED_ITEM( '', ( #45 ), #46 );
#18 = APPLICATION_CONTEXT( 'core data for automotive mechanical design processes' );
#19 = PRODUCT_CATEGORY( 'part', 'NONE' );
#20 = PRODUCT_RELATED_PRODUCT_CATEGORY( 'detail', ' ', ( #47 ) );
#21 = PRODUCT_DEFINITION_SHAPE( 'NONE', 'NONE', #48 );
#22 = ADVANCED_BREP_SHAPE_REPRESENTATION( '1', ( #49, #50 ), #6 );
#25 = UNCERTAINTY_MEASURE_WITH_UNIT( LENGTH_MEASURE( 0.00100000000000000 ), #27, '', '' );
#27 =  ( CONVERSION_BASED_UNIT( 'MILLIMETRE', #53 )LENGTH_UNIT(  )NAMED_UNIT( #56 ) );
#28 =  ( NAMED_UNIT( #58 )PLANE_ANGLE_UNIT(  )SI_UNIT( $, .RADIAN. ) );
#29 =  ( NAMED_UNIT( #58 )SI_UNIT( $, .STERADIAN. )SOLID_ANGLE_UNIT(  ) );
#31 = PRESENTATION_STYLE_ASSIGNMENT( ( #64 ) );
#32 = ADVANCED_FACE( '', ( #65 ), #66, .F. );
#33 = PRESENTATION_STYLE_ASSIGNMENT( ( #67 ) );
#34 = ADVANCED_FACE( '', ( #68 ), #69, .F. );
#35 = PRESENTATION_STYLE_ASSIGNMENT( ( #70 ) );
#36 = ADVANCED_FACE( '', ( #71, #72 ), #73, .T. );
#37 = PRESENTATION_STYLE_ASSIGNMENT( ( #74 ) );
#38 = ADVANCED_FACE( '', ( #75, #76 ), #77, .F. );
#39 = PRESENTATION_STYLE_ASSIGNMENT( ( #78 ) );
#40 = ADVANCED_FACE( '', ( #79, #80 ), #81, .F. );
#41 = PRESENTATION_STYLE_ASSIGNMENT( ( #82 ) );
#42 = ADVANCED_FACE( '', ( #83, #84 ), #85, .T. );
#43 = PRESENTATION_STYLE_ASSIGNMENT( ( #86 ) );
#44 = ADVANCED_FACE( '', ( #87, #88 ), #89, .F. );
#45 = PRESENTATION_STYLE_ASSIGNMENT( ( #90 ) );
#46 = ADVANCED_FACE( '', ( #91, #92 ), #93, .T. );
#47 = PRODUCT( '1', '1', 'PART-1-DESC', ( #94 ) );
#48 = PRODUCT_DEFINITION( 'NONE', 'NONE', #95, #2 );
#49 = MANIFOLD_SOLID_BREP( '1', #96 );
#50 = AXIS2_PLACEMENT_3D( '', #97, #98, #99 );
#53 = LENGTH_MEASURE_WITH_UNIT( LENGTH_MEASURE( 1.00000000000000 ), #100 );
#56 = DIMENSIONAL_EXPONENTS( 1.00000000000000, 0.000000000000000, 0.000000000000000, 0.000000000000000, 0.000000000000000, 0.000000000000000, 0.000000000000000 );
#58 = DIMENSIONAL_EXPONENTS( 0.000000000000000, 0.000000000000000, 0.000000000000000, 0.000000000000000, 0.000000000000000, 0.000000000000000, 0.000000000000000 );
#64 = SURFACE_STYLE_USAGE( .BOTH., #101 );
#65 = FACE_OUTER_BOUND( '', #102, .T. );
#66 = PLANE( '', #103 );
#67 = SURFACE_STYLE_USAGE( .BOTH., #104 );
#68 = FACE_OUTER_BOUND( '', #105, .T. );
#69 = PLANE( '', #106 );
#70 = SURFACE_STYLE_USAGE( .BOTH., #107 );
#71 = FACE_OUTER_BOUND( '', #108, .T. );
#72 = FACE_OUTER_BOUND( '', #109, .T. );
#73 = CYLINDRICAL_SURFACE( '', #110, 10.0000000000000 );
#74 = SURFACE_STYLE_USAGE( .BOTH., #111 );
#75 = FACE_OUTER_BOUND( '', #112, .T. );
#76 = FACE_OUTER_BOUND( '', #113, .T. );
#77 = CYLINDRICAL_SURFACE( '', #114, 5.40000000000000 );
#78 = SURFACE_STYLE_USAGE( .BOTH., #115 );
#79 = FACE_OUTER_BOUND( '', #116, .T. );
#80 = FACE_BOUND( '', #117, .T. );
#81 = PLANE( '', #118 );
#82 = SURFACE_STYLE_USAGE( .BOTH., #119 );
#83 = FACE_OUTER_BOUND( '', #120, .T. );
#84 = FACE_OUTER_BOUND( '', #121, .T. );
#85 = ( BOUNDED_SURFACE(  )B_SPLINE_SURFACE( 3, 3, ( ( #124, #125, #126, #127, #128, #129, #130 ), ( #131, #132, #133, #134, #135, #136, #137 ), ( #138, #139, #140, #141, #142, #143, #144 ), ( #145, #146, #147, #148, #149, #150, #151 ) ), .UNSPECIFIED., .F., .T., .F. )B_SPLINE_SURFACE_WITH_KNOTS( ( 4, 4 ), ( 4, 3, 4 ), ( 0.000000000000000, 6.28318530717959 ), ( -0.263022202908469, 0.000000000000000, 0.263022202908469 ), .UNSPECIFIED. )GEOMETRIC_REPRESENTATION_ITEM(  )RATIONAL_B_SPLINE_SURFACE( ( ( 1.00000000000000, 0.333333333333333, 0.333333333333333, 1.00000000000000, 0.333333333333333, 0.333333333333333, 1.00000000000000 ), ( 0.977072410910577, 0.325690803636859, 0.325690803636859, 0.977072410910577, 0.325690803636859, 0.325690803636859, 0.977072410910577 ), ( 0.977072410910577, 0.325690803636859, 0.325690803636859, 0.977072410910577, 0.325690803636859, 0.325690803636859, 0.977072410910577 ), ( 1.00000000000000, 0.333333333333333, 0.333333333333333, 1.00000000000000, 0.333333333333333, 0.333333333333333, 1.00000000000000 ) ) )REPRESENTATION_ITEM( '' )SURFACE(  ) );
#86 = SURFACE_STYLE_USAGE( .BOTH., #157 );
#87 = FACE_OUTER_BOUND( '', #158, .T. );
#88 = FACE_BOUND( '', #159, .T. );
#89 = PLANE( '', #160 );
#90 = SURFACE_STYLE_USAGE( .BOTH., #161 );
#91 = FACE_OUTER_BOUND( '', #162, .T. );
#92 = FACE_OUTER_BOUND( '', #163, .T. );
#93 = TOROIDAL_SURFACE( '', #164, 9.50000000000000, 0.500000000000000 );
#94 = PRODUCT_CONTEXT( '', #18, 'mechanical' );
#95 = PRODUCT_DEFINITION_FORMATION_WITH_SPECIFIED_SOURCE( ' ', 'NONE', #47, .NOT_KNOWN. );
#96 = CLOSED_SHELL( '', ( #38, #46, #34, #32, #36, #44, #42, #40 ) );
#97 = CARTESIAN_POINT( '', ( 0.000000000000000, 0.000000000000000, 0.000000000000000 ) );
#98 = DIRECTION( '', ( 0.000000000000000, 0.000000000000000, 1.00000000000000 ) );
#99 = DIRECTION( '', ( 1.00000000000000, 0.000000000000000, 0.000000000000000 ) );
#100 =  ( LENGTH_UNIT(  )NAMED_UNIT( #56 )SI_UNIT( .MILLI., .METRE. ) );
#101 = SURFACE_SIDE_STYLE( '', ( #166 ) );
#102 = EDGE_LOOP( '', ( #167 ) );
#103 = AXIS2_PLACEMENT_3D( '', #168, #169, #170 );
#104 = SURFACE_SIDE_STYLE( '', ( #171 ) );
#105 = EDGE_LOOP( '', ( #172 ) );
#106 = AXIS2_PLACEMENT_3D( '', #173, #174, #175 );
#107 = SURFACE_SIDE_STYLE( '', ( #176 ) );
#108 = EDGE_LOOP( '', ( #177 ) );
#109 = EDGE_LOOP( '', ( #178 ) );
#110 = AXIS2_PLACEMENT_3D( '', #179, #180, #181 );
#111 = SURFACE_SIDE_STYLE( '', ( #182 ) );
#112 = EDGE_LOOP( '', ( #183 ) );
#113 = EDGE_LOOP( '', ( #184 ) );
#114 = AXIS2_PLACEMENT_3D( '', #185, #186, #187 );
#115 = SURFACE_SIDE_STYLE( '', ( #188 ) );
#116 = EDGE_LOOP( '', ( #189 ) );
#117 = EDGE_LOOP( '', ( #190 ) );
#118 = AXIS2_PLACEMENT_3D( '', #191, #192, #193 );
#119 = SURFACE_SIDE_STYLE( '', ( #194 ) );
#120 = EDGE_LOOP( '', ( #195 ) );
#121 = EDGE_LOOP( '', ( #196 ) );
#124 = CARTESIAN_POINT( '', ( 5.88412924548797, 0.000000000000000, 7.80000000000000 ) );
#125 = CARTESIAN_POINT( '', ( 5.88412924548797, 11.7682584909759, 7.80000000000000 ) );
#126 = CARTESIAN_POINT( '', ( -5.88412924548797, 11.7682584909759, 7.80000000000000 ) );
#127 = CARTESIAN_POINT( '', ( -5.88412924548797, 0.000000000000000, 7.80000000000000 ) );
#128 = CARTESIAN_POINT( '', ( -5.88412924548797, -11.7682584909759, 7.80000000000000 ) );
#129 = CARTESIAN_POINT( '', ( 5.88412924548797, -11.7682584909759, 7.80000000000000 ) );
#130 = CARTESIAN_POINT( '', ( 5.88412924548797, 0.000000000000000, 7.80000000000000 ) );
#131 = CARTESIAN_POINT( '', ( 6.57599199020513, 0.000000000000000, 5.23050527830222 ) );
#132 = CARTESIAN_POINT( '', ( 6.57599199020513, 13.1519839804103, 5.23050527830222 ) );
#133 = CARTESIAN_POINT( '', ( -6.57599199020513, 13.1519839804103, 5.23050527830222 ) );
#134 = CARTESIAN_POINT( '', ( -6.57599199020513, 0.000000000000000, 5.23050527830222 ) );
#135 = CARTESIAN_POINT( '', ( -6.57599199020513, -13.1519839804103, 5.23050527830222 ) );
#136 = CARTESIAN_POINT( '', ( 6.57599199020513, -13.1519839804103, 5.23050527830222 ) );
#137 = CARTESIAN_POINT( '', ( 6.57599199020513, 0.000000000000000, 5.23050527830222 ) );
#138 = CARTESIAN_POINT( '', ( 6.57599199020513, 0.000000000000000, 2.56949472169778 ) );
#139 = CARTESIAN_POINT( '', ( 6.57599199020513, 13.1519839804103, 2.56949472169778 ) );
#140 = CARTESIAN_POINT( '', ( -6.57599199020513, 13.1519839804103, 2.56949472169778 ) );
#141 = CARTESIAN_POINT( '', ( -6.57599199020513, 0.000000000000000, 2.56949472169778 ) );
#142 = CARTESIAN_POINT( '', ( -6.57599199020513, -13.1519839804103, 2.56949472169778 ) );
#143 = CARTESIAN_POINT( '', ( 6.57599199020513, -13.1519839804103, 2.56949472169778 ) );
#144 = CARTESIAN_POINT( '', ( 6.57599199020513, 0.000000000000000, 2.56949472169778 ) );
#145 = CARTESIAN_POINT( '', ( 5.88412924548797, 0.000000000000000, -2.60208521396521E-015 ) );
#146 = CARTESIAN_POINT( '', ( 5.88412924548797, 11.7682584909759, -2.60208521396521E-015 ) );
#147 = CARTESIAN_POINT( '', ( -5.88412924548797, 11.7682584909759, -2.60208521396521E-015 ) );
#148 = CARTESIAN_POINT( '', ( -5.88412924548797, 0.000000000000000, -2.60208521396521E-015 ) );
#149 = CARTESIAN_POINT( '', ( -5.88412924548797, -11.7682584909759, -2.60208521396521E-015 ) );
#150 = CARTESIAN_POINT( '', ( 5.88412924548797, -11.7682584909759, -2.60208521396521E-015 ) );
#151 = CARTESIAN_POINT( '', ( 5.88412924548797, 0.000000000000000, -2.60208521396521E-015 ) );
#157 = SURFACE_SIDE_STYLE( '', ( #197 ) );
#158 = EDGE_LOOP( '', ( #198 ) );
#159 = EDGE_LOOP( '', ( #199 ) );
#160 = AXIS2_PLACEMENT_3D( '', #200, #201, #202 );
#161 = SURFACE_SIDE_STYLE( '', ( #203 ) );
#162 = EDGE_LOOP( '', ( #204 ) );
#163 = EDGE_LOOP( '', ( #205 ) );
#164 = AXIS2_PLACEMENT_3D( '', #206, #207, #208 );
#166 = SURFACE_STYLE_FILL_AREA( #209 );
#167 = ORIENTED_EDGE( '', *, *, #210, .T. );
#168 = CARTESIAN_POINT( '', ( 10.0000000000000, 0.000000000000000, 10.3000000000000 ) );
#169 = DIRECTION( '', ( 0.000000000000000, 0.000000000000000, -1.00000000000000 ) );
#170 = DIRECTION( '', ( -1.00000000000000, 0.000000000000000, 0.000000000000000 ) );
#171 = SURFACE_STYLE_FILL_AREA( #211 );
#172 = ORIENTED_EDGE( '', *, *, #212, .F. );
#173 = CARTESIAN_POINT( '', ( 1.46957615897682E-016, 0.000000000000000, 7.80000000000000 ) );
#174 = DIRECTION( '', ( 0.000000000000000, 0.000000000000000, 1.00000000000000 ) );
#175 = DIRECTION( '', ( 1.00000000000000, 0.000000000000000, 0.000000000000000 ) );
#176 = SURFACE_STYLE_FILL_AREA( #213 );
#177 = ORIENTED_EDGE( '', *, *, #214, .T. );
#178 = ORIENTED_EDGE( '', *, *, #215, .T. );
#179 = CARTESIAN_POINT( '', ( 0.000000000000000, 0.000000000000000, 57.1500000000000 ) );
#180 = DIRECTION( '', ( -0.000000000000000, -0.000000000000000, -1.00000000000000 ) );
#181 = DIRECTION( '', ( 1.00000000000000, 0.000000000000000, 0.000000000000000 ) );
#182 = SURFACE_STYLE_FILL_AREA( #216 );
#183 = ORIENTED_EDGE( '', *, *, #217, .F. );
#184 = ORIENTED_EDGE( '', *, *, #212, .T. );
#185 = CARTESIAN_POINT( '', ( 0.000000000000000, 0.000000000000000, 57.1500000000000 ) );
#186 = DIRECTION( '', ( -0.000000000000000, -0.000000000000000, -1.00000000000000 ) );
#187 = DIRECTION( '', ( 1.00000000000000, 0.000000000000000, 0.000000000000000 ) );
#188 = SURFACE_STYLE_FILL_AREA( #218 );
#189 = ORIENTED_EDGE( '', *, *, #215, .F. );
#190 = ORIENTED_EDGE( '', *, *, #219, .T. );
#191 = CARTESIAN_POINT( '', ( 5.88412924548797, 0.000000000000000, 7.80000000000000 ) );
#192 = DIRECTION( '', ( 0.000000000000000, 0.000000000000000, 1.00000000000000 ) );
#193 = DIRECTION( '', ( 1.00000000000000, 0.000000000000000, 0.000000000000000 ) );
#194 = SURFACE_STYLE_FILL_AREA( #220 );
#195 = ORIENTED_EDGE( '', *, *, #219, .F. );
#196 = ORIENTED_EDGE( '', *, *, #221, .T. );
#197 = SURFACE_STYLE_FILL_AREA( #222 );
#198 = ORIENTED_EDGE( '', *, *, #221, .F. );
#199 = ORIENTED_EDGE( '', *, *, #217, .T. );
#200 = CARTESIAN_POINT( '', ( 5.40000000000000, 0.000000000000000, 0.000000000000000 ) );
#201 = DIRECTION( '', ( 0.000000000000000, 0.000000000000000, 1.00000000000000 ) );
#202 = DIRECTION( '', ( 1.00000000000000, 0.000000000000000, 0.000000000000000 ) );
#203 = SURFACE_STYLE_FILL_AREA( #223 );
#204 = ORIENTED_EDGE( '', *, *, #214, .F. );
#205 = ORIENTED_EDGE( '', *, *, #210, .F. );
#206 = CARTESIAN_POINT( '', ( 0.000000000000000, 0.000000000000000, 9.80000000000000 ) );
#207 = DIRECTION( '', ( 0.000000000000000, 0.000000000000000, -1.00000000000000 ) );
#208 = DIRECTION( '', ( -1.00000000000000, 0.000000000000000, 0.000000000000000 ) );
#209 = FILL_AREA_STYLE( '', ( #224 ) );
#210 = EDGE_CURVE( '', #225, #225, #226, .F. );
#211 = FILL_AREA_STYLE( '', ( #227 ) );
#212 = EDGE_CURVE( '', #228, #228, #229, .T. );
#213 = FILL_AREA_STYLE( '', ( #230 ) );
#214 = EDGE_CURVE( '', #231, #231, #232, .T. );
#215 = EDGE_CURVE( '', #233, #233, #234, .T. );
#216 = FILL_AREA_STYLE( '', ( #235 ) );
#217 = EDGE_CURVE( '', #236, #236, #237, .T. );
#218 = FILL_AREA_STYLE( '', ( #238 ) );
#219 = EDGE_CURVE( '', #239, #239, #240, .T. );
#220 = FILL_AREA_STYLE( '', ( #241 ) );
#221 = EDGE_CURVE( '', #242, #242, #243, .T. );
#222 = FILL_AREA_STYLE( '', ( #244 ) );
#223 = FILL_AREA_STYLE( '', ( #245 ) );
#224 = FILL_AREA_STYLE_COLOUR( '', #246 );
#225 = VERTEX_POINT( '', #247 );
#226 = CIRCLE( '', #248, 9.50000000000000 );
#227 = FILL_AREA_STYLE_COLOUR( '', #249 );
#228 = VERTEX_POINT( '', #250 );
#229 = CIRCLE( '', #251, 5.40000000000000 );
#230 = FILL_AREA_STYLE_COLOUR( '', #252 );
#231 = VERTEX_POINT( '', #253 );
#232 = CIRCLE( '', #254, 10.0000000000000 );
#233 = VERTEX_POINT( '', #255 );
#234 = CIRCLE( '', #256, 10.0000000000000 );
#235 = FILL_AREA_STYLE_COLOUR( '', #257 );
#236 = VERTEX_POINT( '', #258 );
#237 = CIRCLE( '', #259, 5.40000000000000 );
#238 = FILL_AREA_STYLE_COLOUR( '', #260 );
#239 = VERTEX_POINT( '', #261 );
#240 = CIRCLE( '', #262, 5.88412924548797 );
#241 = FILL_AREA_STYLE_COLOUR( '', #263 );
#242 = VERTEX_POINT( '', #264 );
#243 = CIRCLE( '', #265, 5.88412924548797 );
#244 = FILL_AREA_STYLE_COLOUR( '', #266 );
#245 = FILL_AREA_STYLE_COLOUR( '', #267 );
#246 = COLOUR_RGB( '', 1.00000000000000, 1.00000000000000, 1.00000000000000 );
#247 = CARTESIAN_POINT( '', ( -9.50000000000000, 0.000000000000000, 10.3000000000000 ) );
#248 = AXIS2_PLACEMENT_3D( '', #268, #269, #270 );
#249 = COLOUR_RGB( '', 1.00000000000000, 1.00000000000000, 1.00000000000000 );
#250 = CARTESIAN_POINT( '', ( 5.40000000000000, 0.000000000000000, 7.80000000000000 ) );
#251 = AXIS2_PLACEMENT_3D( '', #271, #272, #273 );
#252 = COLOUR_RGB( '', 1.00000000000000, 1.00000000000000, 1.00000000000000 );
#253 = CARTESIAN_POINT( '', ( -10.0000000000000, 0.000000000000000, 9.80000000000000 ) );
#254 = AXIS2_PLACEMENT_3D( '', #274, #275, #276 );
#255 = CARTESIAN_POINT( '', ( 10.0000000000000, 0.000000000000000, 7.80000000000000 ) );
#256 = AXIS2_PLACEMENT_3D( '', #277, #278, #279 );
#257 = COLOUR_RGB( '', 1.00000000000000, 1.00000000000000, 1.00000000000000 );
#258 = CARTESIAN_POINT( '', ( 5.40000000000000, 0.000000000000000, 0.000000000000000 ) );
#259 = AXIS2_PLACEMENT_3D( '', #280, #281, #282 );
#260 = COLOUR_RGB( '', 1.00000000000000, 1.00000000000000, 1.00000000000000 );
#261 = CARTESIAN_POINT( '', ( 5.88412924548797, 0.000000000000000, 7.80000000000000 ) );
#262 = AXIS2_PLACEMENT_3D( '', #283, #284, #285 );
#263 = COLOUR_RGB( '', 1.00000000000000, 1.00000000000000, 1.00000000000000 );
#264 = CARTESIAN_POINT( '', ( 5.88412924548797, 0.000000000000000, 0.000000000000000 ) );
#265 = AXIS2_PLACEMENT_3D( '', #286, #287, #288 );
#266 = COLOUR_RGB( '', 1.00000000000000, 1.00000000000000, 1.00000000000000 );
#267 = COLOUR_RGB( '', 1.00000000000000, 1.00000000000000, 1.00000000000000 );
#268 = CARTESIAN_POINT( '', ( 0.000000000000000, 0.000000000000000, 10.3000000000000 ) );
#269 = DIRECTION( '', ( 0.000000000000000, 0.000000000000000, -1.00000000000000 ) );
#270 = DIRECTION( '', ( -1.00000000000000, 0.000000000000000, 0.000000000000000 ) );
#271 = CARTESIAN_POINT( '', ( 0.000000000000000, 0.000000000000000, 7.80000000000000 ) );
#272 = DIRECTION( '', ( 0.000000000000000, 0.000000000000000, 1.00000000000000 ) );
#273 = DIRECTION( '', ( 1.00000000000000, 0.000000000000000, 0.000000000000000 ) );
#274 = CARTESIAN_POINT( '', ( 0.000000000000000, 0.000000000000000, 9.80000000000000 ) );
#275 = DIRECTION( '', ( 0.000000000000000, 0.000000000000000, -1.00000000000000 ) );
#276 = DIRECTION( '', ( -1.00000000000000, 0.000000000000000, 0.000000000000000 ) );
#277 = CARTESIAN_POINT( '', ( 0.000000000000000, 0.000000000000000, 7.80000000000000 ) );
#278 = DIRECTION( '', ( 0.000000000000000, 0.000000000000000, 1.00000000000000 ) );
#279 = DIRECTION( '', ( 1.00000000000000, 0.000000000000000, 0.000000000000000 ) );
#280 = CARTESIAN_POINT( '', ( 0.000000000000000, 0.000000000000000, 0.000000000000000 ) );
#281 = DIRECTION( '', ( 0.000000000000000, 0.000000000000000, 1.00000000000000 ) );
#282 = DIRECTION( '', ( 1.00000000000000, 0.000000000000000, 0.000000000000000 ) );
#283 = CARTESIAN_POINT( '', ( 0.000000000000000, 0.000000000000000, 7.80000000000000 ) );
#284 = DIRECTION( '', ( 0.000000000000000, 0.000000000000000, 1.00000000000000 ) );
#285 = DIRECTION( '', ( 1.00000000000000, 0.000000000000000, 0.000000000000000 ) );
#286 = CARTESIAN_POINT( '', ( 0.000000000000000, 0.000000000000000, 0.000000000000000 ) );
#287 = DIRECTION( '', ( 0.000000000000000, 0.000000000000000, 1.00000000000000 ) );
#288 = DIRECTION( '', ( 1.00000000000000, 0.000000000000000, 0.000000000000000 ) );
ENDSEC;
END-ISO-10303-21;
