ISO-10303-21;
HEADER;
FILE_DESCRIPTION( ( 'Unknown' ), '1' );
FILE_NAME( '//SBS2003/HD_Usb/Disegni/08_LIB/Users_3D/PROD_GAMM_3D/TTP/7372518.stp', 'Unknown', ( 'Unknown' ), ( 'Unknown' ), 'PSStep 14.0', 'Unknown', '  ' );
FILE_SCHEMA( ( 'AUTOMOTIVE_DESIGN { 1 0 10303 214 1 1 1 1 }' ) );
ENDSEC;
DATA;
#1 = MECHANICAL_DESIGN_GEOMETRIC_PRESENTATION_REPRESENTATION( ' ', ( #10, #11, #12, #13, #14, #15, #16, #17 ), #6 );
#2 = PRODUCT_DEFINITION_CONTEXT( '', #18, 'design' );
#3 = APPLICATION_PROTOCOL_DEFINITION( 'international standard', 'automotive_design', 2001, #18 );
#4 = PRODUCT_CATEGORY_RELATIONSHIP( 'NONE', 'NONE', #19, #20 );
#5 = SHAPE_DEFINITION_REPRESENTATION( #21, #22 );
#6 =  ( GEOMETRIC_REPRESENTATION_CONTEXT( 3 )GLOBAL_UNCERTAINTY_ASSIGNED_CONTEXT( ( #25 ) )GLOBAL_UNIT_ASSIGNED_CONTEXT( ( #27, #28, #29 ) )REPRESENTATION_CONTEXT( 'NONE', 'WORKSPACE' ) );
#10 = STYLED_ITEM( '', ( #31 ), #32 );
#11 = STYLED_ITEM( '', ( #33 ), #34 );
#12 = STYLED_ITEM( '', ( #35 ), #36 );
#13 = STYLED_ITEM( '', ( #37 ), #38 );
#14 = STYLED_ITEM( '', ( #39 ), #40 );
#15 = STYLED_ITEM( '', ( #41 ), #42 );
#16 = STYLED_ITEM( '', ( #43 ), #44 );
#17 = STYLED_ITEM( '', ( #45 ), #46 );
#18 = APPLICATION_CONTEXT( 'core data for automotive mechanical design processes' );
#19 = PRODUCT_CATEGORY( 'part', 'NONE' );
#20 = PRODUCT_RELATED_PRODUCT_CATEGORY( 'detail', ' ', ( #47 ) );
#21 = PRODUCT_DEFINITION_SHAPE( 'NONE', 'NONE', #48 );
#22 = ADVANCED_BREP_SHAPE_REPRESENTATION( '1', ( #49, #50 ), #6 );
#25 = UNCERTAINTY_MEASURE_WITH_UNIT( LENGTH_MEASURE( 0.00100000000000000 ), #27, '', '' );
#27 =  ( CONVERSION_BASED_UNIT( 'MILLIMETRE', #53 )LENGTH_UNIT(  )NAMED_UNIT( #56 ) );
#28 =  ( NAMED_UNIT( #58 )PLANE_ANGLE_UNIT(  )SI_UNIT( $, .RADIAN. ) );
#29 =  ( NAMED_UNIT( #58 )SI_UNIT( $, .STERADIAN. )SOLID_ANGLE_UNIT(  ) );
#31 = PRESENTATION_STYLE_ASSIGNMENT( ( #64 ) );
#32 = ADVANCED_FACE( '', ( #65 ), #66, .F. );
#33 = PRESENTATION_STYLE_ASSIGNMENT( ( #67 ) );
#34 = ADVANCED_FACE( '', ( #68, #69 ), #70, .T. );
#35 = PRESENTATION_STYLE_ASSIGNMENT( ( #71 ) );
#36 = ADVANCED_FACE( '', ( #72, #73 ), #74, .F. );
#37 = PRESENTATION_STYLE_ASSIGNMENT( ( #75 ) );
#38 = ADVANCED_FACE( '', ( #76, #77 ), #78, .T. );
#39 = PRESENTATION_STYLE_ASSIGNMENT( ( #79 ) );
#40 = ADVANCED_FACE( '', ( #80 ), #81, .F. );
#41 = PRESENTATION_STYLE_ASSIGNMENT( ( #82 ) );
#42 = ADVANCED_FACE( '', ( #83, #84 ), #85, .F. );
#43 = PRESENTATION_STYLE_ASSIGNMENT( ( #86 ) );
#44 = ADVANCED_FACE( '', ( #87, #88 ), #89, .T. );
#45 = PRESENTATION_STYLE_ASSIGNMENT( ( #90 ) );
#46 = ADVANCED_FACE( '', ( #91, #92 ), #93, .F. );
#47 = PRODUCT( '1', '1', 'PART-1-DESC', ( #94 ) );
#48 = PRODUCT_DEFINITION( 'NONE', 'NONE', #95, #2 );
#49 = MANIFOLD_SOLID_BREP( '1', #96 );
#50 = AXIS2_PLACEMENT_3D( '', #97, #98, #99 );
#53 = LENGTH_MEASURE_WITH_UNIT( LENGTH_MEASURE( 1.00000000000000 ), #100 );
#56 = DIMENSIONAL_EXPONENTS( 1.00000000000000, 0.000000000000000, 0.000000000000000, 0.000000000000000, 0.000000000000000, 0.000000000000000, 0.000000000000000 );
#58 = DIMENSIONAL_EXPONENTS( 0.000000000000000, 0.000000000000000, 0.000000000000000, 0.000000000000000, 0.000000000000000, 0.000000000000000, 0.000000000000000 );
#64 = SURFACE_STYLE_USAGE( .BOTH., #101 );
#65 = FACE_OUTER_BOUND( '', #102, .T. );
#66 = PLANE( '', #103 );
#67 = SURFACE_STYLE_USAGE( .BOTH., #104 );
#68 = FACE_OUTER_BOUND( '', #105, .T. );
#69 = FACE_OUTER_BOUND( '', #106, .T. );
#70 = CYLINDRICAL_SURFACE( '', #107, 12.5000000000000 );
#71 = SURFACE_STYLE_USAGE( .BOTH., #108 );
#72 = FACE_OUTER_BOUND( '', #109, .T. );
#73 = FACE_OUTER_BOUND( '', #110, .T. );
#74 = CYLINDRICAL_SURFACE( '', #111, 8.50000000000000 );
#75 = SURFACE_STYLE_USAGE( .BOTH., #112 );
#76 = FACE_OUTER_BOUND( '', #113, .T. );
#77 = FACE_OUTER_BOUND( '', #114, .T. );
#78 = TOROIDAL_SURFACE( '', #115, 12.0000000000000, 0.500000000000000 );
#79 = SURFACE_STYLE_USAGE( .BOTH., #116 );
#80 = FACE_OUTER_BOUND( '', #117, .T. );
#81 = PLANE( '', #118 );
#82 = SURFACE_STYLE_USAGE( .BOTH., #119 );
#83 = FACE_OUTER_BOUND( '', #120, .T. );
#84 = FACE_BOUND( '', #121, .T. );
#85 = PLANE( '', #122 );
#86 = SURFACE_STYLE_USAGE( .BOTH., #123 );
#87 = FACE_OUTER_BOUND( '', #124, .T. );
#88 = FACE_OUTER_BOUND( '', #125, .T. );
#89 = ( BOUNDED_SURFACE(  )B_SPLINE_SURFACE( 3, 3, ( ( #128, #129, #130, #131, #132, #133, #134 ), ( #135, #136, #137, #138, #139, #140, #141 ), ( #142, #143, #144, #145, #146, #147, #148 ), ( #149, #150, #151, #152, #153, #154, #155 ) ), .UNSPECIFIED., .F., .T., .F. )B_SPLINE_SURFACE_WITH_KNOTS( ( 4, 4 ), ( 4, 3, 4 ), ( 0.000000000000000, 6.28318530717959 ), ( -0.201357920790331, 2.77555756156289E-017, 0.201357920790331 ), .UNSPECIFIED. )GEOMETRIC_REPRESENTATION_ITEM(  )RATIONAL_B_SPLINE_SURFACE( ( ( 1.00000000000000, 0.333333333333333, 0.333333333333333, 1.00000000000000, 0.333333333333333, 0.333333333333333, 1.00000000000000 ), ( 0.986530598075514, 0.328843532691838, 0.328843532691838, 0.986530598075514, 0.328843532691838, 0.328843532691838, 0.986530598075514 ), ( 0.986530598075514, 0.328843532691838, 0.328843532691838, 0.986530598075514, 0.328843532691838, 0.328843532691838, 0.986530598075514 ), ( 1.00000000000000, 0.333333333333333, 0.333333333333333, 1.00000000000000, 0.333333333333333, 0.333333333333333, 1.00000000000000 ) ) )REPRESENTATION_ITEM( '' )SURFACE(  ) );
#90 = SURFACE_STYLE_USAGE( .BOTH., #161 );
#91 = FACE_OUTER_BOUND( '', #162, .T. );
#92 = FACE_BOUND( '', #163, .T. );
#93 = PLANE( '', #164 );
#94 = PRODUCT_CONTEXT( '', #18, 'mechanical' );
#95 = PRODUCT_DEFINITION_FORMATION_WITH_SPECIFIED_SOURCE( ' ', 'NONE', #47, .NOT_KNOWN. );
#96 = CLOSED_SHELL( '', ( #36, #38, #32, #40, #34, #42, #44, #46 ) );
#97 = CARTESIAN_POINT( '', ( 0.000000000000000, 0.000000000000000, 0.000000000000000 ) );
#98 = DIRECTION( '', ( 0.000000000000000, 0.000000000000000, 1.00000000000000 ) );
#99 = DIRECTION( '', ( 1.00000000000000, 0.000000000000000, 0.000000000000000 ) );
#100 =  ( LENGTH_UNIT(  )NAMED_UNIT( #56 )SI_UNIT( .MILLI., .METRE. ) );
#101 = SURFACE_SIDE_STYLE( '', ( #166 ) );
#102 = EDGE_LOOP( '', ( #167 ) );
#103 = AXIS2_PLACEMENT_3D( '', #168, #169, #170 );
#104 = SURFACE_SIDE_STYLE( '', ( #171 ) );
#105 = EDGE_LOOP( '', ( #172 ) );
#106 = EDGE_LOOP( '', ( #173 ) );
#107 = AXIS2_PLACEMENT_3D( '', #174, #175, #176 );
#108 = SURFACE_SIDE_STYLE( '', ( #177 ) );
#109 = EDGE_LOOP( '', ( #178 ) );
#110 = EDGE_LOOP( '', ( #179 ) );
#111 = AXIS2_PLACEMENT_3D( '', #180, #181, #182 );
#112 = SURFACE_SIDE_STYLE( '', ( #183 ) );
#113 = EDGE_LOOP( '', ( #184 ) );
#114 = EDGE_LOOP( '', ( #185 ) );
#115 = AXIS2_PLACEMENT_3D( '', #186, #187, #188 );
#116 = SURFACE_SIDE_STYLE( '', ( #189 ) );
#117 = EDGE_LOOP( '', ( #190 ) );
#118 = AXIS2_PLACEMENT_3D( '', #191, #192, #193 );
#119 = SURFACE_SIDE_STYLE( '', ( #194 ) );
#120 = EDGE_LOOP( '', ( #195 ) );
#121 = EDGE_LOOP( '', ( #196 ) );
#122 = AXIS2_PLACEMENT_3D( '', #197, #198, #199 );
#123 = SURFACE_SIDE_STYLE( '', ( #200 ) );
#124 = EDGE_LOOP( '', ( #201 ) );
#125 = EDGE_LOOP( '', ( #202 ) );
#128 = CARTESIAN_POINT( '', ( 9.24591794226542, 0.000000000000000, 8.00000000000000 ) );
#129 = CARTESIAN_POINT( '', ( 9.24591794226542, 18.4918358845308, 8.00000000000000 ) );
#130 = CARTESIAN_POINT( '', ( -9.24591794226542, 18.4918358845308, 8.00000000000000 ) );
#131 = CARTESIAN_POINT( '', ( -9.24591794226542, 0.000000000000000, 8.00000000000000 ) );
#132 = CARTESIAN_POINT( '', ( -9.24591794226542, -18.4918358845308, 8.00000000000000 ) );
#133 = CARTESIAN_POINT( '', ( 9.24591794226542, -18.4918358845308, 8.00000000000000 ) );
#134 = CARTESIAN_POINT( '', ( 9.24591794226542, 0.000000000000000, 8.00000000000000 ) );
#135 = CARTESIAN_POINT( '', ( 9.78653303760432, 0.000000000000000, 5.35153773834724 ) );
#136 = CARTESIAN_POINT( '', ( 9.78653303760432, 19.5730660752086, 5.35153773834724 ) );
#137 = CARTESIAN_POINT( '', ( -9.78653303760432, 19.5730660752086, 5.35153773834724 ) );
#138 = CARTESIAN_POINT( '', ( -9.78653303760432, 0.000000000000000, 5.35153773834724 ) );
#139 = CARTESIAN_POINT( '', ( -9.78653303760432, -19.5730660752086, 5.35153773834724 ) );
#140 = CARTESIAN_POINT( '', ( 9.78653303760432, -19.5730660752086, 5.35153773834724 ) );
#141 = CARTESIAN_POINT( '', ( 9.78653303760432, 0.000000000000000, 5.35153773834724 ) );
#142 = CARTESIAN_POINT( '', ( 9.78653303760432, 0.000000000000000, 2.64846226165276 ) );
#143 = CARTESIAN_POINT( '', ( 9.78653303760432, 19.5730660752086, 2.64846226165276 ) );
#144 = CARTESIAN_POINT( '', ( -9.78653303760432, 19.5730660752086, 2.64846226165276 ) );
#145 = CARTESIAN_POINT( '', ( -9.78653303760432, 0.000000000000000, 2.64846226165276 ) );
#146 = CARTESIAN_POINT( '', ( -9.78653303760432, -19.5730660752086, 2.64846226165276 ) );
#147 = CARTESIAN_POINT( '', ( 9.78653303760432, -19.5730660752086, 2.64846226165276 ) );
#148 = CARTESIAN_POINT( '', ( 9.78653303760432, 0.000000000000000, 2.64846226165276 ) );
#149 = CARTESIAN_POINT( '', ( 9.24591794226543, 0.000000000000000, 1.73472347597681E-015 ) );
#150 = CARTESIAN_POINT( '', ( 9.24591794226543, 18.4918358845309, 1.73472347597681E-015 ) );
#151 = CARTESIAN_POINT( '', ( -9.24591794226543, 18.4918358845309, 1.73472347597681E-015 ) );
#152 = CARTESIAN_POINT( '', ( -9.24591794226543, 0.000000000000000, 1.73472347597681E-015 ) );
#153 = CARTESIAN_POINT( '', ( -9.24591794226543, -18.4918358845309, 1.73472347597681E-015 ) );
#154 = CARTESIAN_POINT( '', ( 9.24591794226543, -18.4918358845309, 1.73472347597681E-015 ) );
#155 = CARTESIAN_POINT( '', ( 9.24591794226543, 0.000000000000000, 1.73472347597681E-015 ) );
#161 = SURFACE_SIDE_STYLE( '', ( #203 ) );
#162 = EDGE_LOOP( '', ( #204 ) );
#163 = EDGE_LOOP( '', ( #205 ) );
#164 = AXIS2_PLACEMENT_3D( '', #206, #207, #208 );
#166 = SURFACE_STYLE_FILL_AREA( #209 );
#167 = ORIENTED_EDGE( '', *, *, #210, .F. );
#168 = CARTESIAN_POINT( '', ( 3.42901103761258E-016, 0.000000000000000, 8.00000000000000 ) );
#169 = DIRECTION( '', ( 0.000000000000000, 0.000000000000000, 1.00000000000000 ) );
#170 = DIRECTION( '', ( 1.00000000000000, 0.000000000000000, 0.000000000000000 ) );
#171 = SURFACE_STYLE_FILL_AREA( #211 );
#172 = ORIENTED_EDGE( '', *, *, #212, .T. );
#173 = ORIENTED_EDGE( '', *, *, #213, .T. );
#174 = CARTESIAN_POINT( '', ( 0.000000000000000, 0.000000000000000, 57.1500000000000 ) );
#175 = DIRECTION( '', ( -0.000000000000000, -0.000000000000000, -1.00000000000000 ) );
#176 = DIRECTION( '', ( 1.00000000000000, 0.000000000000000, 0.000000000000000 ) );
#177 = SURFACE_STYLE_FILL_AREA( #214 );
#178 = ORIENTED_EDGE( '', *, *, #215, .F. );
#179 = ORIENTED_EDGE( '', *, *, #210, .T. );
#180 = CARTESIAN_POINT( '', ( 0.000000000000000, 0.000000000000000, 57.1500000000000 ) );
#181 = DIRECTION( '', ( -0.000000000000000, -0.000000000000000, -1.00000000000000 ) );
#182 = DIRECTION( '', ( 1.00000000000000, 0.000000000000000, 0.000000000000000 ) );
#183 = SURFACE_STYLE_FILL_AREA( #216 );
#184 = ORIENTED_EDGE( '', *, *, #212, .F. );
#185 = ORIENTED_EDGE( '', *, *, #217, .F. );
#186 = CARTESIAN_POINT( '', ( 0.000000000000000, 0.000000000000000, 10.0000000000000 ) );
#187 = DIRECTION( '', ( 0.000000000000000, 0.000000000000000, -1.00000000000000 ) );
#188 = DIRECTION( '', ( -1.00000000000000, 0.000000000000000, 0.000000000000000 ) );
#189 = SURFACE_STYLE_FILL_AREA( #218 );
#190 = ORIENTED_EDGE( '', *, *, #217, .T. );
#191 = CARTESIAN_POINT( '', ( 12.5000000000000, 0.000000000000000, 10.5000000000000 ) );
#192 = DIRECTION( '', ( 0.000000000000000, 0.000000000000000, -1.00000000000000 ) );
#193 = DIRECTION( '', ( -1.00000000000000, 0.000000000000000, 0.000000000000000 ) );
#194 = SURFACE_STYLE_FILL_AREA( #219 );
#195 = ORIENTED_EDGE( '', *, *, #220, .F. );
#196 = ORIENTED_EDGE( '', *, *, #215, .T. );
#197 = CARTESIAN_POINT( '', ( 8.50000000000000, 0.000000000000000, 2.88889491658086E-031 ) );
#198 = DIRECTION( '', ( 0.000000000000000, 0.000000000000000, 1.00000000000000 ) );
#199 = DIRECTION( '', ( 1.00000000000000, 0.000000000000000, 0.000000000000000 ) );
#200 = SURFACE_STYLE_FILL_AREA( #221 );
#201 = ORIENTED_EDGE( '', *, *, #222, .F. );
#202 = ORIENTED_EDGE( '', *, *, #220, .T. );
#203 = SURFACE_STYLE_FILL_AREA( #223 );
#204 = ORIENTED_EDGE( '', *, *, #213, .F. );
#205 = ORIENTED_EDGE( '', *, *, #222, .T. );
#206 = CARTESIAN_POINT( '', ( 9.24591794226543, 0.000000000000000, 8.00000000000000 ) );
#207 = DIRECTION( '', ( 0.000000000000000, 0.000000000000000, 1.00000000000000 ) );
#208 = DIRECTION( '', ( 1.00000000000000, 0.000000000000000, 0.000000000000000 ) );
#209 = FILL_AREA_STYLE( '', ( #224 ) );
#210 = EDGE_CURVE( '', #225, #225, #226, .T. );
#211 = FILL_AREA_STYLE( '', ( #227 ) );
#212 = EDGE_CURVE( '', #228, #228, #229, .T. );
#213 = EDGE_CURVE( '', #230, #230, #231, .T. );
#214 = FILL_AREA_STYLE( '', ( #232 ) );
#215 = EDGE_CURVE( '', #233, #233, #234, .T. );
#216 = FILL_AREA_STYLE( '', ( #235 ) );
#217 = EDGE_CURVE( '', #236, #236, #237, .F. );
#218 = FILL_AREA_STYLE( '', ( #238 ) );
#219 = FILL_AREA_STYLE( '', ( #239 ) );
#220 = EDGE_CURVE( '', #240, #240, #241, .T. );
#221 = FILL_AREA_STYLE( '', ( #242 ) );
#222 = EDGE_CURVE( '', #243, #243, #244, .T. );
#223 = FILL_AREA_STYLE( '', ( #245 ) );
#224 = FILL_AREA_STYLE_COLOUR( '', #246 );
#225 = VERTEX_POINT( '', #247 );
#226 = CIRCLE( '', #248, 8.50000000000000 );
#227 = FILL_AREA_STYLE_COLOUR( '', #249 );
#228 = VERTEX_POINT( '', #250 );
#229 = CIRCLE( '', #251, 12.5000000000000 );
#230 = VERTEX_POINT( '', #252 );
#231 = CIRCLE( '', #253, 12.5000000000000 );
#232 = FILL_AREA_STYLE_COLOUR( '', #254 );
#233 = VERTEX_POINT( '', #255 );
#234 = CIRCLE( '', #256, 8.50000000000000 );
#235 = FILL_AREA_STYLE_COLOUR( '', #257 );
#236 = VERTEX_POINT( '', #258 );
#237 = CIRCLE( '', #259, 12.0000000000000 );
#238 = FILL_AREA_STYLE_COLOUR( '', #260 );
#239 = FILL_AREA_STYLE_COLOUR( '', #261 );
#240 = VERTEX_POINT( '', #262 );
#241 = CIRCLE( '', #263, 9.24591794226543 );
#242 = FILL_AREA_STYLE_COLOUR( '', #264 );
#243 = VERTEX_POINT( '', #265 );
#244 = CIRCLE( '', #266, 9.24591794226542 );
#245 = FILL_AREA_STYLE_COLOUR( '', #267 );
#246 = COLOUR_RGB( '', 1.00000000000000, 1.00000000000000, 1.00000000000000 );
#247 = CARTESIAN_POINT( '', ( 8.50000000000000, 0.000000000000000, 8.00000000000000 ) );
#248 = AXIS2_PLACEMENT_3D( '', #268, #269, #270 );
#249 = COLOUR_RGB( '', 1.00000000000000, 1.00000000000000, 1.00000000000000 );
#250 = CARTESIAN_POINT( '', ( -12.5000000000000, 0.000000000000000, 10.0000000000000 ) );
#251 = AXIS2_PLACEMENT_3D( '', #271, #272, #273 );
#252 = CARTESIAN_POINT( '', ( 12.5000000000000, 0.000000000000000, 8.00000000000000 ) );
#253 = AXIS2_PLACEMENT_3D( '', #274, #275, #276 );
#254 = COLOUR_RGB( '', 1.00000000000000, 1.00000000000000, 1.00000000000000 );
#255 = CARTESIAN_POINT( '', ( 8.50000000000000, 0.000000000000000, 0.000000000000000 ) );
#256 = AXIS2_PLACEMENT_3D( '', #277, #278, #279 );
#257 = COLOUR_RGB( '', 1.00000000000000, 1.00000000000000, 1.00000000000000 );
#258 = CARTESIAN_POINT( '', ( -12.0000000000000, 0.000000000000000, 10.5000000000000 ) );
#259 = AXIS2_PLACEMENT_3D( '', #280, #281, #282 );
#260 = COLOUR_RGB( '', 1.00000000000000, 1.00000000000000, 1.00000000000000 );
#261 = COLOUR_RGB( '', 1.00000000000000, 1.00000000000000, 1.00000000000000 );
#262 = CARTESIAN_POINT( '', ( 9.24591794226543, 0.000000000000000, 0.000000000000000 ) );
#263 = AXIS2_PLACEMENT_3D( '', #283, #284, #285 );
#264 = COLOUR_RGB( '', 1.00000000000000, 1.00000000000000, 1.00000000000000 );
#265 = CARTESIAN_POINT( '', ( 9.24591794226542, 0.000000000000000, 8.00000000000000 ) );
#266 = AXIS2_PLACEMENT_3D( '', #286, #287, #288 );
#267 = COLOUR_RGB( '', 1.00000000000000, 1.00000000000000, 1.00000000000000 );
#268 = CARTESIAN_POINT( '', ( 0.000000000000000, 0.000000000000000, 8.00000000000000 ) );
#269 = DIRECTION( '', ( 0.000000000000000, 0.000000000000000, 1.00000000000000 ) );
#270 = DIRECTION( '', ( 1.00000000000000, 0.000000000000000, 0.000000000000000 ) );
#271 = CARTESIAN_POINT( '', ( 0.000000000000000, 0.000000000000000, 10.0000000000000 ) );
#272 = DIRECTION( '', ( 0.000000000000000, 0.000000000000000, -1.00000000000000 ) );
#273 = DIRECTION( '', ( -1.00000000000000, 0.000000000000000, 0.000000000000000 ) );
#274 = CARTESIAN_POINT( '', ( 0.000000000000000, 0.000000000000000, 8.00000000000000 ) );
#275 = DIRECTION( '', ( 0.000000000000000, 0.000000000000000, 1.00000000000000 ) );
#276 = DIRECTION( '', ( 1.00000000000000, 0.000000000000000, 0.000000000000000 ) );
#277 = CARTESIAN_POINT( '', ( 0.000000000000000, 0.000000000000000, 0.000000000000000 ) );
#278 = DIRECTION( '', ( 0.000000000000000, 0.000000000000000, 1.00000000000000 ) );
#279 = DIRECTION( '', ( 1.00000000000000, 0.000000000000000, 0.000000000000000 ) );
#280 = CARTESIAN_POINT( '', ( 0.000000000000000, 0.000000000000000, 10.5000000000000 ) );
#281 = DIRECTION( '', ( 0.000000000000000, 0.000000000000000, -1.00000000000000 ) );
#282 = DIRECTION( '', ( -1.00000000000000, 0.000000000000000, 0.000000000000000 ) );
#283 = CARTESIAN_POINT( '', ( 0.000000000000000, 0.000000000000000, 0.000000000000000 ) );
#284 = DIRECTION( '', ( 0.000000000000000, 0.000000000000000, 1.00000000000000 ) );
#285 = DIRECTION( '', ( 1.00000000000000, 0.000000000000000, 0.000000000000000 ) );
#286 = CARTESIAN_POINT( '', ( 0.000000000000000, 0.000000000000000, 8.00000000000000 ) );
#287 = DIRECTION( '', ( 0.000000000000000, 0.000000000000000, 1.00000000000000 ) );
#288 = DIRECTION( '', ( 1.00000000000000, 0.000000000000000, 0.000000000000000 ) );
ENDSEC;
END-ISO-10303-21;
