ISO-10303-21;
HEADER;
FILE_DESCRIPTION( ( 'Unknown' ), '1' );
FILE_NAME( '//SBS2003/HD_Usb/Disegni/08_LIB/Users_3D/PROD_GAMM_3D/TTP/7372526.stp', 'Unknown', ( 'Unknown' ), ( 'Unknown' ), 'PSStep 14.0', 'Unknown', '  ' );
FILE_SCHEMA( ( 'AUTOMOTIVE_DESIGN { 1 0 10303 214 1 1 1 1 }' ) );
ENDSEC;
DATA;
#1 = MECHANICAL_DESIGN_GEOMETRIC_PRESENTATION_REPRESENTATION( ' ', ( #10, #11, #12, #13, #14, #15, #16, #17 ), #6 );
#2 = PRODUCT_DEFINITION_CONTEXT( '', #18, 'design' );
#3 = APPLICATION_PROTOCOL_DEFINITION( 'international standard', 'automotive_design', 2001, #18 );
#4 = PRODUCT_CATEGORY_RELATIONSHIP( 'NONE', 'NONE', #19, #20 );
#5 = SHAPE_DEFINITION_REPRESENTATION( #21, #22 );
#6 =  ( GEOMETRIC_REPRESENTATION_CONTEXT( 3 )GLOBAL_UNCERTAINTY_ASSIGNED_CONTEXT( ( #25 ) )GLOBAL_UNIT_ASSIGNED_CONTEXT( ( #27, #28, #29 ) )REPRESENTATION_CONTEXT( 'NONE', 'WORKSPACE' ) );
#10 = STYLED_ITEM( '', ( #31 ), #32 );
#11 = STYLED_ITEM( '', ( #33 ), #34 );
#12 = STYLED_ITEM( '', ( #35 ), #36 );
#13 = STYLED_ITEM( '', ( #37 ), #38 );
#14 = STYLED_ITEM( '', ( #39 ), #40 );
#15 = STYLED_ITEM( '', ( #41 ), #42 );
#16 = STYLED_ITEM( '', ( #43 ), #44 );
#17 = STYLED_ITEM( '', ( #45 ), #46 );
#18 = APPLICATION_CONTEXT( 'core data for automotive mechanical design processes' );
#19 = PRODUCT_CATEGORY( 'part', 'NONE' );
#20 = PRODUCT_RELATED_PRODUCT_CATEGORY( 'detail', ' ', ( #47 ) );
#21 = PRODUCT_DEFINITION_SHAPE( 'NONE', 'NONE', #48 );
#22 = ADVANCED_BREP_SHAPE_REPRESENTATION( '1', ( #49, #50 ), #6 );
#25 = UNCERTAINTY_MEASURE_WITH_UNIT( LENGTH_MEASURE( 0.00100000000000000 ), #27, '', '' );
#27 =  ( CONVERSION_BASED_UNIT( 'MILLIMETRE', #53 )LENGTH_UNIT(  )NAMED_UNIT( #56 ) );
#28 =  ( NAMED_UNIT( #58 )PLANE_ANGLE_UNIT(  )SI_UNIT( $, .RADIAN. ) );
#29 =  ( NAMED_UNIT( #58 )SI_UNIT( $, .STERADIAN. )SOLID_ANGLE_UNIT(  ) );
#31 = PRESENTATION_STYLE_ASSIGNMENT( ( #64 ) );
#32 = ADVANCED_FACE( '', ( #65 ), #66, .F. );
#33 = PRESENTATION_STYLE_ASSIGNMENT( ( #67 ) );
#34 = ADVANCED_FACE( '', ( #68, #69 ), #70, .F. );
#35 = PRESENTATION_STYLE_ASSIGNMENT( ( #71 ) );
#36 = ADVANCED_FACE( '', ( #72, #73 ), #74, .F. );
#37 = PRESENTATION_STYLE_ASSIGNMENT( ( #75 ) );
#38 = ADVANCED_FACE( '', ( #76, #77 ), #78, .T. );
#39 = PRESENTATION_STYLE_ASSIGNMENT( ( #79 ) );
#40 = ADVANCED_FACE( '', ( #80, #81 ), #82, .F. );
#41 = PRESENTATION_STYLE_ASSIGNMENT( ( #83 ) );
#42 = ADVANCED_FACE( '', ( #84, #85 ), #86, .T. );
#43 = PRESENTATION_STYLE_ASSIGNMENT( ( #87 ) );
#44 = ADVANCED_FACE( '', ( #88, #89 ), #90, .T. );
#45 = PRESENTATION_STYLE_ASSIGNMENT( ( #91 ) );
#46 = ADVANCED_FACE( '', ( #92 ), #93, .F. );
#47 = PRODUCT( '1', '1', 'PART-1-DESC', ( #94 ) );
#48 = PRODUCT_DEFINITION( 'NONE', 'NONE', #95, #2 );
#49 = MANIFOLD_SOLID_BREP( '1', #96 );
#50 = AXIS2_PLACEMENT_3D( '', #97, #98, #99 );
#53 = LENGTH_MEASURE_WITH_UNIT( LENGTH_MEASURE( 1.00000000000000 ), #100 );
#56 = DIMENSIONAL_EXPONENTS( 1.00000000000000, 0.000000000000000, 0.000000000000000, 0.000000000000000, 0.000000000000000, 0.000000000000000, 0.000000000000000 );
#58 = DIMENSIONAL_EXPONENTS( 0.000000000000000, 0.000000000000000, 0.000000000000000, 0.000000000000000, 0.000000000000000, 0.000000000000000, 0.000000000000000 );
#64 = SURFACE_STYLE_USAGE( .BOTH., #101 );
#65 = FACE_OUTER_BOUND( '', #102, .T. );
#66 = PLANE( '', #103 );
#67 = SURFACE_STYLE_USAGE( .BOTH., #104 );
#68 = FACE_OUTER_BOUND( '', #105, .T. );
#69 = FACE_BOUND( '', #106, .T. );
#70 = PLANE( '', #107 );
#71 = SURFACE_STYLE_USAGE( .BOTH., #108 );
#72 = FACE_OUTER_BOUND( '', #109, .T. );
#73 = FACE_BOUND( '', #110, .T. );
#74 = PLANE( '', #111 );
#75 = SURFACE_STYLE_USAGE( .BOTH., #112 );
#76 = FACE_OUTER_BOUND( '', #113, .T. );
#77 = FACE_OUTER_BOUND( '', #114, .T. );
#78 = CYLINDRICAL_SURFACE( '', #115, 14.0000000000000 );
#79 = SURFACE_STYLE_USAGE( .BOTH., #116 );
#80 = FACE_OUTER_BOUND( '', #117, .T. );
#81 = FACE_OUTER_BOUND( '', #118, .T. );
#82 = CYLINDRICAL_SURFACE( '', #119, 11.2500000000000 );
#83 = SURFACE_STYLE_USAGE( .BOTH., #120 );
#84 = FACE_OUTER_BOUND( '', #121, .T. );
#85 = FACE_OUTER_BOUND( '', #122, .T. );
#86 = TOROIDAL_SURFACE( '', #123, 13.0000000000000, 1.00000000000000 );
#87 = SURFACE_STYLE_USAGE( .BOTH., #124 );
#88 = FACE_OUTER_BOUND( '', #125, .T. );
#89 = FACE_OUTER_BOUND( '', #126, .T. );
#90 = ( BOUNDED_SURFACE(  )B_SPLINE_SURFACE( 3, 3, ( ( #129, #130, #131, #132, #133, #134, #135 ), ( #136, #137, #138, #139, #140, #141, #142 ), ( #143, #144, #145, #146, #147, #148, #149 ), ( #150, #151, #152, #153, #154, #155, #156 ) ), .UNSPECIFIED., .F., .T., .F. )B_SPLINE_SURFACE_WITH_KNOTS( ( 4, 4 ), ( 4, 3, 4 ), ( 0.000000000000000, 6.28318530717959 ), ( -0.180986451246548, 0.000000000000000, 0.180986451246548 ), .UNSPECIFIED. )GEOMETRIC_REPRESENTATION_ITEM(  )RATIONAL_B_SPLINE_SURFACE( ( ( 1.00000000000000, 0.333333333333333, 0.333333333333333, 1.00000000000000, 0.333333333333333, 0.333333333333333, 1.00000000000000 ), ( 0.989111073459090, 0.329703691153030, 0.329703691153030, 0.989111073459090, 0.329703691153030, 0.329703691153030, 0.989111073459090 ), ( 0.989111073459090, 0.329703691153030, 0.329703691153030, 0.989111073459090, 0.329703691153030, 0.329703691153030, 0.989111073459090 ), ( 1.00000000000000, 0.333333333333333, 0.333333333333333, 1.00000000000000, 0.333333333333333, 0.333333333333333, 1.00000000000000 ) ) )REPRESENTATION_ITEM( '' )SURFACE(  ) );
#91 = SURFACE_STYLE_USAGE( .BOTH., #162 );
#92 = FACE_OUTER_BOUND( '', #163, .T. );
#93 = PLANE( '', #164 );
#94 = PRODUCT_CONTEXT( '', #18, 'mechanical' );
#95 = PRODUCT_DEFINITION_FORMATION_WITH_SPECIFIED_SOURCE( ' ', 'NONE', #47, .NOT_KNOWN. );
#96 = CLOSED_SHELL( '', ( #40, #42, #46, #32, #38, #34, #44, #36 ) );
#97 = CARTESIAN_POINT( '', ( 0.000000000000000, 0.000000000000000, 0.000000000000000 ) );
#98 = DIRECTION( '', ( 0.000000000000000, 0.000000000000000, 1.00000000000000 ) );
#99 = DIRECTION( '', ( 1.00000000000000, 0.000000000000000, 0.000000000000000 ) );
#100 =  ( LENGTH_UNIT(  )NAMED_UNIT( #56 )SI_UNIT( .MILLI., .METRE. ) );
#101 = SURFACE_SIDE_STYLE( '', ( #166 ) );
#102 = EDGE_LOOP( '', ( #167 ) );
#103 = AXIS2_PLACEMENT_3D( '', #168, #169, #170 );
#104 = SURFACE_SIDE_STYLE( '', ( #171 ) );
#105 = EDGE_LOOP( '', ( #172 ) );
#106 = EDGE_LOOP( '', ( #173 ) );
#107 = AXIS2_PLACEMENT_3D( '', #174, #175, #176 );
#108 = SURFACE_SIDE_STYLE( '', ( #177 ) );
#109 = EDGE_LOOP( '', ( #178 ) );
#110 = EDGE_LOOP( '', ( #179 ) );
#111 = AXIS2_PLACEMENT_3D( '', #180, #181, #182 );
#112 = SURFACE_SIDE_STYLE( '', ( #183 ) );
#113 = EDGE_LOOP( '', ( #184 ) );
#114 = EDGE_LOOP( '', ( #185 ) );
#115 = AXIS2_PLACEMENT_3D( '', #186, #187, #188 );
#116 = SURFACE_SIDE_STYLE( '', ( #189 ) );
#117 = EDGE_LOOP( '', ( #190 ) );
#118 = EDGE_LOOP( '', ( #191 ) );
#119 = AXIS2_PLACEMENT_3D( '', #192, #193, #194 );
#120 = SURFACE_SIDE_STYLE( '', ( #195 ) );
#121 = EDGE_LOOP( '', ( #196 ) );
#122 = EDGE_LOOP( '', ( #197 ) );
#123 = AXIS2_PLACEMENT_3D( '', #198, #199, #200 );
#124 = SURFACE_SIDE_STYLE( '', ( #201 ) );
#125 = EDGE_LOOP( '', ( #202 ) );
#126 = EDGE_LOOP( '', ( #203 ) );
#129 = CARTESIAN_POINT( '', ( 11.8916652547159, 0.000000000000000, 9.00000000000000 ) );
#130 = CARTESIAN_POINT( '', ( 11.8916652547159, 23.7833305094318, 9.00000000000000 ) );
#131 = CARTESIAN_POINT( '', ( -11.8916652547159, 23.7833305094318, 9.00000000000000 ) );
#132 = CARTESIAN_POINT( '', ( -11.8916652547159, 0.000000000000000, 9.00000000000000 ) );
#133 = CARTESIAN_POINT( '', ( -11.8916652547159, -23.7833305094318, 9.00000000000000 ) );
#134 = CARTESIAN_POINT( '', ( 11.8916652547159, -23.7833305094318, 9.00000000000000 ) );
#135 = CARTESIAN_POINT( '', ( 11.8916652547159, 0.000000000000000, 9.00000000000000 ) );
#136 = CARTESIAN_POINT( '', ( 12.4376100070191, 0.000000000000000, 6.01651320084229 ) );
#137 = CARTESIAN_POINT( '', ( 12.4376100070191, 24.8752200140382, 6.01651320084229 ) );
#138 = CARTESIAN_POINT( '', ( -12.4376100070191, 24.8752200140382, 6.01651320084229 ) );
#139 = CARTESIAN_POINT( '', ( -12.4376100070191, 0.000000000000000, 6.01651320084229 ) );
#140 = CARTESIAN_POINT( '', ( -12.4376100070191, -24.8752200140382, 6.01651320084229 ) );
#141 = CARTESIAN_POINT( '', ( 12.4376100070191, -24.8752200140382, 6.01651320084229 ) );
#142 = CARTESIAN_POINT( '', ( 12.4376100070191, 0.000000000000000, 6.01651320084229 ) );
#143 = CARTESIAN_POINT( '', ( 12.4376100070191, 0.000000000000000, 2.98348679915771 ) );
#144 = CARTESIAN_POINT( '', ( 12.4376100070191, 24.8752200140382, 2.98348679915771 ) );
#145 = CARTESIAN_POINT( '', ( -12.4376100070191, 24.8752200140382, 2.98348679915771 ) );
#146 = CARTESIAN_POINT( '', ( -12.4376100070191, 0.000000000000000, 2.98348679915771 ) );
#147 = CARTESIAN_POINT( '', ( -12.4376100070191, -24.8752200140382, 2.98348679915771 ) );
#148 = CARTESIAN_POINT( '', ( 12.4376100070191, -24.8752200140382, 2.98348679915771 ) );
#149 = CARTESIAN_POINT( '', ( 12.4376100070191, 0.000000000000000, 2.98348679915771 ) );
#150 = CARTESIAN_POINT( '', ( 11.8916652547159, 0.000000000000000, 1.73472347597681E-015 ) );
#151 = CARTESIAN_POINT( '', ( 11.8916652547159, 23.7833305094318, 1.73472347597681E-015 ) );
#152 = CARTESIAN_POINT( '', ( -11.8916652547159, 23.7833305094318, 1.73472347597681E-015 ) );
#153 = CARTESIAN_POINT( '', ( -11.8916652547159, 0.000000000000000, 1.73472347597681E-015 ) );
#154 = CARTESIAN_POINT( '', ( -11.8916652547159, -23.7833305094318, 1.73472347597681E-015 ) );
#155 = CARTESIAN_POINT( '', ( 11.8916652547159, -23.7833305094318, 1.73472347597681E-015 ) );
#156 = CARTESIAN_POINT( '', ( 11.8916652547159, 0.000000000000000, 1.73472347597681E-015 ) );
#162 = SURFACE_SIDE_STYLE( '', ( #204 ) );
#163 = EDGE_LOOP( '', ( #205 ) );
#164 = AXIS2_PLACEMENT_3D( '', #206, #207, #208 );
#166 = SURFACE_STYLE_FILL_AREA( #209 );
#167 = ORIENTED_EDGE( '', *, *, #210, .T. );
#168 = CARTESIAN_POINT( '', ( 14.0000000000000, 0.000000000000000, 12.0000000000000 ) );
#169 = DIRECTION( '', ( 0.000000000000000, 0.000000000000000, -1.00000000000000 ) );
#170 = DIRECTION( '', ( -1.00000000000000, 0.000000000000000, 0.000000000000000 ) );
#171 = SURFACE_STYLE_FILL_AREA( #211 );
#172 = ORIENTED_EDGE( '', *, *, #212, .F. );
#173 = ORIENTED_EDGE( '', *, *, #213, .T. );
#174 = CARTESIAN_POINT( '', ( 11.2500000000000, 0.000000000000000, 0.000000000000000 ) );
#175 = DIRECTION( '', ( 0.000000000000000, 0.000000000000000, 1.00000000000000 ) );
#176 = DIRECTION( '', ( 1.00000000000000, 0.000000000000000, 0.000000000000000 ) );
#177 = SURFACE_STYLE_FILL_AREA( #214 );
#178 = ORIENTED_EDGE( '', *, *, #215, .F. );
#179 = ORIENTED_EDGE( '', *, *, #216, .T. );
#180 = CARTESIAN_POINT( '', ( 11.8916652547159, 0.000000000000000, 9.00000000000000 ) );
#181 = DIRECTION( '', ( 0.000000000000000, 0.000000000000000, 1.00000000000000 ) );
#182 = DIRECTION( '', ( 1.00000000000000, 0.000000000000000, 0.000000000000000 ) );
#183 = SURFACE_STYLE_FILL_AREA( #217 );
#184 = ORIENTED_EDGE( '', *, *, #218, .T. );
#185 = ORIENTED_EDGE( '', *, *, #215, .T. );
#186 = CARTESIAN_POINT( '', ( 0.000000000000000, 0.000000000000000, 57.1500000000000 ) );
#187 = DIRECTION( '', ( -0.000000000000000, -0.000000000000000, -1.00000000000000 ) );
#188 = DIRECTION( '', ( 1.00000000000000, 0.000000000000000, 0.000000000000000 ) );
#189 = SURFACE_STYLE_FILL_AREA( #219 );
#190 = ORIENTED_EDGE( '', *, *, #213, .F. );
#191 = ORIENTED_EDGE( '', *, *, #220, .T. );
#192 = CARTESIAN_POINT( '', ( 0.000000000000000, 0.000000000000000, 57.1500000000000 ) );
#193 = DIRECTION( '', ( -0.000000000000000, -0.000000000000000, -1.00000000000000 ) );
#194 = DIRECTION( '', ( 1.00000000000000, 0.000000000000000, 0.000000000000000 ) );
#195 = SURFACE_STYLE_FILL_AREA( #221 );
#196 = ORIENTED_EDGE( '', *, *, #218, .F. );
#197 = ORIENTED_EDGE( '', *, *, #210, .F. );
#198 = CARTESIAN_POINT( '', ( 0.000000000000000, 0.000000000000000, 11.0000000000000 ) );
#199 = DIRECTION( '', ( 0.000000000000000, 0.000000000000000, -1.00000000000000 ) );
#200 = DIRECTION( '', ( -1.00000000000000, 0.000000000000000, 0.000000000000000 ) );
#201 = SURFACE_STYLE_FILL_AREA( #222 );
#202 = ORIENTED_EDGE( '', *, *, #216, .F. );
#203 = ORIENTED_EDGE( '', *, *, #212, .T. );
#204 = SURFACE_STYLE_FILL_AREA( #223 );
#205 = ORIENTED_EDGE( '', *, *, #220, .F. );
#206 = CARTESIAN_POINT( '', ( 6.12323399573670E-017, 0.000000000000000, 9.00000000000000 ) );
#207 = DIRECTION( '', ( 0.000000000000000, 0.000000000000000, 1.00000000000000 ) );
#208 = DIRECTION( '', ( 1.00000000000000, 0.000000000000000, 0.000000000000000 ) );
#209 = FILL_AREA_STYLE( '', ( #224 ) );
#210 = EDGE_CURVE( '', #225, #225, #226, .F. );
#211 = FILL_AREA_STYLE( '', ( #227 ) );
#212 = EDGE_CURVE( '', #228, #228, #229, .T. );
#213 = EDGE_CURVE( '', #230, #230, #231, .T. );
#214 = FILL_AREA_STYLE( '', ( #232 ) );
#215 = EDGE_CURVE( '', #233, #233, #234, .T. );
#216 = EDGE_CURVE( '', #235, #235, #236, .T. );
#217 = FILL_AREA_STYLE( '', ( #237 ) );
#218 = EDGE_CURVE( '', #238, #238, #239, .T. );
#219 = FILL_AREA_STYLE( '', ( #240 ) );
#220 = EDGE_CURVE( '', #241, #241, #242, .T. );
#221 = FILL_AREA_STYLE( '', ( #243 ) );
#222 = FILL_AREA_STYLE( '', ( #244 ) );
#223 = FILL_AREA_STYLE( '', ( #245 ) );
#224 = FILL_AREA_STYLE_COLOUR( '', #246 );
#225 = VERTEX_POINT( '', #247 );
#226 = CIRCLE( '', #248, 13.0000000000000 );
#227 = FILL_AREA_STYLE_COLOUR( '', #249 );
#228 = VERTEX_POINT( '', #250 );
#229 = CIRCLE( '', #251, 11.8916652547159 );
#230 = VERTEX_POINT( '', #252 );
#231 = CIRCLE( '', #253, 11.2500000000000 );
#232 = FILL_AREA_STYLE_COLOUR( '', #254 );
#233 = VERTEX_POINT( '', #255 );
#234 = CIRCLE( '', #256, 14.0000000000000 );
#235 = VERTEX_POINT( '', #257 );
#236 = CIRCLE( '', #258, 11.8916652547159 );
#237 = FILL_AREA_STYLE_COLOUR( '', #259 );
#238 = VERTEX_POINT( '', #260 );
#239 = CIRCLE( '', #261, 14.0000000000000 );
#240 = FILL_AREA_STYLE_COLOUR( '', #262 );
#241 = VERTEX_POINT( '', #263 );
#242 = CIRCLE( '', #264, 11.2500000000000 );
#243 = FILL_AREA_STYLE_COLOUR( '', #265 );
#244 = FILL_AREA_STYLE_COLOUR( '', #266 );
#245 = FILL_AREA_STYLE_COLOUR( '', #267 );
#246 = COLOUR_RGB( '', 1.00000000000000, 1.00000000000000, 1.00000000000000 );
#247 = CARTESIAN_POINT( '', ( -13.0000000000000, 0.000000000000000, 12.0000000000000 ) );
#248 = AXIS2_PLACEMENT_3D( '', #268, #269, #270 );
#249 = COLOUR_RGB( '', 1.00000000000000, 1.00000000000000, 1.00000000000000 );
#250 = CARTESIAN_POINT( '', ( 11.8916652547159, 0.000000000000000, 0.000000000000000 ) );
#251 = AXIS2_PLACEMENT_3D( '', #271, #272, #273 );
#252 = CARTESIAN_POINT( '', ( 11.2500000000000, 0.000000000000000, 0.000000000000000 ) );
#253 = AXIS2_PLACEMENT_3D( '', #274, #275, #276 );
#254 = COLOUR_RGB( '', 1.00000000000000, 1.00000000000000, 1.00000000000000 );
#255 = CARTESIAN_POINT( '', ( 14.0000000000000, 0.000000000000000, 9.00000000000000 ) );
#256 = AXIS2_PLACEMENT_3D( '', #277, #278, #279 );
#257 = CARTESIAN_POINT( '', ( 11.8916652547159, 0.000000000000000, 9.00000000000000 ) );
#258 = AXIS2_PLACEMENT_3D( '', #280, #281, #282 );
#259 = COLOUR_RGB( '', 1.00000000000000, 1.00000000000000, 1.00000000000000 );
#260 = CARTESIAN_POINT( '', ( -14.0000000000000, 0.000000000000000, 11.0000000000000 ) );
#261 = AXIS2_PLACEMENT_3D( '', #283, #284, #285 );
#262 = COLOUR_RGB( '', 1.00000000000000, 1.00000000000000, 1.00000000000000 );
#263 = CARTESIAN_POINT( '', ( 11.2500000000000, 0.000000000000000, 9.00000000000000 ) );
#264 = AXIS2_PLACEMENT_3D( '', #286, #287, #288 );
#265 = COLOUR_RGB( '', 1.00000000000000, 1.00000000000000, 1.00000000000000 );
#266 = COLOUR_RGB( '', 1.00000000000000, 1.00000000000000, 1.00000000000000 );
#267 = COLOUR_RGB( '', 1.00000000000000, 1.00000000000000, 1.00000000000000 );
#268 = CARTESIAN_POINT( '', ( 0.000000000000000, 0.000000000000000, 12.0000000000000 ) );
#269 = DIRECTION( '', ( 0.000000000000000, 0.000000000000000, -1.00000000000000 ) );
#270 = DIRECTION( '', ( -1.00000000000000, 0.000000000000000, 0.000000000000000 ) );
#271 = CARTESIAN_POINT( '', ( 0.000000000000000, 0.000000000000000, 0.000000000000000 ) );
#272 = DIRECTION( '', ( 0.000000000000000, 0.000000000000000, 1.00000000000000 ) );
#273 = DIRECTION( '', ( 1.00000000000000, 0.000000000000000, 0.000000000000000 ) );
#274 = CARTESIAN_POINT( '', ( 0.000000000000000, 0.000000000000000, 0.000000000000000 ) );
#275 = DIRECTION( '', ( 0.000000000000000, 0.000000000000000, 1.00000000000000 ) );
#276 = DIRECTION( '', ( 1.00000000000000, 0.000000000000000, 0.000000000000000 ) );
#277 = CARTESIAN_POINT( '', ( 0.000000000000000, 0.000000000000000, 9.00000000000000 ) );
#278 = DIRECTION( '', ( 0.000000000000000, 0.000000000000000, 1.00000000000000 ) );
#279 = DIRECTION( '', ( 1.00000000000000, 0.000000000000000, 0.000000000000000 ) );
#280 = CARTESIAN_POINT( '', ( 0.000000000000000, 0.000000000000000, 9.00000000000000 ) );
#281 = DIRECTION( '', ( 0.000000000000000, 0.000000000000000, 1.00000000000000 ) );
#282 = DIRECTION( '', ( 1.00000000000000, 0.000000000000000, 0.000000000000000 ) );
#283 = CARTESIAN_POINT( '', ( 0.000000000000000, 0.000000000000000, 11.0000000000000 ) );
#284 = DIRECTION( '', ( 0.000000000000000, 0.000000000000000, -1.00000000000000 ) );
#285 = DIRECTION( '', ( -1.00000000000000, 0.000000000000000, 0.000000000000000 ) );
#286 = CARTESIAN_POINT( '', ( 0.000000000000000, 0.000000000000000, 9.00000000000000 ) );
#287 = DIRECTION( '', ( 0.000000000000000, 0.000000000000000, 1.00000000000000 ) );
#288 = DIRECTION( '', ( 1.00000000000000, 0.000000000000000, 0.000000000000000 ) );
ENDSEC;
END-ISO-10303-21;
