ISO-10303-21;
HEADER;
FILE_DESCRIPTION( ( 'Unknown' ), '1' );
FILE_NAME( '//SBS2003/HD_Usb/Disegni/08_LIB/Users_3D/PROD_GAMM_3D/TPL/7372600.stp', 'Unknown', ( 'Unknown' ), ( 'Unknown' ), 'PSStep 14.0', 'Unknown', '  ' );
FILE_SCHEMA( ( 'AUTOMOTIVE_DESIGN { 1 0 10303 214 1 1 1 1 }' ) );
ENDSEC;
DATA;
#1 = MECHANICAL_DESIGN_GEOMETRIC_PRESENTATION_REPRESENTATION( ' ', ( #10, #11, #12, #13, #14, #15, #16, #17, #18, #19, #20, #21, #22, #23, #24 ), #6 );
#2 = PRODUCT_DEFINITION_CONTEXT( '', #25, 'design' );
#3 = APPLICATION_PROTOCOL_DEFINITION( 'international standard', 'automotive_design', 2001, #25 );
#4 = PRODUCT_CATEGORY_RELATIONSHIP( 'NONE', 'NONE', #26, #27 );
#5 = SHAPE_DEFINITION_REPRESENTATION( #28, #29 );
#6 =  ( GEOMETRIC_REPRESENTATION_CONTEXT( 3 )GLOBAL_UNCERTAINTY_ASSIGNED_CONTEXT( ( #32 ) )GLOBAL_UNIT_ASSIGNED_CONTEXT( ( #34, #35, #36 ) )REPRESENTATION_CONTEXT( 'NONE', 'WORKSPACE' ) );
#10 = STYLED_ITEM( '', ( #38 ), #39 );
#11 = STYLED_ITEM( '', ( #40 ), #41 );
#12 = STYLED_ITEM( '', ( #42 ), #43 );
#13 = STYLED_ITEM( '', ( #44 ), #45 );
#14 = STYLED_ITEM( '', ( #46 ), #47 );
#15 = STYLED_ITEM( '', ( #48 ), #49 );
#16 = STYLED_ITEM( '', ( #50 ), #51 );
#17 = STYLED_ITEM( '', ( #52 ), #53 );
#18 = STYLED_ITEM( '', ( #54 ), #55 );
#19 = STYLED_ITEM( '', ( #56 ), #57 );
#20 = STYLED_ITEM( '', ( #58 ), #59 );
#21 = STYLED_ITEM( '', ( #60 ), #61 );
#22 = STYLED_ITEM( '', ( #62 ), #63 );
#23 = STYLED_ITEM( '', ( #64 ), #65 );
#24 = STYLED_ITEM( '', ( #66 ), #67 );
#25 = APPLICATION_CONTEXT( 'core data for automotive mechanical design processes' );
#26 = PRODUCT_CATEGORY( 'part', 'NONE' );
#27 = PRODUCT_RELATED_PRODUCT_CATEGORY( 'detail', ' ', ( #68 ) );
#28 = PRODUCT_DEFINITION_SHAPE( 'NONE', 'NONE', #69 );
#29 = ADVANCED_BREP_SHAPE_REPRESENTATION( '1', ( #70, #71 ), #6 );
#32 = UNCERTAINTY_MEASURE_WITH_UNIT( LENGTH_MEASURE( 0.00100000000000000 ), #34, '', '' );
#34 =  ( CONVERSION_BASED_UNIT( 'MILLIMETRE', #74 )LENGTH_UNIT(  )NAMED_UNIT( #77 ) );
#35 =  ( NAMED_UNIT( #79 )PLANE_ANGLE_UNIT(  )SI_UNIT( $, .RADIAN. ) );
#36 =  ( NAMED_UNIT( #79 )SI_UNIT( $, .STERADIAN. )SOLID_ANGLE_UNIT(  ) );
#38 = PRESENTATION_STYLE_ASSIGNMENT( ( #85 ) );
#39 = ADVANCED_FACE( '', ( #86, #87 ), #88, .F. );
#40 = PRESENTATION_STYLE_ASSIGNMENT( ( #89 ) );
#41 = ADVANCED_FACE( '', ( #90, #91 ), #92, .F. );
#42 = PRESENTATION_STYLE_ASSIGNMENT( ( #93 ) );
#43 = ADVANCED_FACE( '', ( #94, #95 ), #96, .T. );
#44 = PRESENTATION_STYLE_ASSIGNMENT( ( #97 ) );
#45 = ADVANCED_FACE( '', ( #98, #99 ), #100, .F. );
#46 = PRESENTATION_STYLE_ASSIGNMENT( ( #101 ) );
#47 = ADVANCED_FACE( '', ( #102, #103 ), #104, .F. );
#48 = PRESENTATION_STYLE_ASSIGNMENT( ( #105 ) );
#49 = ADVANCED_FACE( '', ( #106, #107 ), #108, .F. );
#50 = PRESENTATION_STYLE_ASSIGNMENT( ( #109 ) );
#51 = ADVANCED_FACE( '', ( #110, #111 ), #112, .F. );
#52 = PRESENTATION_STYLE_ASSIGNMENT( ( #113 ) );
#53 = ADVANCED_FACE( '', ( #114 ), #115, .F. );
#54 = PRESENTATION_STYLE_ASSIGNMENT( ( #116 ) );
#55 = ADVANCED_FACE( '', ( #117, #118 ), #119, .F. );
#56 = PRESENTATION_STYLE_ASSIGNMENT( ( #120 ) );
#57 = ADVANCED_FACE( '', ( #121, #122 ), #123, .T. );
#58 = PRESENTATION_STYLE_ASSIGNMENT( ( #124 ) );
#59 = ADVANCED_FACE( '', ( #125, #126 ), #127, .T. );
#60 = PRESENTATION_STYLE_ASSIGNMENT( ( #128 ) );
#61 = ADVANCED_FACE( '', ( #129, #130 ), #131, .F. );
#62 = PRESENTATION_STYLE_ASSIGNMENT( ( #132 ) );
#63 = ADVANCED_FACE( '', ( #133, #134 ), #135, .F. );
#64 = PRESENTATION_STYLE_ASSIGNMENT( ( #136 ) );
#65 = ADVANCED_FACE( '', ( #137, #138 ), #139, .T. );
#66 = PRESENTATION_STYLE_ASSIGNMENT( ( #140 ) );
#67 = ADVANCED_FACE( '', ( #141 ), #142, .F. );
#68 = PRODUCT( '1', '1', 'PART-1-DESC', ( #143 ) );
#69 = PRODUCT_DEFINITION( 'NONE', 'NONE', #144, #2 );
#70 = MANIFOLD_SOLID_BREP( '1', #145 );
#71 = AXIS2_PLACEMENT_3D( '', #146, #147, #148 );
#74 = LENGTH_MEASURE_WITH_UNIT( LENGTH_MEASURE( 1.00000000000000 ), #149 );
#77 = DIMENSIONAL_EXPONENTS( 1.00000000000000, 0.000000000000000, 0.000000000000000, 0.000000000000000, 0.000000000000000, 0.000000000000000, 0.000000000000000 );
#79 = DIMENSIONAL_EXPONENTS( 0.000000000000000, 0.000000000000000, 0.000000000000000, 0.000000000000000, 0.000000000000000, 0.000000000000000, 0.000000000000000 );
#85 = SURFACE_STYLE_USAGE( .BOTH., #150 );
#86 = FACE_OUTER_BOUND( '', #151, .T. );
#87 = FACE_BOUND( '', #152, .T. );
#88 = PLANE( '', #153 );
#89 = SURFACE_STYLE_USAGE( .BOTH., #154 );
#90 = FACE_OUTER_BOUND( '', #155, .T. );
#91 = FACE_OUTER_BOUND( '', #156, .T. );
#92 = CYLINDRICAL_SURFACE( '', #157, 4.25000000000000 );
#93 = SURFACE_STYLE_USAGE( .BOTH., #158 );
#94 = FACE_OUTER_BOUND( '', #159, .T. );
#95 = FACE_OUTER_BOUND( '', #160, .T. );
#96 = CYLINDRICAL_SURFACE( '', #161, 4.75000000000000 );
#97 = SURFACE_STYLE_USAGE( .BOTH., #162 );
#98 = FACE_BOUND( '', #163, .T. );
#99 = FACE_OUTER_BOUND( '', #164, .T. );
#100 = PLANE( '', #165 );
#101 = SURFACE_STYLE_USAGE( .BOTH., #166 );
#102 = FACE_BOUND( '', #167, .T. );
#103 = FACE_OUTER_BOUND( '', #168, .T. );
#104 = PLANE( '', #169 );
#105 = SURFACE_STYLE_USAGE( .BOTH., #170 );
#106 = FACE_OUTER_BOUND( '', #171, .T. );
#107 = FACE_BOUND( '', #172, .T. );
#108 = PLANE( '', #173 );
#109 = SURFACE_STYLE_USAGE( .BOTH., #174 );
#110 = FACE_OUTER_BOUND( '', #175, .T. );
#111 = FACE_OUTER_BOUND( '', #176, .T. );
#112 = CYLINDRICAL_SURFACE( '', #177, 4.25000000000000 );
#113 = SURFACE_STYLE_USAGE( .BOTH., #178 );
#114 = FACE_OUTER_BOUND( '', #179, .T. );
#115 = PLANE( '', #180 );
#116 = SURFACE_STYLE_USAGE( .BOTH., #181 );
#117 = FACE_OUTER_BOUND( '', #182, .T. );
#118 = FACE_BOUND( '', #183, .T. );
#119 = CONICAL_SURFACE( '', #184, 6.22473922221737, 0.872664625997164 );
#120 = SURFACE_STYLE_USAGE( .BOTH., #185 );
#121 = FACE_OUTER_BOUND( '', #186, .T. );
#122 = FACE_BOUND( '', #187, .T. );
#123 = CONICAL_SURFACE( '', #188, 4.50000000000000, 0.174532925199433 );
#124 = SURFACE_STYLE_USAGE( .BOTH., #189 );
#125 = FACE_OUTER_BOUND( '', #190, .T. );
#126 = FACE_OUTER_BOUND( '', #191, .T. );
#127 = CYLINDRICAL_SURFACE( '', #192, 10.0000000000000 );
#128 = SURFACE_STYLE_USAGE( .BOTH., #193 );
#129 = FACE_OUTER_BOUND( '', #194, .T. );
#130 = FACE_BOUND( '', #195, .T. );
#131 = PLANE( '', #196 );
#132 = SURFACE_STYLE_USAGE( .BOTH., #197 );
#133 = FACE_BOUND( '', #198, .T. );
#134 = FACE_OUTER_BOUND( '', #199, .T. );
#135 = PLANE( '', #200 );
#136 = SURFACE_STYLE_USAGE( .BOTH., #201 );
#137 = FACE_BOUND( '', #202, .T. );
#138 = FACE_OUTER_BOUND( '', #203, .T. );
#139 = CONICAL_SURFACE( '', #204, 9.87279404685324, 0.872664625997164 );
#140 = SURFACE_STYLE_USAGE( .BOTH., #205 );
#141 = FACE_OUTER_BOUND( '', #206, .T. );
#142 = PLANE( '', #207 );
#143 = PRODUCT_CONTEXT( '', #25, 'mechanical' );
#144 = PRODUCT_DEFINITION_FORMATION_WITH_SPECIFIED_SOURCE( ' ', 'NONE', #68, .NOT_KNOWN. );
#145 = CLOSED_SHELL( '', ( #49, #51, #67, #53, #41, #57, #47, #43, #61, #55, #39, #59, #45, #65, #63 ) );
#146 = CARTESIAN_POINT( '', ( 0.000000000000000, 0.000000000000000, 0.000000000000000 ) );
#147 = DIRECTION( '', ( 0.000000000000000, 0.000000000000000, 1.00000000000000 ) );
#148 = DIRECTION( '', ( 1.00000000000000, 0.000000000000000, 0.000000000000000 ) );
#149 =  ( LENGTH_UNIT(  )NAMED_UNIT( #77 )SI_UNIT( .MILLI., .METRE. ) );
#150 = SURFACE_SIDE_STYLE( '', ( #209 ) );
#151 = EDGE_LOOP( '', ( #210 ) );
#152 = EDGE_LOOP( '', ( #211 ) );
#153 = AXIS2_PLACEMENT_3D( '', #212, #213, #214 );
#154 = SURFACE_SIDE_STYLE( '', ( #215 ) );
#155 = EDGE_LOOP( '', ( #216 ) );
#156 = EDGE_LOOP( '', ( #217 ) );
#157 = AXIS2_PLACEMENT_3D( '', #218, #219, #220 );
#158 = SURFACE_SIDE_STYLE( '', ( #221 ) );
#159 = EDGE_LOOP( '', ( #222 ) );
#160 = EDGE_LOOP( '', ( #223 ) );
#161 = AXIS2_PLACEMENT_3D( '', #224, #225, #226 );
#162 = SURFACE_SIDE_STYLE( '', ( #227 ) );
#163 = EDGE_LOOP( '', ( #228 ) );
#164 = EDGE_LOOP( '', ( #229 ) );
#165 = AXIS2_PLACEMENT_3D( '', #230, #231, #232 );
#166 = SURFACE_SIDE_STYLE( '', ( #233 ) );
#167 = EDGE_LOOP( '', ( #234 ) );
#168 = EDGE_LOOP( '', ( #235 ) );
#169 = AXIS2_PLACEMENT_3D( '', #236, #237, #238 );
#170 = SURFACE_SIDE_STYLE( '', ( #239 ) );
#171 = EDGE_LOOP( '', ( #240 ) );
#172 = EDGE_LOOP( '', ( #241 ) );
#173 = AXIS2_PLACEMENT_3D( '', #242, #243, #244 );
#174 = SURFACE_SIDE_STYLE( '', ( #245 ) );
#175 = EDGE_LOOP( '', ( #246 ) );
#176 = EDGE_LOOP( '', ( #247 ) );
#177 = AXIS2_PLACEMENT_3D( '', #248, #249, #250 );
#178 = SURFACE_SIDE_STYLE( '', ( #251 ) );
#179 = EDGE_LOOP( '', ( #252 ) );
#180 = AXIS2_PLACEMENT_3D( '', #253, #254, #255 );
#181 = SURFACE_SIDE_STYLE( '', ( #256 ) );
#182 = EDGE_LOOP( '', ( #257 ) );
#183 = EDGE_LOOP( '', ( #258 ) );
#184 = AXIS2_PLACEMENT_3D( '', #259, #260, #261 );
#185 = SURFACE_SIDE_STYLE( '', ( #262 ) );
#186 = EDGE_LOOP( '', ( #263 ) );
#187 = EDGE_LOOP( '', ( #264 ) );
#188 = AXIS2_PLACEMENT_3D( '', #265, #266, #267 );
#189 = SURFACE_SIDE_STYLE( '', ( #268 ) );
#190 = EDGE_LOOP( '', ( #269 ) );
#191 = EDGE_LOOP( '', ( #270 ) );
#192 = AXIS2_PLACEMENT_3D( '', #271, #272, #273 );
#193 = SURFACE_SIDE_STYLE( '', ( #274 ) );
#194 = EDGE_LOOP( '', ( #275 ) );
#195 = EDGE_LOOP( '', ( #276 ) );
#196 = AXIS2_PLACEMENT_3D( '', #277, #278, #279 );
#197 = SURFACE_SIDE_STYLE( '', ( #280 ) );
#198 = EDGE_LOOP( '', ( #281 ) );
#199 = EDGE_LOOP( '', ( #282 ) );
#200 = AXIS2_PLACEMENT_3D( '', #283, #284, #285 );
#201 = SURFACE_SIDE_STYLE( '', ( #286 ) );
#202 = EDGE_LOOP( '', ( #287 ) );
#203 = EDGE_LOOP( '', ( #288 ) );
#204 = AXIS2_PLACEMENT_3D( '', #289, #290, #291 );
#205 = SURFACE_SIDE_STYLE( '', ( #292 ) );
#206 = EDGE_LOOP( '', ( #293 ) );
#207 = AXIS2_PLACEMENT_3D( '', #294, #295, #296 );
#209 = SURFACE_STYLE_FILL_AREA( #297 );
#210 = ORIENTED_EDGE( '', *, *, #298, .F. );
#211 = ORIENTED_EDGE( '', *, *, #299, .T. );
#212 = CARTESIAN_POINT( '', ( 9.80000000000000, 0.000000000000000, 5.30000000000000 ) );
#213 = DIRECTION( '', ( 0.000000000000000, 0.000000000000000, 1.00000000000000 ) );
#214 = DIRECTION( '', ( 1.00000000000000, 0.000000000000000, 0.000000000000000 ) );
#215 = SURFACE_STYLE_FILL_AREA( #300 );
#216 = ORIENTED_EDGE( '', *, *, #301, .F. );
#217 = ORIENTED_EDGE( '', *, *, #302, .T. );
#218 = CARTESIAN_POINT( '', ( 0.000000000000000, 0.000000000000000, 57.1500000000000 ) );
#219 = DIRECTION( '', ( -0.000000000000000, -0.000000000000000, -1.00000000000000 ) );
#220 = DIRECTION( '', ( 1.00000000000000, 0.000000000000000, 0.000000000000000 ) );
#221 = SURFACE_STYLE_FILL_AREA( #303 );
#222 = ORIENTED_EDGE( '', *, *, #304, .F. );
#223 = ORIENTED_EDGE( '', *, *, #305, .T. );
#224 = CARTESIAN_POINT( '', ( 0.000000000000000, 0.000000000000000, 57.1500000000000 ) );
#225 = DIRECTION( '', ( -0.000000000000000, -0.000000000000000, -1.00000000000000 ) );
#226 = DIRECTION( '', ( 1.00000000000000, 0.000000000000000, 0.000000000000000 ) );
#227 = SURFACE_STYLE_FILL_AREA( #306 );
#228 = ORIENTED_EDGE( '', *, *, #307, .F. );
#229 = ORIENTED_EDGE( '', *, *, #308, .T. );
#230 = CARTESIAN_POINT( '', ( 9.87279404685324, 0.000000000000000, 5.50000000000000 ) );
#231 = DIRECTION( '', ( 0.000000000000000, 0.000000000000000, -1.00000000000000 ) );
#232 = DIRECTION( '', ( -1.00000000000000, 0.000000000000000, 0.000000000000000 ) );
#233 = SURFACE_STYLE_FILL_AREA( #309 );
#234 = ORIENTED_EDGE( '', *, *, #305, .F. );
#235 = ORIENTED_EDGE( '', *, *, #310, .T. );
#236 = CARTESIAN_POINT( '', ( 5.69902346881756, 0.000000000000000, 6.80000000000000 ) );
#237 = DIRECTION( '', ( 0.000000000000000, 0.000000000000000, -1.00000000000000 ) );
#238 = DIRECTION( '', ( -1.00000000000000, 0.000000000000000, 0.000000000000000 ) );
#239 = SURFACE_STYLE_FILL_AREA( #311 );
#240 = ORIENTED_EDGE( '', *, *, #312, .F. );
#241 = ORIENTED_EDGE( '', *, *, #313, .T. );
#242 = CARTESIAN_POINT( '', ( 4.25000000000000, 0.000000000000000, 0.000000000000000 ) );
#243 = DIRECTION( '', ( 0.000000000000000, 0.000000000000000, 1.00000000000000 ) );
#244 = DIRECTION( '', ( 1.00000000000000, 0.000000000000000, 0.000000000000000 ) );
#245 = SURFACE_STYLE_FILL_AREA( #314 );
#246 = ORIENTED_EDGE( '', *, *, #313, .F. );
#247 = ORIENTED_EDGE( '', *, *, #315, .T. );
#248 = CARTESIAN_POINT( '', ( 0.000000000000000, 0.000000000000000, 57.1500000000000 ) );
#249 = DIRECTION( '', ( -0.000000000000000, -0.000000000000000, -1.00000000000000 ) );
#250 = DIRECTION( '', ( 1.00000000000000, 0.000000000000000, 0.000000000000000 ) );
#251 = SURFACE_STYLE_FILL_AREA( #316 );
#252 = ORIENTED_EDGE( '', *, *, #301, .T. );
#253 = CARTESIAN_POINT( '', ( 4.25000000000000, 0.000000000000000, 6.50000000000000 ) );
#254 = DIRECTION( '', ( 0.000000000000000, 0.000000000000000, -1.00000000000000 ) );
#255 = DIRECTION( '', ( -1.00000000000000, 0.000000000000000, 0.000000000000000 ) );
#256 = SURFACE_STYLE_FILL_AREA( #317 );
#257 = ORIENTED_EDGE( '', *, *, #299, .F. );
#258 = ORIENTED_EDGE( '', *, *, #318, .T. );
#259 = CARTESIAN_POINT( '', ( 0.000000000000000, 0.000000000000000, 8.30000000000000 ) );
#260 = DIRECTION( '', ( -0.000000000000000, 0.000000000000000, -1.00000000000000 ) );
#261 = DIRECTION( '', ( -1.00000000000000, 0.000000000000000, 0.000000000000000 ) );
#262 = SURFACE_STYLE_FILL_AREA( #319 );
#263 = ORIENTED_EDGE( '', *, *, #310, .F. );
#264 = ORIENTED_EDGE( '', *, *, #312, .T. );
#265 = CARTESIAN_POINT( '', ( 0.000000000000000, 0.000000000000000, 0.000000000000000 ) );
#266 = DIRECTION( '', ( -0.000000000000000, -0.000000000000000, 1.00000000000000 ) );
#267 = DIRECTION( '', ( 1.00000000000000, 0.000000000000000, 0.000000000000000 ) );
#268 = SURFACE_STYLE_FILL_AREA( #320 );
#269 = ORIENTED_EDGE( '', *, *, #308, .F. );
#270 = ORIENTED_EDGE( '', *, *, #298, .T. );
#271 = CARTESIAN_POINT( '', ( 0.000000000000000, 0.000000000000000, 57.1500000000000 ) );
#272 = DIRECTION( '', ( -0.000000000000000, -0.000000000000000, -1.00000000000000 ) );
#273 = DIRECTION( '', ( 1.00000000000000, 0.000000000000000, 0.000000000000000 ) );
#274 = SURFACE_STYLE_FILL_AREA( #321 );
#275 = ORIENTED_EDGE( '', *, *, #318, .F. );
#276 = ORIENTED_EDGE( '', *, *, #304, .T. );
#277 = CARTESIAN_POINT( '', ( 4.75000000000000, 0.000000000000000, 8.30000000000000 ) );
#278 = DIRECTION( '', ( 0.000000000000000, 0.000000000000000, 1.00000000000000 ) );
#279 = DIRECTION( '', ( 1.00000000000000, 0.000000000000000, 0.000000000000000 ) );
#280 = SURFACE_STYLE_FILL_AREA( #322 );
#281 = ORIENTED_EDGE( '', *, *, #302, .F. );
#282 = ORIENTED_EDGE( '', *, *, #323, .T. );
#283 = CARTESIAN_POINT( '', ( 4.25000000000000, 0.000000000000000, 8.50000000000000 ) );
#284 = DIRECTION( '', ( 0.000000000000000, 0.000000000000000, -1.00000000000000 ) );
#285 = DIRECTION( '', ( -1.00000000000000, 0.000000000000000, 0.000000000000000 ) );
#286 = SURFACE_STYLE_FILL_AREA( #324 );
#287 = ORIENTED_EDGE( '', *, *, #323, .F. );
#288 = ORIENTED_EDGE( '', *, *, #307, .T. );
#289 = CARTESIAN_POINT( '', ( 0.000000000000000, 0.000000000000000, 5.50000000000000 ) );
#290 = DIRECTION( '', ( -0.000000000000000, 0.000000000000000, -1.00000000000000 ) );
#291 = DIRECTION( '', ( -1.00000000000000, 0.000000000000000, 0.000000000000000 ) );
#292 = SURFACE_STYLE_FILL_AREA( #325 );
#293 = ORIENTED_EDGE( '', *, *, #315, .F. );
#294 = CARTESIAN_POINT( '', ( 4.25000000000000, 0.000000000000000, 6.00000000000000 ) );
#295 = DIRECTION( '', ( 0.000000000000000, 0.000000000000000, 1.00000000000000 ) );
#296 = DIRECTION( '', ( 1.00000000000000, 0.000000000000000, 0.000000000000000 ) );
#297 = FILL_AREA_STYLE( '', ( #326 ) );
#298 = EDGE_CURVE( '', #327, #327, #328, .T. );
#299 = EDGE_CURVE( '', #329, #329, #330, .T. );
#300 = FILL_AREA_STYLE( '', ( #331 ) );
#301 = EDGE_CURVE( '', #332, #332, #333, .T. );
#302 = EDGE_CURVE( '', #334, #334, #335, .T. );
#303 = FILL_AREA_STYLE( '', ( #336 ) );
#304 = EDGE_CURVE( '', #337, #337, #338, .T. );
#305 = EDGE_CURVE( '', #339, #339, #340, .T. );
#306 = FILL_AREA_STYLE( '', ( #341 ) );
#307 = EDGE_CURVE( '', #342, #342, #343, .T. );
#308 = EDGE_CURVE( '', #344, #344, #345, .T. );
#309 = FILL_AREA_STYLE( '', ( #346 ) );
#310 = EDGE_CURVE( '', #347, #347, #348, .T. );
#311 = FILL_AREA_STYLE( '', ( #349 ) );
#312 = EDGE_CURVE( '', #350, #350, #351, .T. );
#313 = EDGE_CURVE( '', #352, #352, #353, .T. );
#314 = FILL_AREA_STYLE( '', ( #354 ) );
#315 = EDGE_CURVE( '', #355, #355, #356, .T. );
#316 = FILL_AREA_STYLE( '', ( #357 ) );
#317 = FILL_AREA_STYLE( '', ( #358 ) );
#318 = EDGE_CURVE( '', #359, #359, #360, .T. );
#319 = FILL_AREA_STYLE( '', ( #361 ) );
#320 = FILL_AREA_STYLE( '', ( #362 ) );
#321 = FILL_AREA_STYLE( '', ( #363 ) );
#322 = FILL_AREA_STYLE( '', ( #364 ) );
#323 = EDGE_CURVE( '', #365, #365, #366, .T. );
#324 = FILL_AREA_STYLE( '', ( #367 ) );
#325 = FILL_AREA_STYLE( '', ( #368 ) );
#326 = FILL_AREA_STYLE_COLOUR( '', #369 );
#327 = VERTEX_POINT( '', #370 );
#328 = CIRCLE( '', #371, 10.0000000000000 );
#329 = VERTEX_POINT( '', #372 );
#330 = CIRCLE( '', #373, 9.80000000000000 );
#331 = FILL_AREA_STYLE_COLOUR( '', #374 );
#332 = VERTEX_POINT( '', #375 );
#333 = CIRCLE( '', #376, 4.25000000000000 );
#334 = VERTEX_POINT( '', #377 );
#335 = CIRCLE( '', #378, 4.25000000000000 );
#336 = FILL_AREA_STYLE_COLOUR( '', #379 );
#337 = VERTEX_POINT( '', #380 );
#338 = CIRCLE( '', #381, 4.75000000000000 );
#339 = VERTEX_POINT( '', #382 );
#340 = CIRCLE( '', #383, 4.75000000000000 );
#341 = FILL_AREA_STYLE_COLOUR( '', #384 );
#342 = VERTEX_POINT( '', #385 );
#343 = CIRCLE( '', #386, 9.87279404685324 );
#344 = VERTEX_POINT( '', #387 );
#345 = CIRCLE( '', #388, 10.0000000000000 );
#346 = FILL_AREA_STYLE_COLOUR( '', #389 );
#347 = VERTEX_POINT( '', #390 );
#348 = CIRCLE( '', #391, 5.69902346881756 );
#349 = FILL_AREA_STYLE_COLOUR( '', #392 );
#350 = VERTEX_POINT( '', #393 );
#351 = CIRCLE( '', #394, 4.50000000000000 );
#352 = VERTEX_POINT( '', #395 );
#353 = CIRCLE( '', #396, 4.25000000000000 );
#354 = FILL_AREA_STYLE_COLOUR( '', #397 );
#355 = VERTEX_POINT( '', #398 );
#356 = CIRCLE( '', #399, 4.25000000000000 );
#357 = FILL_AREA_STYLE_COLOUR( '', #400 );
#358 = FILL_AREA_STYLE_COLOUR( '', #401 );
#359 = VERTEX_POINT( '', #402 );
#360 = CIRCLE( '', #403, 6.22473922221737 );
#361 = FILL_AREA_STYLE_COLOUR( '', #404 );
#362 = FILL_AREA_STYLE_COLOUR( '', #405 );
#363 = FILL_AREA_STYLE_COLOUR( '', #406 );
#364 = FILL_AREA_STYLE_COLOUR( '', #407 );
#365 = VERTEX_POINT( '', #408 );
#366 = CIRCLE( '', #409, 6.29753326907061 );
#367 = FILL_AREA_STYLE_COLOUR( '', #410 );
#368 = FILL_AREA_STYLE_COLOUR( '', #411 );
#369 = COLOUR_RGB( '', 1.00000000000000, 1.00000000000000, 1.00000000000000 );
#370 = CARTESIAN_POINT( '', ( 10.0000000000000, 0.000000000000000, 5.30000000000000 ) );
#371 = AXIS2_PLACEMENT_3D( '', #412, #413, #414 );
#372 = CARTESIAN_POINT( '', ( 9.80000000000000, 0.000000000000000, 5.30000000000000 ) );
#373 = AXIS2_PLACEMENT_3D( '', #415, #416, #417 );
#374 = COLOUR_RGB( '', 1.00000000000000, 1.00000000000000, 1.00000000000000 );
#375 = CARTESIAN_POINT( '', ( 4.25000000000000, 0.000000000000000, 6.50000000000000 ) );
#376 = AXIS2_PLACEMENT_3D( '', #418, #419, #420 );
#377 = CARTESIAN_POINT( '', ( 4.25000000000000, 0.000000000000000, 8.50000000000000 ) );
#378 = AXIS2_PLACEMENT_3D( '', #421, #422, #423 );
#379 = COLOUR_RGB( '', 1.00000000000000, 1.00000000000000, 1.00000000000000 );
#380 = CARTESIAN_POINT( '', ( 4.75000000000000, 0.000000000000000, 8.30000000000000 ) );
#381 = AXIS2_PLACEMENT_3D( '', #424, #425, #426 );
#382 = CARTESIAN_POINT( '', ( 4.75000000000000, 0.000000000000000, 6.80000000000000 ) );
#383 = AXIS2_PLACEMENT_3D( '', #427, #428, #429 );
#384 = COLOUR_RGB( '', 1.00000000000000, 1.00000000000000, 1.00000000000000 );
#385 = CARTESIAN_POINT( '', ( 9.87279404685324, 0.000000000000000, 5.50000000000000 ) );
#386 = AXIS2_PLACEMENT_3D( '', #430, #431, #432 );
#387 = CARTESIAN_POINT( '', ( 10.0000000000000, 0.000000000000000, 5.50000000000000 ) );
#388 = AXIS2_PLACEMENT_3D( '', #433, #434, #435 );
#389 = COLOUR_RGB( '', 1.00000000000000, 1.00000000000000, 1.00000000000000 );
#390 = CARTESIAN_POINT( '', ( 5.69902346881756, 0.000000000000000, 6.80000000000000 ) );
#391 = AXIS2_PLACEMENT_3D( '', #436, #437, #438 );
#392 = COLOUR_RGB( '', 1.00000000000000, 1.00000000000000, 1.00000000000000 );
#393 = CARTESIAN_POINT( '', ( 4.50000000000000, 0.000000000000000, 0.000000000000000 ) );
#394 = AXIS2_PLACEMENT_3D( '', #439, #440, #441 );
#395 = CARTESIAN_POINT( '', ( 4.25000000000000, 0.000000000000000, 0.000000000000000 ) );
#396 = AXIS2_PLACEMENT_3D( '', #442, #443, #444 );
#397 = COLOUR_RGB( '', 1.00000000000000, 1.00000000000000, 1.00000000000000 );
#398 = CARTESIAN_POINT( '', ( 4.25000000000000, 0.000000000000000, 6.00000000000000 ) );
#399 = AXIS2_PLACEMENT_3D( '', #445, #446, #447 );
#400 = COLOUR_RGB( '', 1.00000000000000, 1.00000000000000, 1.00000000000000 );
#401 = COLOUR_RGB( '', 1.00000000000000, 1.00000000000000, 1.00000000000000 );
#402 = CARTESIAN_POINT( '', ( 6.22473922221737, 0.000000000000000, 8.30000000000000 ) );
#403 = AXIS2_PLACEMENT_3D( '', #448, #449, #450 );
#404 = COLOUR_RGB( '', 1.00000000000000, 1.00000000000000, 1.00000000000000 );
#405 = COLOUR_RGB( '', 1.00000000000000, 1.00000000000000, 1.00000000000000 );
#406 = COLOUR_RGB( '', 1.00000000000000, 1.00000000000000, 1.00000000000000 );
#407 = COLOUR_RGB( '', 1.00000000000000, 1.00000000000000, 1.00000000000000 );
#408 = CARTESIAN_POINT( '', ( 6.29753326907061, 0.000000000000000, 8.50000000000000 ) );
#409 = AXIS2_PLACEMENT_3D( '', #451, #452, #453 );
#410 = COLOUR_RGB( '', 1.00000000000000, 1.00000000000000, 1.00000000000000 );
#411 = COLOUR_RGB( '', 1.00000000000000, 1.00000000000000, 1.00000000000000 );
#412 = CARTESIAN_POINT( '', ( 0.000000000000000, 0.000000000000000, 5.30000000000000 ) );
#413 = DIRECTION( '', ( 0.000000000000000, 0.000000000000000, 1.00000000000000 ) );
#414 = DIRECTION( '', ( 1.00000000000000, 0.000000000000000, 0.000000000000000 ) );
#415 = CARTESIAN_POINT( '', ( 0.000000000000000, 0.000000000000000, 5.30000000000000 ) );
#416 = DIRECTION( '', ( 0.000000000000000, 0.000000000000000, 1.00000000000000 ) );
#417 = DIRECTION( '', ( 1.00000000000000, 0.000000000000000, 0.000000000000000 ) );
#418 = CARTESIAN_POINT( '', ( 0.000000000000000, 0.000000000000000, 6.50000000000000 ) );
#419 = DIRECTION( '', ( 0.000000000000000, 0.000000000000000, 1.00000000000000 ) );
#420 = DIRECTION( '', ( 1.00000000000000, 0.000000000000000, 0.000000000000000 ) );
#421 = CARTESIAN_POINT( '', ( 0.000000000000000, 0.000000000000000, 8.50000000000000 ) );
#422 = DIRECTION( '', ( 0.000000000000000, 0.000000000000000, 1.00000000000000 ) );
#423 = DIRECTION( '', ( 1.00000000000000, 0.000000000000000, 0.000000000000000 ) );
#424 = CARTESIAN_POINT( '', ( 0.000000000000000, 0.000000000000000, 8.30000000000000 ) );
#425 = DIRECTION( '', ( 0.000000000000000, 0.000000000000000, 1.00000000000000 ) );
#426 = DIRECTION( '', ( 1.00000000000000, 0.000000000000000, 0.000000000000000 ) );
#427 = CARTESIAN_POINT( '', ( 0.000000000000000, 0.000000000000000, 6.80000000000000 ) );
#428 = DIRECTION( '', ( 0.000000000000000, 0.000000000000000, 1.00000000000000 ) );
#429 = DIRECTION( '', ( 1.00000000000000, 0.000000000000000, 0.000000000000000 ) );
#430 = CARTESIAN_POINT( '', ( 0.000000000000000, 0.000000000000000, 5.50000000000000 ) );
#431 = DIRECTION( '', ( 0.000000000000000, 0.000000000000000, 1.00000000000000 ) );
#432 = DIRECTION( '', ( 1.00000000000000, 0.000000000000000, 0.000000000000000 ) );
#433 = CARTESIAN_POINT( '', ( 0.000000000000000, 0.000000000000000, 5.50000000000000 ) );
#434 = DIRECTION( '', ( 0.000000000000000, 0.000000000000000, 1.00000000000000 ) );
#435 = DIRECTION( '', ( 1.00000000000000, 0.000000000000000, 0.000000000000000 ) );
#436 = CARTESIAN_POINT( '', ( 0.000000000000000, 0.000000000000000, 6.80000000000000 ) );
#437 = DIRECTION( '', ( 0.000000000000000, 0.000000000000000, 1.00000000000000 ) );
#438 = DIRECTION( '', ( 1.00000000000000, 0.000000000000000, 0.000000000000000 ) );
#439 = CARTESIAN_POINT( '', ( 0.000000000000000, 0.000000000000000, 0.000000000000000 ) );
#440 = DIRECTION( '', ( 0.000000000000000, 0.000000000000000, 1.00000000000000 ) );
#441 = DIRECTION( '', ( 1.00000000000000, 0.000000000000000, 0.000000000000000 ) );
#442 = CARTESIAN_POINT( '', ( 0.000000000000000, 0.000000000000000, 0.000000000000000 ) );
#443 = DIRECTION( '', ( 0.000000000000000, 0.000000000000000, 1.00000000000000 ) );
#444 = DIRECTION( '', ( 1.00000000000000, 0.000000000000000, 0.000000000000000 ) );
#445 = CARTESIAN_POINT( '', ( 0.000000000000000, 0.000000000000000, 6.00000000000000 ) );
#446 = DIRECTION( '', ( 0.000000000000000, 0.000000000000000, 1.00000000000000 ) );
#447 = DIRECTION( '', ( 1.00000000000000, 0.000000000000000, 0.000000000000000 ) );
#448 = CARTESIAN_POINT( '', ( 0.000000000000000, 0.000000000000000, 8.30000000000000 ) );
#449 = DIRECTION( '', ( 0.000000000000000, 0.000000000000000, 1.00000000000000 ) );
#450 = DIRECTION( '', ( 1.00000000000000, 0.000000000000000, 0.000000000000000 ) );
#451 = CARTESIAN_POINT( '', ( 0.000000000000000, 0.000000000000000, 8.50000000000000 ) );
#452 = DIRECTION( '', ( 0.000000000000000, 0.000000000000000, 1.00000000000000 ) );
#453 = DIRECTION( '', ( 1.00000000000000, 0.000000000000000, 0.000000000000000 ) );
ENDSEC;
END-ISO-10303-21;
