ISO-10303-21;
HEADER;
FILE_DESCRIPTION( ( 'Unknown' ), '1' );
FILE_NAME( '//SBS2003/HD_Usb/Disegni/08_LIB/Users_3D/PROD_GAMM_3D/TPL/7372602.stp', 'Unknown', ( 'Unknown' ), ( 'Unknown' ), 'PSStep 14.0', 'Unknown', '  ' );
FILE_SCHEMA( ( 'AUTOMOTIVE_DESIGN { 1 0 10303 214 1 1 1 1 }' ) );
ENDSEC;
DATA;
#1 = MECHANICAL_DESIGN_GEOMETRIC_PRESENTATION_REPRESENTATION( ' ', ( #10, #11, #12, #13, #14, #15, #16, #17, #18, #19, #20, #21, #22, #23, #24 ), #6 );
#2 = PRODUCT_DEFINITION_CONTEXT( '', #25, 'design' );
#3 = APPLICATION_PROTOCOL_DEFINITION( 'international standard', 'automotive_design', 2001, #25 );
#4 = PRODUCT_CATEGORY_RELATIONSHIP( 'NONE', 'NONE', #26, #27 );
#5 = SHAPE_DEFINITION_REPRESENTATION( #28, #29 );
#6 =  ( GEOMETRIC_REPRESENTATION_CONTEXT( 3 )GLOBAL_UNCERTAINTY_ASSIGNED_CONTEXT( ( #32 ) )GLOBAL_UNIT_ASSIGNED_CONTEXT( ( #34, #35, #36 ) )REPRESENTATION_CONTEXT( 'NONE', 'WORKSPACE' ) );
#10 = STYLED_ITEM( '', ( #38 ), #39 );
#11 = STYLED_ITEM( '', ( #40 ), #41 );
#12 = STYLED_ITEM( '', ( #42 ), #43 );
#13 = STYLED_ITEM( '', ( #44 ), #45 );
#14 = STYLED_ITEM( '', ( #46 ), #47 );
#15 = STYLED_ITEM( '', ( #48 ), #49 );
#16 = STYLED_ITEM( '', ( #50 ), #51 );
#17 = STYLED_ITEM( '', ( #52 ), #53 );
#18 = STYLED_ITEM( '', ( #54 ), #55 );
#19 = STYLED_ITEM( '', ( #56 ), #57 );
#20 = STYLED_ITEM( '', ( #58 ), #59 );
#21 = STYLED_ITEM( '', ( #60 ), #61 );
#22 = STYLED_ITEM( '', ( #62 ), #63 );
#23 = STYLED_ITEM( '', ( #64 ), #65 );
#24 = STYLED_ITEM( '', ( #66 ), #67 );
#25 = APPLICATION_CONTEXT( 'core data for automotive mechanical design processes' );
#26 = PRODUCT_CATEGORY( 'part', 'NONE' );
#27 = PRODUCT_RELATED_PRODUCT_CATEGORY( 'detail', ' ', ( #68 ) );
#28 = PRODUCT_DEFINITION_SHAPE( 'NONE', 'NONE', #69 );
#29 = ADVANCED_BREP_SHAPE_REPRESENTATION( '1', ( #70, #71 ), #6 );
#32 = UNCERTAINTY_MEASURE_WITH_UNIT( LENGTH_MEASURE( 0.00100000000000000 ), #34, '', '' );
#34 =  ( CONVERSION_BASED_UNIT( 'MILLIMETRE', #74 )LENGTH_UNIT(  )NAMED_UNIT( #77 ) );
#35 =  ( NAMED_UNIT( #79 )PLANE_ANGLE_UNIT(  )SI_UNIT( $, .RADIAN. ) );
#36 =  ( NAMED_UNIT( #79 )SI_UNIT( $, .STERADIAN. )SOLID_ANGLE_UNIT(  ) );
#38 = PRESENTATION_STYLE_ASSIGNMENT( ( #85 ) );
#39 = ADVANCED_FACE( '', ( #86 ), #87, .F. );
#40 = PRESENTATION_STYLE_ASSIGNMENT( ( #88 ) );
#41 = ADVANCED_FACE( '', ( #89 ), #90, .F. );
#42 = PRESENTATION_STYLE_ASSIGNMENT( ( #91 ) );
#43 = ADVANCED_FACE( '', ( #92, #93 ), #94, .T. );
#44 = PRESENTATION_STYLE_ASSIGNMENT( ( #95 ) );
#45 = ADVANCED_FACE( '', ( #96, #97 ), #98, .T. );
#46 = PRESENTATION_STYLE_ASSIGNMENT( ( #99 ) );
#47 = ADVANCED_FACE( '', ( #100, #101 ), #102, .F. );
#48 = PRESENTATION_STYLE_ASSIGNMENT( ( #103 ) );
#49 = ADVANCED_FACE( '', ( #104, #105 ), #106, .F. );
#50 = PRESENTATION_STYLE_ASSIGNMENT( ( #107 ) );
#51 = ADVANCED_FACE( '', ( #108, #109 ), #110, .F. );
#52 = PRESENTATION_STYLE_ASSIGNMENT( ( #111 ) );
#53 = ADVANCED_FACE( '', ( #112, #113 ), #114, .F. );
#54 = PRESENTATION_STYLE_ASSIGNMENT( ( #115 ) );
#55 = ADVANCED_FACE( '', ( #116, #117 ), #118, .T. );
#56 = PRESENTATION_STYLE_ASSIGNMENT( ( #119 ) );
#57 = ADVANCED_FACE( '', ( #120, #121 ), #122, .T. );
#58 = PRESENTATION_STYLE_ASSIGNMENT( ( #123 ) );
#59 = ADVANCED_FACE( '', ( #124, #125 ), #126, .F. );
#60 = PRESENTATION_STYLE_ASSIGNMENT( ( #127 ) );
#61 = ADVANCED_FACE( '', ( #128, #129 ), #130, .F. );
#62 = PRESENTATION_STYLE_ASSIGNMENT( ( #131 ) );
#63 = ADVANCED_FACE( '', ( #132, #133 ), #134, .F. );
#64 = PRESENTATION_STYLE_ASSIGNMENT( ( #135 ) );
#65 = ADVANCED_FACE( '', ( #136, #137 ), #138, .F. );
#66 = PRESENTATION_STYLE_ASSIGNMENT( ( #139 ) );
#67 = ADVANCED_FACE( '', ( #140, #141 ), #142, .F. );
#68 = PRODUCT( '1', '1', 'PART-1-DESC', ( #143 ) );
#69 = PRODUCT_DEFINITION( 'NONE', 'NONE', #144, #2 );
#70 = MANIFOLD_SOLID_BREP( '1', #145 );
#71 = AXIS2_PLACEMENT_3D( '', #146, #147, #148 );
#74 = LENGTH_MEASURE_WITH_UNIT( LENGTH_MEASURE( 1.00000000000000 ), #149 );
#77 = DIMENSIONAL_EXPONENTS( 1.00000000000000, 0.000000000000000, 0.000000000000000, 0.000000000000000, 0.000000000000000, 0.000000000000000, 0.000000000000000 );
#79 = DIMENSIONAL_EXPONENTS( 0.000000000000000, 0.000000000000000, 0.000000000000000, 0.000000000000000, 0.000000000000000, 0.000000000000000, 0.000000000000000 );
#85 = SURFACE_STYLE_USAGE( .BOTH., #150 );
#86 = FACE_OUTER_BOUND( '', #151, .T. );
#87 = PLANE( '', #152 );
#88 = SURFACE_STYLE_USAGE( .BOTH., #153 );
#89 = FACE_OUTER_BOUND( '', #154, .T. );
#90 = PLANE( '', #155 );
#91 = SURFACE_STYLE_USAGE( .BOTH., #156 );
#92 = FACE_OUTER_BOUND( '', #157, .T. );
#93 = FACE_OUTER_BOUND( '', #158, .T. );
#94 = CYLINDRICAL_SURFACE( '', #159, 12.0000000000000 );
#95 = SURFACE_STYLE_USAGE( .BOTH., #160 );
#96 = FACE_BOUND( '', #161, .T. );
#97 = FACE_OUTER_BOUND( '', #162, .T. );
#98 = CONICAL_SURFACE( '', #163, 11.8727940468532, 0.872664625997164 );
#99 = SURFACE_STYLE_USAGE( .BOTH., #164 );
#100 = FACE_OUTER_BOUND( '', #165, .T. );
#101 = FACE_BOUND( '', #166, .T. );
#102 = PLANE( '', #167 );
#103 = SURFACE_STYLE_USAGE( .BOTH., #168 );
#104 = FACE_OUTER_BOUND( '', #169, .T. );
#105 = FACE_OUTER_BOUND( '', #170, .T. );
#106 = CYLINDRICAL_SURFACE( '', #171, 5.50000000000000 );
#107 = SURFACE_STYLE_USAGE( .BOTH., #172 );
#108 = FACE_BOUND( '', #173, .T. );
#109 = FACE_OUTER_BOUND( '', #174, .T. );
#110 = PLANE( '', #175 );
#111 = SURFACE_STYLE_USAGE( .BOTH., #176 );
#112 = FACE_BOUND( '', #177, .T. );
#113 = FACE_OUTER_BOUND( '', #178, .T. );
#114 = PLANE( '', #179 );
#115 = SURFACE_STYLE_USAGE( .BOTH., #180 );
#116 = FACE_OUTER_BOUND( '', #181, .T. );
#117 = FACE_OUTER_BOUND( '', #182, .T. );
#118 = CYLINDRICAL_SURFACE( '', #183, 6.25000000000000 );
#119 = SURFACE_STYLE_USAGE( .BOTH., #184 );
#120 = FACE_OUTER_BOUND( '', #185, .T. );
#121 = FACE_BOUND( '', #186, .T. );
#122 = CONICAL_SURFACE( '', #187, 6.00000000000000, 0.174532925199433 );
#123 = SURFACE_STYLE_USAGE( .BOTH., #188 );
#124 = FACE_OUTER_BOUND( '', #189, .T. );
#125 = FACE_BOUND( '', #190, .T. );
#126 = CONICAL_SURFACE( '', #191, 8.22473922221737, 0.872664625997164 );
#127 = SURFACE_STYLE_USAGE( .BOTH., #192 );
#128 = FACE_BOUND( '', #193, .T. );
#129 = FACE_OUTER_BOUND( '', #194, .T. );
#130 = PLANE( '', #195 );
#131 = SURFACE_STYLE_USAGE( .BOTH., #196 );
#132 = FACE_OUTER_BOUND( '', #197, .T. );
#133 = FACE_OUTER_BOUND( '', #198, .T. );
#134 = CYLINDRICAL_SURFACE( '', #199, 5.75000000000000 );
#135 = SURFACE_STYLE_USAGE( .BOTH., #200 );
#136 = FACE_OUTER_BOUND( '', #201, .T. );
#137 = FACE_BOUND( '', #202, .T. );
#138 = PLANE( '', #203 );
#139 = SURFACE_STYLE_USAGE( .BOTH., #204 );
#140 = FACE_OUTER_BOUND( '', #205, .T. );
#141 = FACE_BOUND( '', #206, .T. );
#142 = PLANE( '', #207 );
#143 = PRODUCT_CONTEXT( '', #25, 'mechanical' );
#144 = PRODUCT_DEFINITION_FORMATION_WITH_SPECIFIED_SOURCE( ' ', 'NONE', #68, .NOT_KNOWN. );
#145 = CLOSED_SHELL( '', ( #67, #49, #41, #39, #63, #57, #51, #55, #65, #59, #47, #43, #53, #45, #61 ) );
#146 = CARTESIAN_POINT( '', ( 0.000000000000000, 0.000000000000000, 0.000000000000000 ) );
#147 = DIRECTION( '', ( 0.000000000000000, 0.000000000000000, 1.00000000000000 ) );
#148 = DIRECTION( '', ( 1.00000000000000, 0.000000000000000, 0.000000000000000 ) );
#149 =  ( LENGTH_UNIT(  )NAMED_UNIT( #77 )SI_UNIT( .MILLI., .METRE. ) );
#150 = SURFACE_SIDE_STYLE( '', ( #209 ) );
#151 = EDGE_LOOP( '', ( #210 ) );
#152 = AXIS2_PLACEMENT_3D( '', #211, #212, #213 );
#153 = SURFACE_SIDE_STYLE( '', ( #214 ) );
#154 = EDGE_LOOP( '', ( #215 ) );
#155 = AXIS2_PLACEMENT_3D( '', #216, #217, #218 );
#156 = SURFACE_SIDE_STYLE( '', ( #219 ) );
#157 = EDGE_LOOP( '', ( #220 ) );
#158 = EDGE_LOOP( '', ( #221 ) );
#159 = AXIS2_PLACEMENT_3D( '', #222, #223, #224 );
#160 = SURFACE_SIDE_STYLE( '', ( #225 ) );
#161 = EDGE_LOOP( '', ( #226 ) );
#162 = EDGE_LOOP( '', ( #227 ) );
#163 = AXIS2_PLACEMENT_3D( '', #228, #229, #230 );
#164 = SURFACE_SIDE_STYLE( '', ( #231 ) );
#165 = EDGE_LOOP( '', ( #232 ) );
#166 = EDGE_LOOP( '', ( #233 ) );
#167 = AXIS2_PLACEMENT_3D( '', #234, #235, #236 );
#168 = SURFACE_SIDE_STYLE( '', ( #237 ) );
#169 = EDGE_LOOP( '', ( #238 ) );
#170 = EDGE_LOOP( '', ( #239 ) );
#171 = AXIS2_PLACEMENT_3D( '', #240, #241, #242 );
#172 = SURFACE_SIDE_STYLE( '', ( #243 ) );
#173 = EDGE_LOOP( '', ( #244 ) );
#174 = EDGE_LOOP( '', ( #245 ) );
#175 = AXIS2_PLACEMENT_3D( '', #246, #247, #248 );
#176 = SURFACE_SIDE_STYLE( '', ( #249 ) );
#177 = EDGE_LOOP( '', ( #250 ) );
#178 = EDGE_LOOP( '', ( #251 ) );
#179 = AXIS2_PLACEMENT_3D( '', #252, #253, #254 );
#180 = SURFACE_SIDE_STYLE( '', ( #255 ) );
#181 = EDGE_LOOP( '', ( #256 ) );
#182 = EDGE_LOOP( '', ( #257 ) );
#183 = AXIS2_PLACEMENT_3D( '', #258, #259, #260 );
#184 = SURFACE_SIDE_STYLE( '', ( #261 ) );
#185 = EDGE_LOOP( '', ( #262 ) );
#186 = EDGE_LOOP( '', ( #263 ) );
#187 = AXIS2_PLACEMENT_3D( '', #264, #265, #266 );
#188 = SURFACE_SIDE_STYLE( '', ( #267 ) );
#189 = EDGE_LOOP( '', ( #268 ) );
#190 = EDGE_LOOP( '', ( #269 ) );
#191 = AXIS2_PLACEMENT_3D( '', #270, #271, #272 );
#192 = SURFACE_SIDE_STYLE( '', ( #273 ) );
#193 = EDGE_LOOP( '', ( #274 ) );
#194 = EDGE_LOOP( '', ( #275 ) );
#195 = AXIS2_PLACEMENT_3D( '', #276, #277, #278 );
#196 = SURFACE_SIDE_STYLE( '', ( #279 ) );
#197 = EDGE_LOOP( '', ( #280 ) );
#198 = EDGE_LOOP( '', ( #281 ) );
#199 = AXIS2_PLACEMENT_3D( '', #282, #283, #284 );
#200 = SURFACE_SIDE_STYLE( '', ( #285 ) );
#201 = EDGE_LOOP( '', ( #286 ) );
#202 = EDGE_LOOP( '', ( #287 ) );
#203 = AXIS2_PLACEMENT_3D( '', #288, #289, #290 );
#204 = SURFACE_SIDE_STYLE( '', ( #291 ) );
#205 = EDGE_LOOP( '', ( #292 ) );
#206 = EDGE_LOOP( '', ( #293 ) );
#207 = AXIS2_PLACEMENT_3D( '', #294, #295, #296 );
#209 = SURFACE_STYLE_FILL_AREA( #297 );
#210 = ORIENTED_EDGE( '', *, *, #298, .T. );
#211 = CARTESIAN_POINT( '', ( 5.75000000000000, 0.000000000000000, 7.80000000000000 ) );
#212 = DIRECTION( '', ( 0.000000000000000, 0.000000000000000, -1.00000000000000 ) );
#213 = DIRECTION( '', ( -1.00000000000000, 0.000000000000000, 0.000000000000000 ) );
#214 = SURFACE_STYLE_FILL_AREA( #299 );
#215 = ORIENTED_EDGE( '', *, *, #300, .F. );
#216 = CARTESIAN_POINT( '', ( 5.50000000000000, 0.000000000000000, 7.30000000000000 ) );
#217 = DIRECTION( '', ( 0.000000000000000, 0.000000000000000, 1.00000000000000 ) );
#218 = DIRECTION( '', ( 1.00000000000000, 0.000000000000000, 0.000000000000000 ) );
#219 = SURFACE_STYLE_FILL_AREA( #301 );
#220 = ORIENTED_EDGE( '', *, *, #302, .F. );
#221 = ORIENTED_EDGE( '', *, *, #303, .T. );
#222 = CARTESIAN_POINT( '', ( 0.000000000000000, 0.000000000000000, 57.1500000000000 ) );
#223 = DIRECTION( '', ( -0.000000000000000, -0.000000000000000, -1.00000000000000 ) );
#224 = DIRECTION( '', ( 1.00000000000000, 0.000000000000000, 0.000000000000000 ) );
#225 = SURFACE_STYLE_FILL_AREA( #304 );
#226 = ORIENTED_EDGE( '', *, *, #305, .F. );
#227 = ORIENTED_EDGE( '', *, *, #306, .T. );
#228 = CARTESIAN_POINT( '', ( 0.000000000000000, 0.000000000000000, 6.80000000000000 ) );
#229 = DIRECTION( '', ( -0.000000000000000, 0.000000000000000, -1.00000000000000 ) );
#230 = DIRECTION( '', ( -1.00000000000000, 0.000000000000000, 0.000000000000000 ) );
#231 = SURFACE_STYLE_FILL_AREA( #307 );
#232 = ORIENTED_EDGE( '', *, *, #303, .F. );
#233 = ORIENTED_EDGE( '', *, *, #308, .T. );
#234 = CARTESIAN_POINT( '', ( 11.8000000000000, 0.000000000000000, 6.60000000000000 ) );
#235 = DIRECTION( '', ( 0.000000000000000, 0.000000000000000, 1.00000000000000 ) );
#236 = DIRECTION( '', ( 1.00000000000000, 0.000000000000000, 0.000000000000000 ) );
#237 = SURFACE_STYLE_FILL_AREA( #309 );
#238 = ORIENTED_EDGE( '', *, *, #310, .F. );
#239 = ORIENTED_EDGE( '', *, *, #300, .T. );
#240 = CARTESIAN_POINT( '', ( 0.000000000000000, 0.000000000000000, 57.1500000000000 ) );
#241 = DIRECTION( '', ( -0.000000000000000, -0.000000000000000, -1.00000000000000 ) );
#242 = DIRECTION( '', ( 1.00000000000000, 0.000000000000000, 0.000000000000000 ) );
#243 = SURFACE_STYLE_FILL_AREA( #311 );
#244 = ORIENTED_EDGE( '', *, *, #312, .F. );
#245 = ORIENTED_EDGE( '', *, *, #313, .T. );
#246 = CARTESIAN_POINT( '', ( 7.42824854373856, 0.000000000000000, 8.10000000000000 ) );
#247 = DIRECTION( '', ( 0.000000000000000, 0.000000000000000, -1.00000000000000 ) );
#248 = DIRECTION( '', ( -1.00000000000000, 0.000000000000000, 0.000000000000000 ) );
#249 = SURFACE_STYLE_FILL_AREA( #314 );
#250 = ORIENTED_EDGE( '', *, *, #306, .F. );
#251 = ORIENTED_EDGE( '', *, *, #302, .T. );
#252 = CARTESIAN_POINT( '', ( 11.8727940468532, 0.000000000000000, 6.80000000000000 ) );
#253 = DIRECTION( '', ( 0.000000000000000, 0.000000000000000, -1.00000000000000 ) );
#254 = DIRECTION( '', ( -1.00000000000000, 0.000000000000000, 0.000000000000000 ) );
#255 = SURFACE_STYLE_FILL_AREA( #315 );
#256 = ORIENTED_EDGE( '', *, *, #316, .F. );
#257 = ORIENTED_EDGE( '', *, *, #312, .T. );
#258 = CARTESIAN_POINT( '', ( 0.000000000000000, 0.000000000000000, 57.1500000000000 ) );
#259 = DIRECTION( '', ( -0.000000000000000, -0.000000000000000, -1.00000000000000 ) );
#260 = DIRECTION( '', ( 1.00000000000000, 0.000000000000000, 0.000000000000000 ) );
#261 = SURFACE_STYLE_FILL_AREA( #317 );
#262 = ORIENTED_EDGE( '', *, *, #313, .F. );
#263 = ORIENTED_EDGE( '', *, *, #318, .T. );
#264 = CARTESIAN_POINT( '', ( 0.000000000000000, 0.000000000000000, 0.000000000000000 ) );
#265 = DIRECTION( '', ( -0.000000000000000, -0.000000000000000, 1.00000000000000 ) );
#266 = DIRECTION( '', ( 1.00000000000000, 0.000000000000000, 0.000000000000000 ) );
#267 = SURFACE_STYLE_FILL_AREA( #319 );
#268 = ORIENTED_EDGE( '', *, *, #308, .F. );
#269 = ORIENTED_EDGE( '', *, *, #320, .T. );
#270 = CARTESIAN_POINT( '', ( 0.000000000000000, 0.000000000000000, 9.60000000000000 ) );
#271 = DIRECTION( '', ( -0.000000000000000, 0.000000000000000, -1.00000000000000 ) );
#272 = DIRECTION( '', ( -1.00000000000000, 0.000000000000000, 0.000000000000000 ) );
#273 = SURFACE_STYLE_FILL_AREA( #321 );
#274 = ORIENTED_EDGE( '', *, *, #322, .F. );
#275 = ORIENTED_EDGE( '', *, *, #305, .T. );
#276 = CARTESIAN_POINT( '', ( 5.75000000000000, 0.000000000000000, 9.80000000000000 ) );
#277 = DIRECTION( '', ( 0.000000000000000, 0.000000000000000, -1.00000000000000 ) );
#278 = DIRECTION( '', ( -1.00000000000000, 0.000000000000000, 0.000000000000000 ) );
#279 = SURFACE_STYLE_FILL_AREA( #323 );
#280 = ORIENTED_EDGE( '', *, *, #298, .F. );
#281 = ORIENTED_EDGE( '', *, *, #322, .T. );
#282 = CARTESIAN_POINT( '', ( 0.000000000000000, 0.000000000000000, 57.1500000000000 ) );
#283 = DIRECTION( '', ( -0.000000000000000, -0.000000000000000, -1.00000000000000 ) );
#284 = DIRECTION( '', ( 1.00000000000000, 0.000000000000000, 0.000000000000000 ) );
#285 = SURFACE_STYLE_FILL_AREA( #324 );
#286 = ORIENTED_EDGE( '', *, *, #320, .F. );
#287 = ORIENTED_EDGE( '', *, *, #316, .T. );
#288 = CARTESIAN_POINT( '', ( 6.25000000000000, 0.000000000000000, 9.60000000000000 ) );
#289 = DIRECTION( '', ( 0.000000000000000, 0.000000000000000, 1.00000000000000 ) );
#290 = DIRECTION( '', ( 1.00000000000000, 0.000000000000000, 0.000000000000000 ) );
#291 = SURFACE_STYLE_FILL_AREA( #325 );
#292 = ORIENTED_EDGE( '', *, *, #318, .F. );
#293 = ORIENTED_EDGE( '', *, *, #310, .T. );
#294 = CARTESIAN_POINT( '', ( 5.50000000000000, 0.000000000000000, 0.000000000000000 ) );
#295 = DIRECTION( '', ( 0.000000000000000, 0.000000000000000, 1.00000000000000 ) );
#296 = DIRECTION( '', ( 1.00000000000000, 0.000000000000000, 0.000000000000000 ) );
#297 = FILL_AREA_STYLE( '', ( #326 ) );
#298 = EDGE_CURVE( '', #327, #327, #328, .T. );
#299 = FILL_AREA_STYLE( '', ( #329 ) );
#300 = EDGE_CURVE( '', #330, #330, #331, .T. );
#301 = FILL_AREA_STYLE( '', ( #332 ) );
#302 = EDGE_CURVE( '', #333, #333, #334, .T. );
#303 = EDGE_CURVE( '', #335, #335, #336, .T. );
#304 = FILL_AREA_STYLE( '', ( #337 ) );
#305 = EDGE_CURVE( '', #338, #338, #339, .T. );
#306 = EDGE_CURVE( '', #340, #340, #341, .T. );
#307 = FILL_AREA_STYLE( '', ( #342 ) );
#308 = EDGE_CURVE( '', #343, #343, #344, .T. );
#309 = FILL_AREA_STYLE( '', ( #345 ) );
#310 = EDGE_CURVE( '', #346, #346, #347, .T. );
#311 = FILL_AREA_STYLE( '', ( #348 ) );
#312 = EDGE_CURVE( '', #349, #349, #350, .T. );
#313 = EDGE_CURVE( '', #351, #351, #352, .T. );
#314 = FILL_AREA_STYLE( '', ( #353 ) );
#315 = FILL_AREA_STYLE( '', ( #354 ) );
#316 = EDGE_CURVE( '', #355, #355, #356, .T. );
#317 = FILL_AREA_STYLE( '', ( #357 ) );
#318 = EDGE_CURVE( '', #358, #358, #359, .T. );
#319 = FILL_AREA_STYLE( '', ( #360 ) );
#320 = EDGE_CURVE( '', #361, #361, #362, .T. );
#321 = FILL_AREA_STYLE( '', ( #363 ) );
#322 = EDGE_CURVE( '', #364, #364, #365, .T. );
#323 = FILL_AREA_STYLE( '', ( #366 ) );
#324 = FILL_AREA_STYLE( '', ( #367 ) );
#325 = FILL_AREA_STYLE( '', ( #368 ) );
#326 = FILL_AREA_STYLE_COLOUR( '', #369 );
#327 = VERTEX_POINT( '', #370 );
#328 = CIRCLE( '', #371, 5.75000000000000 );
#329 = FILL_AREA_STYLE_COLOUR( '', #372 );
#330 = VERTEX_POINT( '', #373 );
#331 = CIRCLE( '', #374, 5.50000000000000 );
#332 = FILL_AREA_STYLE_COLOUR( '', #375 );
#333 = VERTEX_POINT( '', #376 );
#334 = CIRCLE( '', #377, 12.0000000000000 );
#335 = VERTEX_POINT( '', #378 );
#336 = CIRCLE( '', #379, 12.0000000000000 );
#337 = FILL_AREA_STYLE_COLOUR( '', #380 );
#338 = VERTEX_POINT( '', #381 );
#339 = CIRCLE( '', #382, 8.29753326907061 );
#340 = VERTEX_POINT( '', #383 );
#341 = CIRCLE( '', #384, 11.8727940468532 );
#342 = FILL_AREA_STYLE_COLOUR( '', #385 );
#343 = VERTEX_POINT( '', #386 );
#344 = CIRCLE( '', #387, 11.8000000000000 );
#345 = FILL_AREA_STYLE_COLOUR( '', #388 );
#346 = VERTEX_POINT( '', #389 );
#347 = CIRCLE( '', #390, 5.50000000000000 );
#348 = FILL_AREA_STYLE_COLOUR( '', #391 );
#349 = VERTEX_POINT( '', #392 );
#350 = CIRCLE( '', #393, 6.25000000000000 );
#351 = VERTEX_POINT( '', #394 );
#352 = CIRCLE( '', #395, 7.42824854373856 );
#353 = FILL_AREA_STYLE_COLOUR( '', #396 );
#354 = FILL_AREA_STYLE_COLOUR( '', #397 );
#355 = VERTEX_POINT( '', #398 );
#356 = CIRCLE( '', #399, 6.25000000000000 );
#357 = FILL_AREA_STYLE_COLOUR( '', #400 );
#358 = VERTEX_POINT( '', #401 );
#359 = CIRCLE( '', #402, 6.00000000000000 );
#360 = FILL_AREA_STYLE_COLOUR( '', #403 );
#361 = VERTEX_POINT( '', #404 );
#362 = CIRCLE( '', #405, 8.22473922221737 );
#363 = FILL_AREA_STYLE_COLOUR( '', #406 );
#364 = VERTEX_POINT( '', #407 );
#365 = CIRCLE( '', #408, 5.75000000000000 );
#366 = FILL_AREA_STYLE_COLOUR( '', #409 );
#367 = FILL_AREA_STYLE_COLOUR( '', #410 );
#368 = FILL_AREA_STYLE_COLOUR( '', #411 );
#369 = COLOUR_RGB( '', 1.00000000000000, 1.00000000000000, 1.00000000000000 );
#370 = CARTESIAN_POINT( '', ( 5.75000000000000, 0.000000000000000, 7.80000000000000 ) );
#371 = AXIS2_PLACEMENT_3D( '', #412, #413, #414 );
#372 = COLOUR_RGB( '', 1.00000000000000, 1.00000000000000, 1.00000000000000 );
#373 = CARTESIAN_POINT( '', ( 5.50000000000000, 0.000000000000000, 7.30000000000000 ) );
#374 = AXIS2_PLACEMENT_3D( '', #415, #416, #417 );
#375 = COLOUR_RGB( '', 1.00000000000000, 1.00000000000000, 1.00000000000000 );
#376 = CARTESIAN_POINT( '', ( 12.0000000000000, 0.000000000000000, 6.80000000000000 ) );
#377 = AXIS2_PLACEMENT_3D( '', #418, #419, #420 );
#378 = CARTESIAN_POINT( '', ( 12.0000000000000, 0.000000000000000, 6.60000000000000 ) );
#379 = AXIS2_PLACEMENT_3D( '', #421, #422, #423 );
#380 = COLOUR_RGB( '', 1.00000000000000, 1.00000000000000, 1.00000000000000 );
#381 = CARTESIAN_POINT( '', ( 8.29753326907061, 0.000000000000000, 9.80000000000000 ) );
#382 = AXIS2_PLACEMENT_3D( '', #424, #425, #426 );
#383 = CARTESIAN_POINT( '', ( 11.8727940468532, 0.000000000000000, 6.80000000000000 ) );
#384 = AXIS2_PLACEMENT_3D( '', #427, #428, #429 );
#385 = COLOUR_RGB( '', 1.00000000000000, 1.00000000000000, 1.00000000000000 );
#386 = CARTESIAN_POINT( '', ( 11.8000000000000, 0.000000000000000, 6.60000000000000 ) );
#387 = AXIS2_PLACEMENT_3D( '', #430, #431, #432 );
#388 = COLOUR_RGB( '', 1.00000000000000, 1.00000000000000, 1.00000000000000 );
#389 = CARTESIAN_POINT( '', ( 5.50000000000000, 0.000000000000000, 0.000000000000000 ) );
#390 = AXIS2_PLACEMENT_3D( '', #433, #434, #435 );
#391 = COLOUR_RGB( '', 1.00000000000000, 1.00000000000000, 1.00000000000000 );
#392 = CARTESIAN_POINT( '', ( 6.25000000000000, 0.000000000000000, 8.10000000000000 ) );
#393 = AXIS2_PLACEMENT_3D( '', #436, #437, #438 );
#394 = CARTESIAN_POINT( '', ( 7.42824854373856, 0.000000000000000, 8.10000000000000 ) );
#395 = AXIS2_PLACEMENT_3D( '', #439, #440, #441 );
#396 = COLOUR_RGB( '', 1.00000000000000, 1.00000000000000, 1.00000000000000 );
#397 = COLOUR_RGB( '', 1.00000000000000, 1.00000000000000, 1.00000000000000 );
#398 = CARTESIAN_POINT( '', ( 6.25000000000000, 0.000000000000000, 9.60000000000000 ) );
#399 = AXIS2_PLACEMENT_3D( '', #442, #443, #444 );
#400 = COLOUR_RGB( '', 1.00000000000000, 1.00000000000000, 1.00000000000000 );
#401 = CARTESIAN_POINT( '', ( 6.00000000000000, 0.000000000000000, 0.000000000000000 ) );
#402 = AXIS2_PLACEMENT_3D( '', #445, #446, #447 );
#403 = COLOUR_RGB( '', 1.00000000000000, 1.00000000000000, 1.00000000000000 );
#404 = CARTESIAN_POINT( '', ( 8.22473922221737, 0.000000000000000, 9.60000000000000 ) );
#405 = AXIS2_PLACEMENT_3D( '', #448, #449, #450 );
#406 = COLOUR_RGB( '', 1.00000000000000, 1.00000000000000, 1.00000000000000 );
#407 = CARTESIAN_POINT( '', ( 5.75000000000000, 0.000000000000000, 9.80000000000000 ) );
#408 = AXIS2_PLACEMENT_3D( '', #451, #452, #453 );
#409 = COLOUR_RGB( '', 1.00000000000000, 1.00000000000000, 1.00000000000000 );
#410 = COLOUR_RGB( '', 1.00000000000000, 1.00000000000000, 1.00000000000000 );
#411 = COLOUR_RGB( '', 1.00000000000000, 1.00000000000000, 1.00000000000000 );
#412 = CARTESIAN_POINT( '', ( 0.000000000000000, 0.000000000000000, 7.80000000000000 ) );
#413 = DIRECTION( '', ( 0.000000000000000, 0.000000000000000, 1.00000000000000 ) );
#414 = DIRECTION( '', ( 1.00000000000000, 0.000000000000000, 0.000000000000000 ) );
#415 = CARTESIAN_POINT( '', ( 0.000000000000000, 0.000000000000000, 7.30000000000000 ) );
#416 = DIRECTION( '', ( 0.000000000000000, 0.000000000000000, 1.00000000000000 ) );
#417 = DIRECTION( '', ( 1.00000000000000, 0.000000000000000, 0.000000000000000 ) );
#418 = CARTESIAN_POINT( '', ( 0.000000000000000, 0.000000000000000, 6.80000000000000 ) );
#419 = DIRECTION( '', ( 0.000000000000000, 0.000000000000000, 1.00000000000000 ) );
#420 = DIRECTION( '', ( 1.00000000000000, 0.000000000000000, 0.000000000000000 ) );
#421 = CARTESIAN_POINT( '', ( 0.000000000000000, 0.000000000000000, 6.60000000000000 ) );
#422 = DIRECTION( '', ( 0.000000000000000, 0.000000000000000, 1.00000000000000 ) );
#423 = DIRECTION( '', ( 1.00000000000000, 0.000000000000000, 0.000000000000000 ) );
#424 = CARTESIAN_POINT( '', ( 0.000000000000000, 0.000000000000000, 9.80000000000000 ) );
#425 = DIRECTION( '', ( 0.000000000000000, 0.000000000000000, 1.00000000000000 ) );
#426 = DIRECTION( '', ( 1.00000000000000, 0.000000000000000, 0.000000000000000 ) );
#427 = CARTESIAN_POINT( '', ( 0.000000000000000, 0.000000000000000, 6.80000000000000 ) );
#428 = DIRECTION( '', ( 0.000000000000000, 0.000000000000000, 1.00000000000000 ) );
#429 = DIRECTION( '', ( 1.00000000000000, 0.000000000000000, 0.000000000000000 ) );
#430 = CARTESIAN_POINT( '', ( 0.000000000000000, 0.000000000000000, 6.60000000000000 ) );
#431 = DIRECTION( '', ( 0.000000000000000, 0.000000000000000, 1.00000000000000 ) );
#432 = DIRECTION( '', ( 1.00000000000000, 0.000000000000000, 0.000000000000000 ) );
#433 = CARTESIAN_POINT( '', ( 0.000000000000000, 0.000000000000000, 0.000000000000000 ) );
#434 = DIRECTION( '', ( 0.000000000000000, 0.000000000000000, 1.00000000000000 ) );
#435 = DIRECTION( '', ( 1.00000000000000, 0.000000000000000, 0.000000000000000 ) );
#436 = CARTESIAN_POINT( '', ( 0.000000000000000, 0.000000000000000, 8.10000000000000 ) );
#437 = DIRECTION( '', ( 0.000000000000000, 0.000000000000000, 1.00000000000000 ) );
#438 = DIRECTION( '', ( 1.00000000000000, 0.000000000000000, 0.000000000000000 ) );
#439 = CARTESIAN_POINT( '', ( 0.000000000000000, 0.000000000000000, 8.10000000000000 ) );
#440 = DIRECTION( '', ( 0.000000000000000, 0.000000000000000, 1.00000000000000 ) );
#441 = DIRECTION( '', ( 1.00000000000000, 0.000000000000000, 0.000000000000000 ) );
#442 = CARTESIAN_POINT( '', ( 0.000000000000000, 0.000000000000000, 9.60000000000000 ) );
#443 = DIRECTION( '', ( 0.000000000000000, 0.000000000000000, 1.00000000000000 ) );
#444 = DIRECTION( '', ( 1.00000000000000, 0.000000000000000, 0.000000000000000 ) );
#445 = CARTESIAN_POINT( '', ( 0.000000000000000, 0.000000000000000, 0.000000000000000 ) );
#446 = DIRECTION( '', ( 0.000000000000000, 0.000000000000000, 1.00000000000000 ) );
#447 = DIRECTION( '', ( 1.00000000000000, 0.000000000000000, 0.000000000000000 ) );
#448 = CARTESIAN_POINT( '', ( 0.000000000000000, 0.000000000000000, 9.60000000000000 ) );
#449 = DIRECTION( '', ( 0.000000000000000, 0.000000000000000, 1.00000000000000 ) );
#450 = DIRECTION( '', ( 1.00000000000000, 0.000000000000000, 0.000000000000000 ) );
#451 = CARTESIAN_POINT( '', ( 0.000000000000000, 0.000000000000000, 9.80000000000000 ) );
#452 = DIRECTION( '', ( 0.000000000000000, 0.000000000000000, 1.00000000000000 ) );
#453 = DIRECTION( '', ( 1.00000000000000, 0.000000000000000, 0.000000000000000 ) );
ENDSEC;
END-ISO-10303-21;
