ISO-10303-21;
HEADER;
FILE_DESCRIPTION( ( 'Unknown' ), '1' );
FILE_NAME( '//SBS2003/HD_Usb/Disegni/08_LIB/Users_3D/PROD_GAMM_3D/TPL/7372616.stp', 'Unknown', ( 'Unknown' ), ( 'Unknown' ), 'PSStep 14.0', 'Unknown', '  ' );
FILE_SCHEMA( ( 'AUTOMOTIVE_DESIGN { 1 0 10303 214 1 1 1 1 }' ) );
ENDSEC;
DATA;
#1 = MECHANICAL_DESIGN_GEOMETRIC_PRESENTATION_REPRESENTATION( ' ', ( #10, #11, #12, #13, #14, #15, #16, #17, #18, #19, #20, #21, #22, #23, #24 ), #6 );
#2 = PRODUCT_DEFINITION_CONTEXT( '', #25, 'design' );
#3 = APPLICATION_PROTOCOL_DEFINITION( 'international standard', 'automotive_design', 2001, #25 );
#4 = PRODUCT_CATEGORY_RELATIONSHIP( 'NONE', 'NONE', #26, #27 );
#5 = SHAPE_DEFINITION_REPRESENTATION( #28, #29 );
#6 =  ( GEOMETRIC_REPRESENTATION_CONTEXT( 3 )GLOBAL_UNCERTAINTY_ASSIGNED_CONTEXT( ( #32 ) )GLOBAL_UNIT_ASSIGNED_CONTEXT( ( #34, #35, #36 ) )REPRESENTATION_CONTEXT( 'NONE', 'WORKSPACE' ) );
#10 = STYLED_ITEM( '', ( #38 ), #39 );
#11 = STYLED_ITEM( '', ( #40 ), #41 );
#12 = STYLED_ITEM( '', ( #42 ), #43 );
#13 = STYLED_ITEM( '', ( #44 ), #45 );
#14 = STYLED_ITEM( '', ( #46 ), #47 );
#15 = STYLED_ITEM( '', ( #48 ), #49 );
#16 = STYLED_ITEM( '', ( #50 ), #51 );
#17 = STYLED_ITEM( '', ( #52 ), #53 );
#18 = STYLED_ITEM( '', ( #54 ), #55 );
#19 = STYLED_ITEM( '', ( #56 ), #57 );
#20 = STYLED_ITEM( '', ( #58 ), #59 );
#21 = STYLED_ITEM( '', ( #60 ), #61 );
#22 = STYLED_ITEM( '', ( #62 ), #63 );
#23 = STYLED_ITEM( '', ( #64 ), #65 );
#24 = STYLED_ITEM( '', ( #66 ), #67 );
#25 = APPLICATION_CONTEXT( 'core data for automotive mechanical design processes' );
#26 = PRODUCT_CATEGORY( 'part', 'NONE' );
#27 = PRODUCT_RELATED_PRODUCT_CATEGORY( 'detail', ' ', ( #68 ) );
#28 = PRODUCT_DEFINITION_SHAPE( 'NONE', 'NONE', #69 );
#29 = ADVANCED_BREP_SHAPE_REPRESENTATION( '1', ( #70, #71 ), #6 );
#32 = UNCERTAINTY_MEASURE_WITH_UNIT( LENGTH_MEASURE( 0.00100000000000000 ), #34, '', '' );
#34 =  ( CONVERSION_BASED_UNIT( 'MILLIMETRE', #74 )LENGTH_UNIT(  )NAMED_UNIT( #77 ) );
#35 =  ( NAMED_UNIT( #79 )PLANE_ANGLE_UNIT(  )SI_UNIT( $, .RADIAN. ) );
#36 =  ( NAMED_UNIT( #79 )SI_UNIT( $, .STERADIAN. )SOLID_ANGLE_UNIT(  ) );
#38 = PRESENTATION_STYLE_ASSIGNMENT( ( #85 ) );
#39 = ADVANCED_FACE( '', ( #86, #87 ), #88, .F. );
#40 = PRESENTATION_STYLE_ASSIGNMENT( ( #89 ) );
#41 = ADVANCED_FACE( '', ( #90, #91 ), #92, .F. );
#42 = PRESENTATION_STYLE_ASSIGNMENT( ( #93 ) );
#43 = ADVANCED_FACE( '', ( #94, #95 ), #96, .F. );
#44 = PRESENTATION_STYLE_ASSIGNMENT( ( #97 ) );
#45 = ADVANCED_FACE( '', ( #98 ), #99, .F. );
#46 = PRESENTATION_STYLE_ASSIGNMENT( ( #100 ) );
#47 = ADVANCED_FACE( '', ( #101, #102 ), #103, .T. );
#48 = PRESENTATION_STYLE_ASSIGNMENT( ( #104 ) );
#49 = ADVANCED_FACE( '', ( #105, #106 ), #107, .F. );
#50 = PRESENTATION_STYLE_ASSIGNMENT( ( #108 ) );
#51 = ADVANCED_FACE( '', ( #109, #110 ), #111, .T. );
#52 = PRESENTATION_STYLE_ASSIGNMENT( ( #112 ) );
#53 = ADVANCED_FACE( '', ( #113, #114 ), #115, .T. );
#54 = PRESENTATION_STYLE_ASSIGNMENT( ( #116 ) );
#55 = ADVANCED_FACE( '', ( #117 ), #118, .F. );
#56 = PRESENTATION_STYLE_ASSIGNMENT( ( #119 ) );
#57 = ADVANCED_FACE( '', ( #120, #121 ), #122, .F. );
#58 = PRESENTATION_STYLE_ASSIGNMENT( ( #123 ) );
#59 = ADVANCED_FACE( '', ( #124, #125 ), #126, .F. );
#60 = PRESENTATION_STYLE_ASSIGNMENT( ( #127 ) );
#61 = ADVANCED_FACE( '', ( #128, #129 ), #130, .F. );
#62 = PRESENTATION_STYLE_ASSIGNMENT( ( #131 ) );
#63 = ADVANCED_FACE( '', ( #132, #133 ), #134, .F. );
#64 = PRESENTATION_STYLE_ASSIGNMENT( ( #135 ) );
#65 = ADVANCED_FACE( '', ( #136, #137 ), #138, .F. );
#66 = PRESENTATION_STYLE_ASSIGNMENT( ( #139 ) );
#67 = ADVANCED_FACE( '', ( #140, #141 ), #142, .T. );
#68 = PRODUCT( '1', '1', 'PART-1-DESC', ( #143 ) );
#69 = PRODUCT_DEFINITION( 'NONE', 'NONE', #144, #2 );
#70 = MANIFOLD_SOLID_BREP( '1', #145 );
#71 = AXIS2_PLACEMENT_3D( '', #146, #147, #148 );
#74 = LENGTH_MEASURE_WITH_UNIT( LENGTH_MEASURE( 1.00000000000000 ), #149 );
#77 = DIMENSIONAL_EXPONENTS( 1.00000000000000, 0.000000000000000, 0.000000000000000, 0.000000000000000, 0.000000000000000, 0.000000000000000, 0.000000000000000 );
#79 = DIMENSIONAL_EXPONENTS( 0.000000000000000, 0.000000000000000, 0.000000000000000, 0.000000000000000, 0.000000000000000, 0.000000000000000, 0.000000000000000 );
#85 = SURFACE_STYLE_USAGE( .BOTH., #150 );
#86 = FACE_OUTER_BOUND( '', #151, .T. );
#87 = FACE_OUTER_BOUND( '', #152, .T. );
#88 = CYLINDRICAL_SURFACE( '', #153, 12.0000000000000 );
#89 = SURFACE_STYLE_USAGE( .BOTH., #154 );
#90 = FACE_OUTER_BOUND( '', #155, .T. );
#91 = FACE_BOUND( '', #156, .T. );
#92 = PLANE( '', #157 );
#93 = SURFACE_STYLE_USAGE( .BOTH., #158 );
#94 = FACE_OUTER_BOUND( '', #159, .T. );
#95 = FACE_BOUND( '', #160, .T. );
#96 = PLANE( '', #161 );
#97 = SURFACE_STYLE_USAGE( .BOTH., #162 );
#98 = FACE_OUTER_BOUND( '', #163, .T. );
#99 = PLANE( '', #164 );
#100 = SURFACE_STYLE_USAGE( .BOTH., #165 );
#101 = FACE_BOUND( '', #166, .T. );
#102 = FACE_OUTER_BOUND( '', #167, .T. );
#103 = CONICAL_SURFACE( '', #168, 18.0909925585666, 0.872664625997164 );
#104 = SURFACE_STYLE_USAGE( .BOTH., #169 );
#105 = FACE_OUTER_BOUND( '', #170, .T. );
#106 = FACE_BOUND( '', #171, .T. );
#107 = CONICAL_SURFACE( '', #172, 14.4247392222174, 0.872664625997164 );
#108 = SURFACE_STYLE_USAGE( .BOTH., #173 );
#109 = FACE_OUTER_BOUND( '', #174, .T. );
#110 = FACE_OUTER_BOUND( '', #175, .T. );
#111 = CYLINDRICAL_SURFACE( '', #176, 12.5000000000000 );
#112 = SURFACE_STYLE_USAGE( .BOTH., #177 );
#113 = FACE_OUTER_BOUND( '', #178, .T. );
#114 = FACE_OUTER_BOUND( '', #179, .T. );
#115 = CYLINDRICAL_SURFACE( '', #180, 18.2500000000000 );
#116 = SURFACE_STYLE_USAGE( .BOTH., #181 );
#117 = FACE_OUTER_BOUND( '', #182, .T. );
#118 = PLANE( '', #183 );
#119 = SURFACE_STYLE_USAGE( .BOTH., #184 );
#120 = FACE_BOUND( '', #185, .T. );
#121 = FACE_OUTER_BOUND( '', #186, .T. );
#122 = PLANE( '', #187 );
#123 = SURFACE_STYLE_USAGE( .BOTH., #188 );
#124 = FACE_OUTER_BOUND( '', #189, .T. );
#125 = FACE_OUTER_BOUND( '', #190, .T. );
#126 = CYLINDRICAL_SURFACE( '', #191, 11.0000000000000 );
#127 = SURFACE_STYLE_USAGE( .BOTH., #192 );
#128 = FACE_BOUND( '', #193, .T. );
#129 = FACE_OUTER_BOUND( '', #194, .T. );
#130 = PLANE( '', #195 );
#131 = SURFACE_STYLE_USAGE( .BOTH., #196 );
#132 = FACE_BOUND( '', #197, .T. );
#133 = FACE_OUTER_BOUND( '', #198, .T. );
#134 = PLANE( '', #199 );
#135 = SURFACE_STYLE_USAGE( .BOTH., #200 );
#136 = FACE_OUTER_BOUND( '', #201, .T. );
#137 = FACE_BOUND( '', #202, .T. );
#138 = PLANE( '', #203 );
#139 = SURFACE_STYLE_USAGE( .BOTH., #204 );
#140 = FACE_OUTER_BOUND( '', #205, .T. );
#141 = FACE_BOUND( '', #206, .T. );
#142 = CONICAL_SURFACE( '', #207, 11.5000000000000, 0.174532925199433 );
#143 = PRODUCT_CONTEXT( '', #25, 'mechanical' );
#144 = PRODUCT_DEFINITION_FORMATION_WITH_SPECIFIED_SOURCE( ' ', 'NONE', #68, .NOT_KNOWN. );
#145 = CLOSED_SHELL( '', ( #43, #59, #45, #55, #39, #67, #61, #51, #41, #49, #65, #53, #57, #47, #63 ) );
#146 = CARTESIAN_POINT( '', ( 0.000000000000000, 0.000000000000000, 0.000000000000000 ) );
#147 = DIRECTION( '', ( 0.000000000000000, 0.000000000000000, 1.00000000000000 ) );
#148 = DIRECTION( '', ( 1.00000000000000, 0.000000000000000, 0.000000000000000 ) );
#149 =  ( LENGTH_UNIT(  )NAMED_UNIT( #77 )SI_UNIT( .MILLI., .METRE. ) );
#150 = SURFACE_SIDE_STYLE( '', ( #209 ) );
#151 = EDGE_LOOP( '', ( #210 ) );
#152 = EDGE_LOOP( '', ( #211 ) );
#153 = AXIS2_PLACEMENT_3D( '', #212, #213, #214 );
#154 = SURFACE_SIDE_STYLE( '', ( #215 ) );
#155 = EDGE_LOOP( '', ( #216 ) );
#156 = EDGE_LOOP( '', ( #217 ) );
#157 = AXIS2_PLACEMENT_3D( '', #218, #219, #220 );
#158 = SURFACE_SIDE_STYLE( '', ( #221 ) );
#159 = EDGE_LOOP( '', ( #222 ) );
#160 = EDGE_LOOP( '', ( #223 ) );
#161 = AXIS2_PLACEMENT_3D( '', #224, #225, #226 );
#162 = SURFACE_SIDE_STYLE( '', ( #227 ) );
#163 = EDGE_LOOP( '', ( #228 ) );
#164 = AXIS2_PLACEMENT_3D( '', #229, #230, #231 );
#165 = SURFACE_SIDE_STYLE( '', ( #232 ) );
#166 = EDGE_LOOP( '', ( #233 ) );
#167 = EDGE_LOOP( '', ( #234 ) );
#168 = AXIS2_PLACEMENT_3D( '', #235, #236, #237 );
#169 = SURFACE_SIDE_STYLE( '', ( #238 ) );
#170 = EDGE_LOOP( '', ( #239 ) );
#171 = EDGE_LOOP( '', ( #240 ) );
#172 = AXIS2_PLACEMENT_3D( '', #241, #242, #243 );
#173 = SURFACE_SIDE_STYLE( '', ( #244 ) );
#174 = EDGE_LOOP( '', ( #245 ) );
#175 = EDGE_LOOP( '', ( #246 ) );
#176 = AXIS2_PLACEMENT_3D( '', #247, #248, #249 );
#177 = SURFACE_SIDE_STYLE( '', ( #250 ) );
#178 = EDGE_LOOP( '', ( #251 ) );
#179 = EDGE_LOOP( '', ( #252 ) );
#180 = AXIS2_PLACEMENT_3D( '', #253, #254, #255 );
#181 = SURFACE_SIDE_STYLE( '', ( #256 ) );
#182 = EDGE_LOOP( '', ( #257 ) );
#183 = AXIS2_PLACEMENT_3D( '', #258, #259, #260 );
#184 = SURFACE_SIDE_STYLE( '', ( #261 ) );
#185 = EDGE_LOOP( '', ( #262 ) );
#186 = EDGE_LOOP( '', ( #263 ) );
#187 = AXIS2_PLACEMENT_3D( '', #264, #265, #266 );
#188 = SURFACE_SIDE_STYLE( '', ( #267 ) );
#189 = EDGE_LOOP( '', ( #268 ) );
#190 = EDGE_LOOP( '', ( #269 ) );
#191 = AXIS2_PLACEMENT_3D( '', #270, #271, #272 );
#192 = SURFACE_SIDE_STYLE( '', ( #273 ) );
#193 = EDGE_LOOP( '', ( #274 ) );
#194 = EDGE_LOOP( '', ( #275 ) );
#195 = AXIS2_PLACEMENT_3D( '', #276, #277, #278 );
#196 = SURFACE_SIDE_STYLE( '', ( #279 ) );
#197 = EDGE_LOOP( '', ( #280 ) );
#198 = EDGE_LOOP( '', ( #281 ) );
#199 = AXIS2_PLACEMENT_3D( '', #282, #283, #284 );
#200 = SURFACE_SIDE_STYLE( '', ( #285 ) );
#201 = EDGE_LOOP( '', ( #286 ) );
#202 = EDGE_LOOP( '', ( #287 ) );
#203 = AXIS2_PLACEMENT_3D( '', #288, #289, #290 );
#204 = SURFACE_SIDE_STYLE( '', ( #291 ) );
#205 = EDGE_LOOP( '', ( #292 ) );
#206 = EDGE_LOOP( '', ( #293 ) );
#207 = AXIS2_PLACEMENT_3D( '', #294, #295, #296 );
#209 = SURFACE_STYLE_FILL_AREA( #297 );
#210 = ORIENTED_EDGE( '', *, *, #298, .F. );
#211 = ORIENTED_EDGE( '', *, *, #299, .T. );
#212 = CARTESIAN_POINT( '', ( 0.000000000000000, 0.000000000000000, 57.1500000000000 ) );
#213 = DIRECTION( '', ( -0.000000000000000, -0.000000000000000, -1.00000000000000 ) );
#214 = DIRECTION( '', ( 1.00000000000000, 0.000000000000000, 0.000000000000000 ) );
#215 = SURFACE_STYLE_FILL_AREA( #300 );
#216 = ORIENTED_EDGE( '', *, *, #301, .F. );
#217 = ORIENTED_EDGE( '', *, *, #302, .T. );
#218 = CARTESIAN_POINT( '', ( 12.5000000000000, 0.000000000000000, 9.55000000000000 ) );
#219 = DIRECTION( '', ( 0.000000000000000, 0.000000000000000, 1.00000000000000 ) );
#220 = DIRECTION( '', ( 1.00000000000000, 0.000000000000000, 0.000000000000000 ) );
#221 = SURFACE_STYLE_FILL_AREA( #303 );
#222 = ORIENTED_EDGE( '', *, *, #304, .F. );
#223 = ORIENTED_EDGE( '', *, *, #305, .T. );
#224 = CARTESIAN_POINT( '', ( 11.0000000000000, 0.000000000000000, 0.000000000000000 ) );
#225 = DIRECTION( '', ( 0.000000000000000, 0.000000000000000, 1.00000000000000 ) );
#226 = DIRECTION( '', ( 1.00000000000000, 0.000000000000000, 0.000000000000000 ) );
#227 = SURFACE_STYLE_FILL_AREA( #306 );
#228 = ORIENTED_EDGE( '', *, *, #307, .F. );
#229 = CARTESIAN_POINT( '', ( 11.0000000000000, 0.000000000000000, 7.30000000000000 ) );
#230 = DIRECTION( '', ( 0.000000000000000, 0.000000000000000, 1.00000000000000 ) );
#231 = DIRECTION( '', ( 1.00000000000000, 0.000000000000000, 0.000000000000000 ) );
#232 = SURFACE_STYLE_FILL_AREA( #308 );
#233 = ORIENTED_EDGE( '', *, *, #309, .F. );
#234 = ORIENTED_EDGE( '', *, *, #310, .T. );
#235 = CARTESIAN_POINT( '', ( 0.000000000000000, 0.000000000000000, 6.80000000000000 ) );
#236 = DIRECTION( '', ( -0.000000000000000, 0.000000000000000, -1.00000000000000 ) );
#237 = DIRECTION( '', ( -1.00000000000000, 0.000000000000000, 0.000000000000000 ) );
#238 = SURFACE_STYLE_FILL_AREA( #311 );
#239 = ORIENTED_EDGE( '', *, *, #312, .F. );
#240 = ORIENTED_EDGE( '', *, *, #301, .T. );
#241 = CARTESIAN_POINT( '', ( 0.000000000000000, 0.000000000000000, 9.55000000000000 ) );
#242 = DIRECTION( '', ( -0.000000000000000, 0.000000000000000, -1.00000000000000 ) );
#243 = DIRECTION( '', ( -1.00000000000000, 0.000000000000000, 0.000000000000000 ) );
#244 = SURFACE_STYLE_FILL_AREA( #313 );
#245 = ORIENTED_EDGE( '', *, *, #302, .F. );
#246 = ORIENTED_EDGE( '', *, *, #314, .T. );
#247 = CARTESIAN_POINT( '', ( 0.000000000000000, 0.000000000000000, 57.1500000000000 ) );
#248 = DIRECTION( '', ( -0.000000000000000, -0.000000000000000, -1.00000000000000 ) );
#249 = DIRECTION( '', ( 1.00000000000000, 0.000000000000000, 0.000000000000000 ) );
#250 = SURFACE_STYLE_FILL_AREA( #315 );
#251 = ORIENTED_EDGE( '', *, *, #316, .F. );
#252 = ORIENTED_EDGE( '', *, *, #317, .T. );
#253 = CARTESIAN_POINT( '', ( 0.000000000000000, 0.000000000000000, 57.1500000000000 ) );
#254 = DIRECTION( '', ( -0.000000000000000, -0.000000000000000, -1.00000000000000 ) );
#255 = DIRECTION( '', ( 1.00000000000000, 0.000000000000000, 0.000000000000000 ) );
#256 = SURFACE_STYLE_FILL_AREA( #318 );
#257 = ORIENTED_EDGE( '', *, *, #298, .T. );
#258 = CARTESIAN_POINT( '', ( 12.0000000000000, 0.000000000000000, 7.80000000000000 ) );
#259 = DIRECTION( '', ( 0.000000000000000, 0.000000000000000, -1.00000000000000 ) );
#260 = DIRECTION( '', ( -1.00000000000000, 0.000000000000000, 0.000000000000000 ) );
#261 = SURFACE_STYLE_FILL_AREA( #319 );
#262 = ORIENTED_EDGE( '', *, *, #310, .F. );
#263 = ORIENTED_EDGE( '', *, *, #316, .T. );
#264 = CARTESIAN_POINT( '', ( 18.0909925585666, 0.000000000000000, 6.80000000000000 ) );
#265 = DIRECTION( '', ( 0.000000000000000, 0.000000000000000, -1.00000000000000 ) );
#266 = DIRECTION( '', ( -1.00000000000000, 0.000000000000000, 0.000000000000000 ) );
#267 = SURFACE_STYLE_FILL_AREA( #320 );
#268 = ORIENTED_EDGE( '', *, *, #305, .F. );
#269 = ORIENTED_EDGE( '', *, *, #307, .T. );
#270 = CARTESIAN_POINT( '', ( 0.000000000000000, 0.000000000000000, 57.1500000000000 ) );
#271 = DIRECTION( '', ( -0.000000000000000, -0.000000000000000, -1.00000000000000 ) );
#272 = DIRECTION( '', ( 1.00000000000000, 0.000000000000000, 0.000000000000000 ) );
#273 = SURFACE_STYLE_FILL_AREA( #321 );
#274 = ORIENTED_EDGE( '', *, *, #314, .F. );
#275 = ORIENTED_EDGE( '', *, *, #322, .T. );
#276 = CARTESIAN_POINT( '', ( 13.0075956850574, 0.000000000000000, 8.55000000000000 ) );
#277 = DIRECTION( '', ( 0.000000000000000, 0.000000000000000, -1.00000000000000 ) );
#278 = DIRECTION( '', ( -1.00000000000000, 0.000000000000000, 0.000000000000000 ) );
#279 = SURFACE_STYLE_FILL_AREA( #323 );
#280 = ORIENTED_EDGE( '', *, *, #299, .F. );
#281 = ORIENTED_EDGE( '', *, *, #309, .T. );
#282 = CARTESIAN_POINT( '', ( 12.0000000000000, 0.000000000000000, 9.80000000000000 ) );
#283 = DIRECTION( '', ( 0.000000000000000, 0.000000000000000, -1.00000000000000 ) );
#284 = DIRECTION( '', ( -1.00000000000000, 0.000000000000000, 0.000000000000000 ) );
#285 = SURFACE_STYLE_FILL_AREA( #324 );
#286 = ORIENTED_EDGE( '', *, *, #317, .F. );
#287 = ORIENTED_EDGE( '', *, *, #312, .T. );
#288 = CARTESIAN_POINT( '', ( 18.0000000000000, 0.000000000000000, 6.55000000000000 ) );
#289 = DIRECTION( '', ( 0.000000000000000, 0.000000000000000, 1.00000000000000 ) );
#290 = DIRECTION( '', ( 1.00000000000000, 0.000000000000000, 0.000000000000000 ) );
#291 = SURFACE_STYLE_FILL_AREA( #325 );
#292 = ORIENTED_EDGE( '', *, *, #322, .F. );
#293 = ORIENTED_EDGE( '', *, *, #304, .T. );
#294 = CARTESIAN_POINT( '', ( 0.000000000000000, 0.000000000000000, 0.000000000000000 ) );
#295 = DIRECTION( '', ( -0.000000000000000, -0.000000000000000, 1.00000000000000 ) );
#296 = DIRECTION( '', ( 1.00000000000000, 0.000000000000000, 0.000000000000000 ) );
#297 = FILL_AREA_STYLE( '', ( #326 ) );
#298 = EDGE_CURVE( '', #327, #327, #328, .T. );
#299 = EDGE_CURVE( '', #329, #329, #330, .T. );
#300 = FILL_AREA_STYLE( '', ( #331 ) );
#301 = EDGE_CURVE( '', #332, #332, #333, .T. );
#302 = EDGE_CURVE( '', #334, #334, #335, .T. );
#303 = FILL_AREA_STYLE( '', ( #336 ) );
#304 = EDGE_CURVE( '', #337, #337, #338, .T. );
#305 = EDGE_CURVE( '', #339, #339, #340, .T. );
#306 = FILL_AREA_STYLE( '', ( #341 ) );
#307 = EDGE_CURVE( '', #342, #342, #343, .T. );
#308 = FILL_AREA_STYLE( '', ( #344 ) );
#309 = EDGE_CURVE( '', #345, #345, #346, .T. );
#310 = EDGE_CURVE( '', #347, #347, #348, .T. );
#311 = FILL_AREA_STYLE( '', ( #349 ) );
#312 = EDGE_CURVE( '', #350, #350, #351, .T. );
#313 = FILL_AREA_STYLE( '', ( #352 ) );
#314 = EDGE_CURVE( '', #353, #353, #354, .T. );
#315 = FILL_AREA_STYLE( '', ( #355 ) );
#316 = EDGE_CURVE( '', #356, #356, #357, .T. );
#317 = EDGE_CURVE( '', #358, #358, #359, .T. );
#318 = FILL_AREA_STYLE( '', ( #360 ) );
#319 = FILL_AREA_STYLE( '', ( #361 ) );
#320 = FILL_AREA_STYLE( '', ( #362 ) );
#321 = FILL_AREA_STYLE( '', ( #363 ) );
#322 = EDGE_CURVE( '', #364, #364, #365, .T. );
#323 = FILL_AREA_STYLE( '', ( #366 ) );
#324 = FILL_AREA_STYLE( '', ( #367 ) );
#325 = FILL_AREA_STYLE( '', ( #368 ) );
#326 = FILL_AREA_STYLE_COLOUR( '', #369 );
#327 = VERTEX_POINT( '', #370 );
#328 = CIRCLE( '', #371, 12.0000000000000 );
#329 = VERTEX_POINT( '', #372 );
#330 = CIRCLE( '', #373, 12.0000000000000 );
#331 = FILL_AREA_STYLE_COLOUR( '', #374 );
#332 = VERTEX_POINT( '', #375 );
#333 = CIRCLE( '', #376, 14.4247392222174 );
#334 = VERTEX_POINT( '', #377 );
#335 = CIRCLE( '', #378, 12.5000000000000 );
#336 = FILL_AREA_STYLE_COLOUR( '', #379 );
#337 = VERTEX_POINT( '', #380 );
#338 = CIRCLE( '', #381, 11.5000000000000 );
#339 = VERTEX_POINT( '', #382 );
#340 = CIRCLE( '', #383, 11.0000000000000 );
#341 = FILL_AREA_STYLE_COLOUR( '', #384 );
#342 = VERTEX_POINT( '', #385 );
#343 = CIRCLE( '', #386, 11.0000000000000 );
#344 = FILL_AREA_STYLE_COLOUR( '', #387 );
#345 = VERTEX_POINT( '', #388 );
#346 = CIRCLE( '', #389, 14.5157317807839 );
#347 = VERTEX_POINT( '', #390 );
#348 = CIRCLE( '', #391, 18.0909925585666 );
#349 = FILL_AREA_STYLE_COLOUR( '', #392 );
#350 = VERTEX_POINT( '', #393 );
#351 = CIRCLE( '', #394, 18.0000000000000 );
#352 = FILL_AREA_STYLE_COLOUR( '', #395 );
#353 = VERTEX_POINT( '', #396 );
#354 = CIRCLE( '', #397, 12.5000000000000 );
#355 = FILL_AREA_STYLE_COLOUR( '', #398 );
#356 = VERTEX_POINT( '', #399 );
#357 = CIRCLE( '', #400, 18.2500000000000 );
#358 = VERTEX_POINT( '', #401 );
#359 = CIRCLE( '', #402, 18.2500000000000 );
#360 = FILL_AREA_STYLE_COLOUR( '', #403 );
#361 = FILL_AREA_STYLE_COLOUR( '', #404 );
#362 = FILL_AREA_STYLE_COLOUR( '', #405 );
#363 = FILL_AREA_STYLE_COLOUR( '', #406 );
#364 = VERTEX_POINT( '', #407 );
#365 = CIRCLE( '', #408, 13.0075956850574 );
#366 = FILL_AREA_STYLE_COLOUR( '', #409 );
#367 = FILL_AREA_STYLE_COLOUR( '', #410 );
#368 = FILL_AREA_STYLE_COLOUR( '', #411 );
#369 = COLOUR_RGB( '', 1.00000000000000, 1.00000000000000, 1.00000000000000 );
#370 = CARTESIAN_POINT( '', ( 12.0000000000000, 0.000000000000000, 7.80000000000000 ) );
#371 = AXIS2_PLACEMENT_3D( '', #412, #413, #414 );
#372 = CARTESIAN_POINT( '', ( 12.0000000000000, 0.000000000000000, 9.80000000000000 ) );
#373 = AXIS2_PLACEMENT_3D( '', #415, #416, #417 );
#374 = COLOUR_RGB( '', 1.00000000000000, 1.00000000000000, 1.00000000000000 );
#375 = CARTESIAN_POINT( '', ( 14.4247392222174, 0.000000000000000, 9.55000000000000 ) );
#376 = AXIS2_PLACEMENT_3D( '', #418, #419, #420 );
#377 = CARTESIAN_POINT( '', ( 12.5000000000000, 0.000000000000000, 9.55000000000000 ) );
#378 = AXIS2_PLACEMENT_3D( '', #421, #422, #423 );
#379 = COLOUR_RGB( '', 1.00000000000000, 1.00000000000000, 1.00000000000000 );
#380 = CARTESIAN_POINT( '', ( 11.5000000000000, 0.000000000000000, 0.000000000000000 ) );
#381 = AXIS2_PLACEMENT_3D( '', #424, #425, #426 );
#382 = CARTESIAN_POINT( '', ( 11.0000000000000, 0.000000000000000, 0.000000000000000 ) );
#383 = AXIS2_PLACEMENT_3D( '', #427, #428, #429 );
#384 = COLOUR_RGB( '', 1.00000000000000, 1.00000000000000, 1.00000000000000 );
#385 = CARTESIAN_POINT( '', ( 11.0000000000000, 0.000000000000000, 7.30000000000000 ) );
#386 = AXIS2_PLACEMENT_3D( '', #430, #431, #432 );
#387 = COLOUR_RGB( '', 1.00000000000000, 1.00000000000000, 1.00000000000000 );
#388 = CARTESIAN_POINT( '', ( 14.5157317807839, 0.000000000000000, 9.80000000000000 ) );
#389 = AXIS2_PLACEMENT_3D( '', #433, #434, #435 );
#390 = CARTESIAN_POINT( '', ( 18.0909925585666, 0.000000000000000, 6.80000000000000 ) );
#391 = AXIS2_PLACEMENT_3D( '', #436, #437, #438 );
#392 = COLOUR_RGB( '', 1.00000000000000, 1.00000000000000, 1.00000000000000 );
#393 = CARTESIAN_POINT( '', ( 18.0000000000000, 0.000000000000000, 6.55000000000000 ) );
#394 = AXIS2_PLACEMENT_3D( '', #439, #440, #441 );
#395 = COLOUR_RGB( '', 1.00000000000000, 1.00000000000000, 1.00000000000000 );
#396 = CARTESIAN_POINT( '', ( 12.5000000000000, 0.000000000000000, 8.55000000000000 ) );
#397 = AXIS2_PLACEMENT_3D( '', #442, #443, #444 );
#398 = COLOUR_RGB( '', 1.00000000000000, 1.00000000000000, 1.00000000000000 );
#399 = CARTESIAN_POINT( '', ( 18.2500000000000, 0.000000000000000, 6.80000000000000 ) );
#400 = AXIS2_PLACEMENT_3D( '', #445, #446, #447 );
#401 = CARTESIAN_POINT( '', ( 18.2500000000000, 0.000000000000000, 6.55000000000000 ) );
#402 = AXIS2_PLACEMENT_3D( '', #448, #449, #450 );
#403 = COLOUR_RGB( '', 1.00000000000000, 1.00000000000000, 1.00000000000000 );
#404 = COLOUR_RGB( '', 1.00000000000000, 1.00000000000000, 1.00000000000000 );
#405 = COLOUR_RGB( '', 1.00000000000000, 1.00000000000000, 1.00000000000000 );
#406 = COLOUR_RGB( '', 1.00000000000000, 1.00000000000000, 1.00000000000000 );
#407 = CARTESIAN_POINT( '', ( 13.0075956850574, 0.000000000000000, 8.55000000000000 ) );
#408 = AXIS2_PLACEMENT_3D( '', #451, #452, #453 );
#409 = COLOUR_RGB( '', 1.00000000000000, 1.00000000000000, 1.00000000000000 );
#410 = COLOUR_RGB( '', 1.00000000000000, 1.00000000000000, 1.00000000000000 );
#411 = COLOUR_RGB( '', 1.00000000000000, 1.00000000000000, 1.00000000000000 );
#412 = CARTESIAN_POINT( '', ( 0.000000000000000, 0.000000000000000, 7.80000000000000 ) );
#413 = DIRECTION( '', ( 0.000000000000000, 0.000000000000000, 1.00000000000000 ) );
#414 = DIRECTION( '', ( 1.00000000000000, 0.000000000000000, 0.000000000000000 ) );
#415 = CARTESIAN_POINT( '', ( 0.000000000000000, 0.000000000000000, 9.80000000000000 ) );
#416 = DIRECTION( '', ( 0.000000000000000, 0.000000000000000, 1.00000000000000 ) );
#417 = DIRECTION( '', ( 1.00000000000000, 0.000000000000000, 0.000000000000000 ) );
#418 = CARTESIAN_POINT( '', ( 0.000000000000000, 0.000000000000000, 9.55000000000000 ) );
#419 = DIRECTION( '', ( 0.000000000000000, 0.000000000000000, 1.00000000000000 ) );
#420 = DIRECTION( '', ( 1.00000000000000, 0.000000000000000, 0.000000000000000 ) );
#421 = CARTESIAN_POINT( '', ( 0.000000000000000, 0.000000000000000, 9.55000000000000 ) );
#422 = DIRECTION( '', ( 0.000000000000000, 0.000000000000000, 1.00000000000000 ) );
#423 = DIRECTION( '', ( 1.00000000000000, 0.000000000000000, 0.000000000000000 ) );
#424 = CARTESIAN_POINT( '', ( 0.000000000000000, 0.000000000000000, 0.000000000000000 ) );
#425 = DIRECTION( '', ( 0.000000000000000, 0.000000000000000, 1.00000000000000 ) );
#426 = DIRECTION( '', ( 1.00000000000000, 0.000000000000000, 0.000000000000000 ) );
#427 = CARTESIAN_POINT( '', ( 0.000000000000000, 0.000000000000000, 0.000000000000000 ) );
#428 = DIRECTION( '', ( 0.000000000000000, 0.000000000000000, 1.00000000000000 ) );
#429 = DIRECTION( '', ( 1.00000000000000, 0.000000000000000, 0.000000000000000 ) );
#430 = CARTESIAN_POINT( '', ( 0.000000000000000, 0.000000000000000, 7.30000000000000 ) );
#431 = DIRECTION( '', ( 0.000000000000000, 0.000000000000000, 1.00000000000000 ) );
#432 = DIRECTION( '', ( 1.00000000000000, 0.000000000000000, 0.000000000000000 ) );
#433 = CARTESIAN_POINT( '', ( 0.000000000000000, 0.000000000000000, 9.80000000000000 ) );
#434 = DIRECTION( '', ( 0.000000000000000, 0.000000000000000, 1.00000000000000 ) );
#435 = DIRECTION( '', ( 1.00000000000000, 0.000000000000000, 0.000000000000000 ) );
#436 = CARTESIAN_POINT( '', ( 0.000000000000000, 0.000000000000000, 6.80000000000000 ) );
#437 = DIRECTION( '', ( 0.000000000000000, 0.000000000000000, 1.00000000000000 ) );
#438 = DIRECTION( '', ( 1.00000000000000, 0.000000000000000, 0.000000000000000 ) );
#439 = CARTESIAN_POINT( '', ( 0.000000000000000, 0.000000000000000, 6.55000000000000 ) );
#440 = DIRECTION( '', ( 0.000000000000000, 0.000000000000000, 1.00000000000000 ) );
#441 = DIRECTION( '', ( 1.00000000000000, 0.000000000000000, 0.000000000000000 ) );
#442 = CARTESIAN_POINT( '', ( 0.000000000000000, 0.000000000000000, 8.55000000000000 ) );
#443 = DIRECTION( '', ( 0.000000000000000, 0.000000000000000, 1.00000000000000 ) );
#444 = DIRECTION( '', ( 1.00000000000000, 0.000000000000000, 0.000000000000000 ) );
#445 = CARTESIAN_POINT( '', ( 0.000000000000000, 0.000000000000000, 6.80000000000000 ) );
#446 = DIRECTION( '', ( 0.000000000000000, 0.000000000000000, 1.00000000000000 ) );
#447 = DIRECTION( '', ( 1.00000000000000, 0.000000000000000, 0.000000000000000 ) );
#448 = CARTESIAN_POINT( '', ( 0.000000000000000, 0.000000000000000, 6.55000000000000 ) );
#449 = DIRECTION( '', ( 0.000000000000000, 0.000000000000000, 1.00000000000000 ) );
#450 = DIRECTION( '', ( 1.00000000000000, 0.000000000000000, 0.000000000000000 ) );
#451 = CARTESIAN_POINT( '', ( 0.000000000000000, 0.000000000000000, 8.55000000000000 ) );
#452 = DIRECTION( '', ( 0.000000000000000, 0.000000000000000, 1.00000000000000 ) );
#453 = DIRECTION( '', ( 1.00000000000000, 0.000000000000000, 0.000000000000000 ) );
ENDSEC;
END-ISO-10303-21;
