ISO-10303-21;
HEADER;
FILE_DESCRIPTION( ( 'Unknown' ), '1' );
FILE_NAME( '//SBS2003/HD_Usb/Disegni/08_LIB/Users_3D/PROD_GAMM_3D/TPFL/7372710.stp', 'Unknown', ( 'Unknown' ), ( 'Unknown' ), 'PSStep 14.0', 'Unknown', '  ' );
FILE_SCHEMA( ( 'AUTOMOTIVE_DESIGN { 1 0 10303 214 1 1 1 1 }' ) );
ENDSEC;
DATA;
#1 = MECHANICAL_DESIGN_GEOMETRIC_PRESENTATION_REPRESENTATION( ' ', ( #10, #11, #12, #13, #14, #15, #16, #17, #18, #19 ), #6 );
#2 = PRODUCT_DEFINITION_CONTEXT( '', #20, 'design' );
#3 = APPLICATION_PROTOCOL_DEFINITION( 'international standard', 'automotive_design', 2001, #20 );
#4 = PRODUCT_CATEGORY_RELATIONSHIP( 'NONE', 'NONE', #21, #22 );
#5 = SHAPE_DEFINITION_REPRESENTATION( #23, #24 );
#6 =  ( GEOMETRIC_REPRESENTATION_CONTEXT( 3 )GLOBAL_UNCERTAINTY_ASSIGNED_CONTEXT( ( #27 ) )GLOBAL_UNIT_ASSIGNED_CONTEXT( ( #29, #30, #31 ) )REPRESENTATION_CONTEXT( 'NONE', 'WORKSPACE' ) );
#10 = STYLED_ITEM( '', ( #33 ), #34 );
#11 = STYLED_ITEM( '', ( #35 ), #36 );
#12 = STYLED_ITEM( '', ( #37 ), #38 );
#13 = STYLED_ITEM( '', ( #39 ), #40 );
#14 = STYLED_ITEM( '', ( #41 ), #42 );
#15 = STYLED_ITEM( '', ( #43 ), #44 );
#16 = STYLED_ITEM( '', ( #45 ), #46 );
#17 = STYLED_ITEM( '', ( #47 ), #48 );
#18 = STYLED_ITEM( '', ( #49 ), #50 );
#19 = STYLED_ITEM( '', ( #51 ), #52 );
#20 = APPLICATION_CONTEXT( 'core data for automotive mechanical design processes' );
#21 = PRODUCT_CATEGORY( 'part', 'NONE' );
#22 = PRODUCT_RELATED_PRODUCT_CATEGORY( 'detail', ' ', ( #53 ) );
#23 = PRODUCT_DEFINITION_SHAPE( 'NONE', 'NONE', #54 );
#24 = ADVANCED_BREP_SHAPE_REPRESENTATION( '1', ( #55, #56 ), #6 );
#27 = UNCERTAINTY_MEASURE_WITH_UNIT( LENGTH_MEASURE( 0.00100000000000000 ), #29, '', '' );
#29 =  ( CONVERSION_BASED_UNIT( 'MILLIMETRE', #59 )LENGTH_UNIT(  )NAMED_UNIT( #62 ) );
#30 =  ( NAMED_UNIT( #64 )PLANE_ANGLE_UNIT(  )SI_UNIT( $, .RADIAN. ) );
#31 =  ( NAMED_UNIT( #64 )SI_UNIT( $, .STERADIAN. )SOLID_ANGLE_UNIT(  ) );
#33 = PRESENTATION_STYLE_ASSIGNMENT( ( #70 ) );
#34 = ADVANCED_FACE( '', ( #71 ), #72, .T. );
#35 = PRESENTATION_STYLE_ASSIGNMENT( ( #73 ) );
#36 = ADVANCED_FACE( '', ( #74, #75 ), #76, .T. );
#37 = PRESENTATION_STYLE_ASSIGNMENT( ( #77 ) );
#38 = ADVANCED_FACE( '', ( #78, #79 ), #80, .F. );
#39 = PRESENTATION_STYLE_ASSIGNMENT( ( #81 ) );
#40 = ADVANCED_FACE( '', ( #82, #83 ), #84, .T. );
#41 = PRESENTATION_STYLE_ASSIGNMENT( ( #85 ) );
#42 = ADVANCED_FACE( '', ( #86, #87 ), #88, .T. );
#43 = PRESENTATION_STYLE_ASSIGNMENT( ( #89 ) );
#44 = ADVANCED_FACE( '', ( #90 ), #91, .F. );
#45 = PRESENTATION_STYLE_ASSIGNMENT( ( #92 ) );
#46 = ADVANCED_FACE( '', ( #93, #94 ), #95, .T. );
#47 = PRESENTATION_STYLE_ASSIGNMENT( ( #96 ) );
#48 = ADVANCED_FACE( '', ( #97, #98 ), #99, .F. );
#49 = PRESENTATION_STYLE_ASSIGNMENT( ( #100 ) );
#50 = ADVANCED_FACE( '', ( #101, #102 ), #103, .F. );
#51 = PRESENTATION_STYLE_ASSIGNMENT( ( #104 ) );
#52 = ADVANCED_FACE( '', ( #105, #106 ), #107, .F. );
#53 = PRODUCT( '1', '1', 'PART-1-DESC', ( #108 ) );
#54 = PRODUCT_DEFINITION( 'NONE', 'NONE', #109, #2 );
#55 = MANIFOLD_SOLID_BREP( '1', #110 );
#56 = AXIS2_PLACEMENT_3D( '', #111, #112, #113 );
#59 = LENGTH_MEASURE_WITH_UNIT( LENGTH_MEASURE( 1.00000000000000 ), #114 );
#62 = DIMENSIONAL_EXPONENTS( 1.00000000000000, 0.000000000000000, 0.000000000000000, 0.000000000000000, 0.000000000000000, 0.000000000000000, 0.000000000000000 );
#64 = DIMENSIONAL_EXPONENTS( 0.000000000000000, 0.000000000000000, 0.000000000000000, 0.000000000000000, 0.000000000000000, 0.000000000000000, 0.000000000000000 );
#70 = SURFACE_STYLE_USAGE( .BOTH., #115 );
#71 = FACE_OUTER_BOUND( '', #116, .T. );
#72 = SPHERICAL_SURFACE( '', #117, 14.4540178571428 );
#73 = SURFACE_STYLE_USAGE( .BOTH., #118 );
#74 = FACE_BOUND( '', #119, .T. );
#75 = FACE_OUTER_BOUND( '', #120, .T. );
#76 = CONICAL_SURFACE( '', #121, 8.85000000000000, 0.785398163397446 );
#77 = SURFACE_STYLE_USAGE( .BOTH., #122 );
#78 = FACE_OUTER_BOUND( '', #123, .T. );
#79 = FACE_BOUND( '', #124, .T. );
#80 = PLANE( '', #125 );
#81 = SURFACE_STYLE_USAGE( .BOTH., #126 );
#82 = FACE_OUTER_BOUND( '', #127, .T. );
#83 = FACE_OUTER_BOUND( '', #128, .T. );
#84 = TOROIDAL_SURFACE( '', #129, 6.20000000000000, 0.200000000000000 );
#85 = SURFACE_STYLE_USAGE( .BOTH., #130 );
#86 = FACE_OUTER_BOUND( '', #131, .T. );
#87 = FACE_OUTER_BOUND( '', #132, .T. );
#88 = CYLINDRICAL_SURFACE( '', #133, 6.40000000000000 );
#89 = SURFACE_STYLE_USAGE( .BOTH., #134 );
#90 = FACE_OUTER_BOUND( '', #135, .T. );
#91 = PLANE( '', #136 );
#92 = SURFACE_STYLE_USAGE( .BOTH., #137 );
#93 = FACE_OUTER_BOUND( '', #138, .T. );
#94 = FACE_OUTER_BOUND( '', #139, .T. );
#95 = CYLINDRICAL_SURFACE( '', #140, 5.60000000000000 );
#96 = SURFACE_STYLE_USAGE( .BOTH., #141 );
#97 = FACE_OUTER_BOUND( '', #142, .T. );
#98 = FACE_BOUND( '', #143, .T. );
#99 = PLANE( '', #144 );
#100 = SURFACE_STYLE_USAGE( .BOTH., #145 );
#101 = FACE_OUTER_BOUND( '', #146, .T. );
#102 = FACE_BOUND( '', #147, .T. );
#103 = PLANE( '', #148 );
#104 = SURFACE_STYLE_USAGE( .BOTH., #149 );
#105 = FACE_OUTER_BOUND( '', #150, .T. );
#106 = FACE_OUTER_BOUND( '', #151, .T. );
#107 = CYLINDRICAL_SURFACE( '', #152, 3.70000000000000 );
#108 = PRODUCT_CONTEXT( '', #20, 'mechanical' );
#109 = PRODUCT_DEFINITION_FORMATION_WITH_SPECIFIED_SOURCE( ' ', 'NONE', #53, .NOT_KNOWN. );
#110 = CLOSED_SHELL( '', ( #52, #40, #44, #34, #36, #38, #42, #50, #46, #48 ) );
#111 = CARTESIAN_POINT( '', ( 0.000000000000000, 0.000000000000000, 0.000000000000000 ) );
#112 = DIRECTION( '', ( 0.000000000000000, 0.000000000000000, 1.00000000000000 ) );
#113 = DIRECTION( '', ( 1.00000000000000, 0.000000000000000, 0.000000000000000 ) );
#114 =  ( LENGTH_UNIT(  )NAMED_UNIT( #62 )SI_UNIT( .MILLI., .METRE. ) );
#115 = SURFACE_SIDE_STYLE( '', ( #154 ) );
#116 = EDGE_LOOP( '', ( #155 ) );
#117 = AXIS2_PLACEMENT_3D( '', #156, #157, #158 );
#118 = SURFACE_SIDE_STYLE( '', ( #159 ) );
#119 = EDGE_LOOP( '', ( #160 ) );
#120 = EDGE_LOOP( '', ( #161 ) );
#121 = AXIS2_PLACEMENT_3D( '', #162, #163, #164 );
#122 = SURFACE_SIDE_STYLE( '', ( #165 ) );
#123 = EDGE_LOOP( '', ( #166 ) );
#124 = EDGE_LOOP( '', ( #167 ) );
#125 = AXIS2_PLACEMENT_3D( '', #168, #169, #170 );
#126 = SURFACE_SIDE_STYLE( '', ( #171 ) );
#127 = EDGE_LOOP( '', ( #172 ) );
#128 = EDGE_LOOP( '', ( #173 ) );
#129 = AXIS2_PLACEMENT_3D( '', #174, #175, #176 );
#130 = SURFACE_SIDE_STYLE( '', ( #177 ) );
#131 = EDGE_LOOP( '', ( #178 ) );
#132 = EDGE_LOOP( '', ( #179 ) );
#133 = AXIS2_PLACEMENT_3D( '', #180, #181, #182 );
#134 = SURFACE_SIDE_STYLE( '', ( #183 ) );
#135 = EDGE_LOOP( '', ( #184 ) );
#136 = AXIS2_PLACEMENT_3D( '', #185, #186, #187 );
#137 = SURFACE_SIDE_STYLE( '', ( #188 ) );
#138 = EDGE_LOOP( '', ( #189 ) );
#139 = EDGE_LOOP( '', ( #190 ) );
#140 = AXIS2_PLACEMENT_3D( '', #191, #192, #193 );
#141 = SURFACE_SIDE_STYLE( '', ( #194 ) );
#142 = EDGE_LOOP( '', ( #195 ) );
#143 = EDGE_LOOP( '', ( #196 ) );
#144 = AXIS2_PLACEMENT_3D( '', #197, #198, #199 );
#145 = SURFACE_SIDE_STYLE( '', ( #200 ) );
#146 = EDGE_LOOP( '', ( #201 ) );
#147 = EDGE_LOOP( '', ( #202 ) );
#148 = AXIS2_PLACEMENT_3D( '', #203, #204, #205 );
#149 = SURFACE_SIDE_STYLE( '', ( #206 ) );
#150 = EDGE_LOOP( '', ( #207 ) );
#151 = EDGE_LOOP( '', ( #208 ) );
#152 = AXIS2_PLACEMENT_3D( '', #209, #210, #211 );
#154 = SURFACE_STYLE_FILL_AREA( #212 );
#155 = ORIENTED_EDGE( '', *, *, #213, .T. );
#156 = CARTESIAN_POINT( '', ( 1.42720556659561E-015, 0.000000000000000, -8.25401785714285 ) );
#157 = DIRECTION( '', ( 0.000000000000000, 0.000000000000000, 1.00000000000000 ) );
#158 = DIRECTION( '', ( 1.00000000000000, 0.000000000000000, 0.000000000000000 ) );
#159 = SURFACE_STYLE_FILL_AREA( #214 );
#160 = ORIENTED_EDGE( '', *, *, #213, .F. );
#161 = ORIENTED_EDGE( '', *, *, #215, .T. );
#162 = CARTESIAN_POINT( '', ( 0.000000000000000, 0.000000000000000, 3.10000000000000 ) );
#163 = DIRECTION( '', ( -0.000000000000000, 0.000000000000000, -1.00000000000000 ) );
#164 = DIRECTION( '', ( -1.00000000000000, 0.000000000000000, 0.000000000000000 ) );
#165 = SURFACE_STYLE_FILL_AREA( #216 );
#166 = ORIENTED_EDGE( '', *, *, #217, .F. );
#167 = ORIENTED_EDGE( '', *, *, #218, .T. );
#168 = CARTESIAN_POINT( '', ( 3.70000000000000, 0.000000000000000, 0.000000000000000 ) );
#169 = DIRECTION( '', ( 0.000000000000000, 0.000000000000000, 1.00000000000000 ) );
#170 = DIRECTION( '', ( 1.00000000000000, 0.000000000000000, 0.000000000000000 ) );
#171 = SURFACE_STYLE_FILL_AREA( #219 );
#172 = ORIENTED_EDGE( '', *, *, #220, .F. );
#173 = ORIENTED_EDGE( '', *, *, #221, .F. );
#174 = CARTESIAN_POINT( '', ( 0.000000000000000, 0.000000000000000, 1.30000000000000 ) );
#175 = DIRECTION( '', ( 0.000000000000000, 0.000000000000000, -1.00000000000000 ) );
#176 = DIRECTION( '', ( -1.00000000000000, 0.000000000000000, 0.000000000000000 ) );
#177 = SURFACE_STYLE_FILL_AREA( #222 );
#178 = ORIENTED_EDGE( '', *, *, #220, .T. );
#179 = ORIENTED_EDGE( '', *, *, #217, .T. );
#180 = CARTESIAN_POINT( '', ( 0.000000000000000, 0.000000000000000, 57.1500000000000 ) );
#181 = DIRECTION( '', ( -0.000000000000000, -0.000000000000000, -1.00000000000000 ) );
#182 = DIRECTION( '', ( 1.00000000000000, 0.000000000000000, 0.000000000000000 ) );
#183 = SURFACE_STYLE_FILL_AREA( #223 );
#184 = ORIENTED_EDGE( '', *, *, #224, .F. );
#185 = CARTESIAN_POINT( '', ( 3.70000000000000, 0.000000000000000, 3.00000000000000 ) );
#186 = DIRECTION( '', ( 0.000000000000000, 0.000000000000000, 1.00000000000000 ) );
#187 = DIRECTION( '', ( 1.00000000000000, 0.000000000000000, 0.000000000000000 ) );
#188 = SURFACE_STYLE_FILL_AREA( #225 );
#189 = ORIENTED_EDGE( '', *, *, #226, .F. );
#190 = ORIENTED_EDGE( '', *, *, #227, .T. );
#191 = CARTESIAN_POINT( '', ( 0.000000000000000, 0.000000000000000, 57.1500000000000 ) );
#192 = DIRECTION( '', ( -0.000000000000000, -0.000000000000000, -1.00000000000000 ) );
#193 = DIRECTION( '', ( 1.00000000000000, 0.000000000000000, 0.000000000000000 ) );
#194 = SURFACE_STYLE_FILL_AREA( #228 );
#195 = ORIENTED_EDGE( '', *, *, #215, .F. );
#196 = ORIENTED_EDGE( '', *, *, #226, .T. );
#197 = CARTESIAN_POINT( '', ( 5.60000000000000, 0.000000000000000, 3.10000000000000 ) );
#198 = DIRECTION( '', ( 0.000000000000000, 0.000000000000000, 1.00000000000000 ) );
#199 = DIRECTION( '', ( 1.00000000000000, 0.000000000000000, 0.000000000000000 ) );
#200 = SURFACE_STYLE_FILL_AREA( #229 );
#201 = ORIENTED_EDGE( '', *, *, #221, .T. );
#202 = ORIENTED_EDGE( '', *, *, #227, .F. );
#203 = CARTESIAN_POINT( '', ( 6.40000000000000, 0.000000000000000, 1.50000000000000 ) );
#204 = DIRECTION( '', ( 0.000000000000000, 0.000000000000000, -1.00000000000000 ) );
#205 = DIRECTION( '', ( -1.00000000000000, 0.000000000000000, 0.000000000000000 ) );
#206 = SURFACE_STYLE_FILL_AREA( #230 );
#207 = ORIENTED_EDGE( '', *, *, #218, .F. );
#208 = ORIENTED_EDGE( '', *, *, #224, .T. );
#209 = CARTESIAN_POINT( '', ( 0.000000000000000, 0.000000000000000, 57.1500000000000 ) );
#210 = DIRECTION( '', ( -0.000000000000000, -0.000000000000000, -1.00000000000000 ) );
#211 = DIRECTION( '', ( 1.00000000000000, 0.000000000000000, 0.000000000000000 ) );
#212 = FILL_AREA_STYLE( '', ( #231 ) );
#213 = EDGE_CURVE( '', #232, #232, #233, .T. );
#214 = FILL_AREA_STYLE( '', ( #234 ) );
#215 = EDGE_CURVE( '', #235, #235, #236, .T. );
#216 = FILL_AREA_STYLE( '', ( #237 ) );
#217 = EDGE_CURVE( '', #238, #238, #239, .T. );
#218 = EDGE_CURVE( '', #240, #240, #241, .T. );
#219 = FILL_AREA_STYLE( '', ( #242 ) );
#220 = EDGE_CURVE( '', #243, #243, #244, .T. );
#221 = EDGE_CURVE( '', #245, #245, #246, .F. );
#222 = FILL_AREA_STYLE( '', ( #247 ) );
#223 = FILL_AREA_STYLE( '', ( #248 ) );
#224 = EDGE_CURVE( '', #249, #249, #250, .T. );
#225 = FILL_AREA_STYLE( '', ( #251 ) );
#226 = EDGE_CURVE( '', #252, #252, #253, .T. );
#227 = EDGE_CURVE( '', #254, #254, #255, .T. );
#228 = FILL_AREA_STYLE( '', ( #256 ) );
#229 = FILL_AREA_STYLE( '', ( #257 ) );
#230 = FILL_AREA_STYLE( '', ( #258 ) );
#231 = FILL_AREA_STYLE_COLOUR( '', #259 );
#232 = VERTEX_POINT( '', #260 );
#233 = CIRCLE( '', #261, 8.55000000000000 );
#234 = FILL_AREA_STYLE_COLOUR( '', #262 );
#235 = VERTEX_POINT( '', #263 );
#236 = CIRCLE( '', #264, 8.85000000000000 );
#237 = FILL_AREA_STYLE_COLOUR( '', #265 );
#238 = VERTEX_POINT( '', #266 );
#239 = CIRCLE( '', #267, 6.40000000000000 );
#240 = VERTEX_POINT( '', #268 );
#241 = CIRCLE( '', #269, 3.70000000000000 );
#242 = FILL_AREA_STYLE_COLOUR( '', #270 );
#243 = VERTEX_POINT( '', #271 );
#244 = CIRCLE( '', #272, 6.40000000000000 );
#245 = VERTEX_POINT( '', #273 );
#246 = CIRCLE( '', #274, 6.20000000000000 );
#247 = FILL_AREA_STYLE_COLOUR( '', #275 );
#248 = FILL_AREA_STYLE_COLOUR( '', #276 );
#249 = VERTEX_POINT( '', #277 );
#250 = CIRCLE( '', #278, 3.70000000000000 );
#251 = FILL_AREA_STYLE_COLOUR( '', #279 );
#252 = VERTEX_POINT( '', #280 );
#253 = CIRCLE( '', #281, 5.60000000000000 );
#254 = VERTEX_POINT( '', #282 );
#255 = CIRCLE( '', #283, 5.60000000000000 );
#256 = FILL_AREA_STYLE_COLOUR( '', #284 );
#257 = FILL_AREA_STYLE_COLOUR( '', #285 );
#258 = FILL_AREA_STYLE_COLOUR( '', #286 );
#259 = COLOUR_RGB( '', 0.200000002980232, 0.200000002980232, 0.200000002980232 );
#260 = CARTESIAN_POINT( '', ( 8.55000000000000, 0.000000000000000, 3.40000000000000 ) );
#261 = AXIS2_PLACEMENT_3D( '', #287, #288, #289 );
#262 = COLOUR_RGB( '', 0.200000002980232, 0.200000002980232, 0.200000002980232 );
#263 = CARTESIAN_POINT( '', ( 8.85000000000000, 0.000000000000000, 3.10000000000000 ) );
#264 = AXIS2_PLACEMENT_3D( '', #290, #291, #292 );
#265 = COLOUR_RGB( '', 0.200000002980232, 0.200000002980232, 0.200000002980232 );
#266 = CARTESIAN_POINT( '', ( 6.40000000000000, 0.000000000000000, 0.000000000000000 ) );
#267 = AXIS2_PLACEMENT_3D( '', #293, #294, #295 );
#268 = CARTESIAN_POINT( '', ( 3.70000000000000, 0.000000000000000, 0.000000000000000 ) );
#269 = AXIS2_PLACEMENT_3D( '', #296, #297, #298 );
#270 = COLOUR_RGB( '', 0.200000002980232, 0.200000002980232, 0.200000002980232 );
#271 = CARTESIAN_POINT( '', ( -6.40000000000000, 0.000000000000000, 1.30000000000000 ) );
#272 = AXIS2_PLACEMENT_3D( '', #299, #300, #301 );
#273 = CARTESIAN_POINT( '', ( -6.20000000000000, 0.000000000000000, 1.50000000000000 ) );
#274 = AXIS2_PLACEMENT_3D( '', #302, #303, #304 );
#275 = COLOUR_RGB( '', 0.200000002980232, 0.200000002980232, 0.200000002980232 );
#276 = COLOUR_RGB( '', 0.200000002980232, 0.200000002980232, 0.200000002980232 );
#277 = CARTESIAN_POINT( '', ( 3.70000000000000, 0.000000000000000, 3.00000000000000 ) );
#278 = AXIS2_PLACEMENT_3D( '', #305, #306, #307 );
#279 = COLOUR_RGB( '', 0.200000002980232, 0.200000002980232, 0.200000002980232 );
#280 = CARTESIAN_POINT( '', ( 5.60000000000000, 0.000000000000000, 3.10000000000000 ) );
#281 = AXIS2_PLACEMENT_3D( '', #308, #309, #310 );
#282 = CARTESIAN_POINT( '', ( 5.60000000000000, 0.000000000000000, 1.50000000000000 ) );
#283 = AXIS2_PLACEMENT_3D( '', #311, #312, #313 );
#284 = COLOUR_RGB( '', 0.200000002980232, 0.200000002980232, 0.200000002980232 );
#285 = COLOUR_RGB( '', 0.200000002980232, 0.200000002980232, 0.200000002980232 );
#286 = COLOUR_RGB( '', 0.200000002980232, 0.200000002980232, 0.200000002980232 );
#287 = CARTESIAN_POINT( '', ( 0.000000000000000, 0.000000000000000, 3.40000000000000 ) );
#288 = DIRECTION( '', ( 0.000000000000000, 0.000000000000000, 1.00000000000000 ) );
#289 = DIRECTION( '', ( 1.00000000000000, 0.000000000000000, 0.000000000000000 ) );
#290 = CARTESIAN_POINT( '', ( 0.000000000000000, 0.000000000000000, 3.10000000000000 ) );
#291 = DIRECTION( '', ( 0.000000000000000, 0.000000000000000, 1.00000000000000 ) );
#292 = DIRECTION( '', ( 1.00000000000000, 0.000000000000000, 0.000000000000000 ) );
#293 = CARTESIAN_POINT( '', ( 0.000000000000000, 0.000000000000000, 0.000000000000000 ) );
#294 = DIRECTION( '', ( 0.000000000000000, 0.000000000000000, 1.00000000000000 ) );
#295 = DIRECTION( '', ( 1.00000000000000, 0.000000000000000, 0.000000000000000 ) );
#296 = CARTESIAN_POINT( '', ( 0.000000000000000, 0.000000000000000, 0.000000000000000 ) );
#297 = DIRECTION( '', ( 0.000000000000000, 0.000000000000000, 1.00000000000000 ) );
#298 = DIRECTION( '', ( 1.00000000000000, 0.000000000000000, 0.000000000000000 ) );
#299 = CARTESIAN_POINT( '', ( 0.000000000000000, 0.000000000000000, 1.30000000000000 ) );
#300 = DIRECTION( '', ( 0.000000000000000, 0.000000000000000, -1.00000000000000 ) );
#301 = DIRECTION( '', ( -1.00000000000000, 0.000000000000000, 0.000000000000000 ) );
#302 = CARTESIAN_POINT( '', ( 0.000000000000000, 0.000000000000000, 1.50000000000000 ) );
#303 = DIRECTION( '', ( 0.000000000000000, 0.000000000000000, -1.00000000000000 ) );
#304 = DIRECTION( '', ( -1.00000000000000, 0.000000000000000, 0.000000000000000 ) );
#305 = CARTESIAN_POINT( '', ( 0.000000000000000, 0.000000000000000, 3.00000000000000 ) );
#306 = DIRECTION( '', ( 0.000000000000000, 0.000000000000000, 1.00000000000000 ) );
#307 = DIRECTION( '', ( 1.00000000000000, 0.000000000000000, 0.000000000000000 ) );
#308 = CARTESIAN_POINT( '', ( 0.000000000000000, 0.000000000000000, 3.10000000000000 ) );
#309 = DIRECTION( '', ( 0.000000000000000, 0.000000000000000, 1.00000000000000 ) );
#310 = DIRECTION( '', ( 1.00000000000000, 0.000000000000000, 0.000000000000000 ) );
#311 = CARTESIAN_POINT( '', ( 0.000000000000000, 0.000000000000000, 1.50000000000000 ) );
#312 = DIRECTION( '', ( 0.000000000000000, 0.000000000000000, 1.00000000000000 ) );
#313 = DIRECTION( '', ( 1.00000000000000, 0.000000000000000, 0.000000000000000 ) );
ENDSEC;
END-ISO-10303-21;
