ISO-10303-21;
HEADER;
FILE_DESCRIPTION( ( 'Unknown' ), '1' );
FILE_NAME( '//SBS2003/HD_Usb/Disegni/08_LIB/Users_3D/PROD_GAMM_3D/TPFL/7372738.stp', 'Unknown', ( 'Unknown' ), ( 'Unknown' ), 'PSStep 14.0', 'Unknown', '  ' );
FILE_SCHEMA( ( 'AUTOMOTIVE_DESIGN { 1 0 10303 214 1 1 1 1 }' ) );
ENDSEC;
DATA;
#1 = MECHANICAL_DESIGN_GEOMETRIC_PRESENTATION_REPRESENTATION( ' ', ( #10, #11, #12, #13, #14, #15, #16, #17, #18, #19 ), #6 );
#2 = PRODUCT_DEFINITION_CONTEXT( '', #20, 'design' );
#3 = APPLICATION_PROTOCOL_DEFINITION( 'international standard', 'automotive_design', 2001, #20 );
#4 = PRODUCT_CATEGORY_RELATIONSHIP( 'NONE', 'NONE', #21, #22 );
#5 = SHAPE_DEFINITION_REPRESENTATION( #23, #24 );
#6 =  ( GEOMETRIC_REPRESENTATION_CONTEXT( 3 )GLOBAL_UNCERTAINTY_ASSIGNED_CONTEXT( ( #27 ) )GLOBAL_UNIT_ASSIGNED_CONTEXT( ( #29, #30, #31 ) )REPRESENTATION_CONTEXT( 'NONE', 'WORKSPACE' ) );
#10 = STYLED_ITEM( '', ( #33 ), #34 );
#11 = STYLED_ITEM( '', ( #35 ), #36 );
#12 = STYLED_ITEM( '', ( #37 ), #38 );
#13 = STYLED_ITEM( '', ( #39 ), #40 );
#14 = STYLED_ITEM( '', ( #41 ), #42 );
#15 = STYLED_ITEM( '', ( #43 ), #44 );
#16 = STYLED_ITEM( '', ( #45 ), #46 );
#17 = STYLED_ITEM( '', ( #47 ), #48 );
#18 = STYLED_ITEM( '', ( #49 ), #50 );
#19 = STYLED_ITEM( '', ( #51 ), #52 );
#20 = APPLICATION_CONTEXT( 'core data for automotive mechanical design processes' );
#21 = PRODUCT_CATEGORY( 'part', 'NONE' );
#22 = PRODUCT_RELATED_PRODUCT_CATEGORY( 'detail', ' ', ( #53 ) );
#23 = PRODUCT_DEFINITION_SHAPE( 'NONE', 'NONE', #54 );
#24 = ADVANCED_BREP_SHAPE_REPRESENTATION( '1', ( #55, #56 ), #6 );
#27 = UNCERTAINTY_MEASURE_WITH_UNIT( LENGTH_MEASURE( 0.00100000000000000 ), #29, '', '' );
#29 =  ( CONVERSION_BASED_UNIT( 'MILLIMETRE', #59 )LENGTH_UNIT(  )NAMED_UNIT( #62 ) );
#30 =  ( NAMED_UNIT( #64 )PLANE_ANGLE_UNIT(  )SI_UNIT( $, .RADIAN. ) );
#31 =  ( NAMED_UNIT( #64 )SI_UNIT( $, .STERADIAN. )SOLID_ANGLE_UNIT(  ) );
#33 = PRESENTATION_STYLE_ASSIGNMENT( ( #70 ) );
#34 = ADVANCED_FACE( '', ( #71, #72 ), #73, .T. );
#35 = PRESENTATION_STYLE_ASSIGNMENT( ( #74 ) );
#36 = ADVANCED_FACE( '', ( #75, #76 ), #77, .F. );
#37 = PRESENTATION_STYLE_ASSIGNMENT( ( #78 ) );
#38 = ADVANCED_FACE( '', ( #79 ), #80, .T. );
#39 = PRESENTATION_STYLE_ASSIGNMENT( ( #81 ) );
#40 = ADVANCED_FACE( '', ( #82, #83 ), #84, .F. );
#41 = PRESENTATION_STYLE_ASSIGNMENT( ( #85 ) );
#42 = ADVANCED_FACE( '', ( #86, #87 ), #88, .T. );
#43 = PRESENTATION_STYLE_ASSIGNMENT( ( #89 ) );
#44 = ADVANCED_FACE( '', ( #90, #91 ), #92, .T. );
#45 = PRESENTATION_STYLE_ASSIGNMENT( ( #93 ) );
#46 = ADVANCED_FACE( '', ( #94, #95 ), #96, .T. );
#47 = PRESENTATION_STYLE_ASSIGNMENT( ( #97 ) );
#48 = ADVANCED_FACE( '', ( #98, #99 ), #100, .F. );
#49 = PRESENTATION_STYLE_ASSIGNMENT( ( #101 ) );
#50 = ADVANCED_FACE( '', ( #102 ), #103, .F. );
#51 = PRESENTATION_STYLE_ASSIGNMENT( ( #104 ) );
#52 = ADVANCED_FACE( '', ( #105, #106 ), #107, .F. );
#53 = PRODUCT( '1', '1', 'PART-1-DESC', ( #108 ) );
#54 = PRODUCT_DEFINITION( 'NONE', 'NONE', #109, #2 );
#55 = MANIFOLD_SOLID_BREP( '1', #110 );
#56 = AXIS2_PLACEMENT_3D( '', #111, #112, #113 );
#59 = LENGTH_MEASURE_WITH_UNIT( LENGTH_MEASURE( 1.00000000000000 ), #114 );
#62 = DIMENSIONAL_EXPONENTS( 1.00000000000000, 0.000000000000000, 0.000000000000000, 0.000000000000000, 0.000000000000000, 0.000000000000000, 0.000000000000000 );
#64 = DIMENSIONAL_EXPONENTS( 0.000000000000000, 0.000000000000000, 0.000000000000000, 0.000000000000000, 0.000000000000000, 0.000000000000000, 0.000000000000000 );
#70 = SURFACE_STYLE_USAGE( .BOTH., #115 );
#71 = FACE_BOUND( '', #116, .T. );
#72 = FACE_OUTER_BOUND( '', #117, .T. );
#73 = CONICAL_SURFACE( '', #118, 16.0000000000000, 0.785398163397443 );
#74 = SURFACE_STYLE_USAGE( .BOTH., #119 );
#75 = FACE_OUTER_BOUND( '', #120, .T. );
#76 = FACE_BOUND( '', #121, .T. );
#77 = PLANE( '', #122 );
#78 = SURFACE_STYLE_USAGE( .BOTH., #123 );
#79 = FACE_OUTER_BOUND( '', #124, .T. );
#80 = SPHERICAL_SURFACE( '', #125, 32.1097560975610 );
#81 = SURFACE_STYLE_USAGE( .BOTH., #126 );
#82 = FACE_OUTER_BOUND( '', #127, .T. );
#83 = FACE_BOUND( '', #128, .T. );
#84 = PLANE( '', #129 );
#85 = SURFACE_STYLE_USAGE( .BOTH., #130 );
#86 = FACE_OUTER_BOUND( '', #131, .T. );
#87 = FACE_OUTER_BOUND( '', #132, .T. );
#88 = TOROIDAL_SURFACE( '', #133, 13.8500000000000, 0.300000000000000 );
#89 = SURFACE_STYLE_USAGE( .BOTH., #134 );
#90 = FACE_OUTER_BOUND( '', #135, .T. );
#91 = FACE_OUTER_BOUND( '', #136, .T. );
#92 = CYLINDRICAL_SURFACE( '', #137, 12.7000000000000 );
#93 = SURFACE_STYLE_USAGE( .BOTH., #138 );
#94 = FACE_OUTER_BOUND( '', #139, .T. );
#95 = FACE_OUTER_BOUND( '', #140, .T. );
#96 = CYLINDRICAL_SURFACE( '', #141, 14.1500000000000 );
#97 = SURFACE_STYLE_USAGE( .BOTH., #142 );
#98 = FACE_OUTER_BOUND( '', #143, .T. );
#99 = FACE_BOUND( '', #144, .T. );
#100 = PLANE( '', #145 );
#101 = SURFACE_STYLE_USAGE( .BOTH., #146 );
#102 = FACE_OUTER_BOUND( '', #147, .T. );
#103 = PLANE( '', #148 );
#104 = SURFACE_STYLE_USAGE( .BOTH., #149 );
#105 = FACE_OUTER_BOUND( '', #150, .T. );
#106 = FACE_OUTER_BOUND( '', #151, .T. );
#107 = CYLINDRICAL_SURFACE( '', #152, 8.75000000000000 );
#108 = PRODUCT_CONTEXT( '', #20, 'mechanical' );
#109 = PRODUCT_DEFINITION_FORMATION_WITH_SPECIFIED_SOURCE( ' ', 'NONE', #53, .NOT_KNOWN. );
#110 = CLOSED_SHELL( '', ( #52, #42, #50, #38, #34, #48, #46, #36, #44, #40 ) );
#111 = CARTESIAN_POINT( '', ( 0.000000000000000, 0.000000000000000, 0.000000000000000 ) );
#112 = DIRECTION( '', ( 0.000000000000000, 0.000000000000000, 1.00000000000000 ) );
#113 = DIRECTION( '', ( 1.00000000000000, 0.000000000000000, 0.000000000000000 ) );
#114 =  ( LENGTH_UNIT(  )NAMED_UNIT( #62 )SI_UNIT( .MILLI., .METRE. ) );
#115 = SURFACE_SIDE_STYLE( '', ( #154 ) );
#116 = EDGE_LOOP( '', ( #155 ) );
#117 = EDGE_LOOP( '', ( #156 ) );
#118 = AXIS2_PLACEMENT_3D( '', #157, #158, #159 );
#119 = SURFACE_SIDE_STYLE( '', ( #160 ) );
#120 = EDGE_LOOP( '', ( #161 ) );
#121 = EDGE_LOOP( '', ( #162 ) );
#122 = AXIS2_PLACEMENT_3D( '', #163, #164, #165 );
#123 = SURFACE_SIDE_STYLE( '', ( #166 ) );
#124 = EDGE_LOOP( '', ( #167 ) );
#125 = AXIS2_PLACEMENT_3D( '', #168, #169, #170 );
#126 = SURFACE_SIDE_STYLE( '', ( #171 ) );
#127 = EDGE_LOOP( '', ( #172 ) );
#128 = EDGE_LOOP( '', ( #173 ) );
#129 = AXIS2_PLACEMENT_3D( '', #174, #175, #176 );
#130 = SURFACE_SIDE_STYLE( '', ( #177 ) );
#131 = EDGE_LOOP( '', ( #178 ) );
#132 = EDGE_LOOP( '', ( #179 ) );
#133 = AXIS2_PLACEMENT_3D( '', #180, #181, #182 );
#134 = SURFACE_SIDE_STYLE( '', ( #183 ) );
#135 = EDGE_LOOP( '', ( #184 ) );
#136 = EDGE_LOOP( '', ( #185 ) );
#137 = AXIS2_PLACEMENT_3D( '', #186, #187, #188 );
#138 = SURFACE_SIDE_STYLE( '', ( #189 ) );
#139 = EDGE_LOOP( '', ( #190 ) );
#140 = EDGE_LOOP( '', ( #191 ) );
#141 = AXIS2_PLACEMENT_3D( '', #192, #193, #194 );
#142 = SURFACE_SIDE_STYLE( '', ( #195 ) );
#143 = EDGE_LOOP( '', ( #196 ) );
#144 = EDGE_LOOP( '', ( #197 ) );
#145 = AXIS2_PLACEMENT_3D( '', #198, #199, #200 );
#146 = SURFACE_SIDE_STYLE( '', ( #201 ) );
#147 = EDGE_LOOP( '', ( #202 ) );
#148 = AXIS2_PLACEMENT_3D( '', #203, #204, #205 );
#149 = SURFACE_SIDE_STYLE( '', ( #206 ) );
#150 = EDGE_LOOP( '', ( #207 ) );
#151 = EDGE_LOOP( '', ( #208 ) );
#152 = AXIS2_PLACEMENT_3D( '', #209, #210, #211 );
#154 = SURFACE_STYLE_FILL_AREA( #212 );
#155 = ORIENTED_EDGE( '', *, *, #213, .F. );
#156 = ORIENTED_EDGE( '', *, *, #214, .T. );
#157 = CARTESIAN_POINT( '', ( 0.000000000000000, 0.000000000000000, 4.60000000000000 ) );
#158 = DIRECTION( '', ( -0.000000000000000, 0.000000000000000, -1.00000000000000 ) );
#159 = DIRECTION( '', ( -1.00000000000000, 0.000000000000000, 0.000000000000000 ) );
#160 = SURFACE_STYLE_FILL_AREA( #215 );
#161 = ORIENTED_EDGE( '', *, *, #216, .T. );
#162 = ORIENTED_EDGE( '', *, *, #217, .F. );
#163 = CARTESIAN_POINT( '', ( 14.1500000000000, 0.000000000000000, 3.00000000000000 ) );
#164 = DIRECTION( '', ( 0.000000000000000, 0.000000000000000, -1.00000000000000 ) );
#165 = DIRECTION( '', ( -1.00000000000000, 0.000000000000000, 0.000000000000000 ) );
#166 = SURFACE_STYLE_FILL_AREA( #218 );
#167 = ORIENTED_EDGE( '', *, *, #213, .T. );
#168 = CARTESIAN_POINT( '', ( 3.43020581497761E-015, 0.000000000000000, -23.1097560975609 ) );
#169 = DIRECTION( '', ( 0.000000000000000, 0.000000000000000, 1.00000000000000 ) );
#170 = DIRECTION( '', ( 1.00000000000000, 0.000000000000000, 0.000000000000000 ) );
#171 = SURFACE_STYLE_FILL_AREA( #219 );
#172 = ORIENTED_EDGE( '', *, *, #214, .F. );
#173 = ORIENTED_EDGE( '', *, *, #220, .T. );
#174 = CARTESIAN_POINT( '', ( 12.7000000000000, 0.000000000000000, 4.60000000000000 ) );
#175 = DIRECTION( '', ( 0.000000000000000, 0.000000000000000, 1.00000000000000 ) );
#176 = DIRECTION( '', ( 1.00000000000000, 0.000000000000000, 0.000000000000000 ) );
#177 = SURFACE_STYLE_FILL_AREA( #221 );
#178 = ORIENTED_EDGE( '', *, *, #222, .F. );
#179 = ORIENTED_EDGE( '', *, *, #216, .F. );
#180 = CARTESIAN_POINT( '', ( 0.000000000000000, 0.000000000000000, 2.70000000000000 ) );
#181 = DIRECTION( '', ( 0.000000000000000, 0.000000000000000, -1.00000000000000 ) );
#182 = DIRECTION( '', ( -1.00000000000000, 0.000000000000000, 0.000000000000000 ) );
#183 = SURFACE_STYLE_FILL_AREA( #223 );
#184 = ORIENTED_EDGE( '', *, *, #220, .F. );
#185 = ORIENTED_EDGE( '', *, *, #217, .T. );
#186 = CARTESIAN_POINT( '', ( 0.000000000000000, 0.000000000000000, 57.1500000000000 ) );
#187 = DIRECTION( '', ( -0.000000000000000, -0.000000000000000, -1.00000000000000 ) );
#188 = DIRECTION( '', ( 1.00000000000000, 0.000000000000000, 0.000000000000000 ) );
#189 = SURFACE_STYLE_FILL_AREA( #224 );
#190 = ORIENTED_EDGE( '', *, *, #222, .T. );
#191 = ORIENTED_EDGE( '', *, *, #225, .T. );
#192 = CARTESIAN_POINT( '', ( 0.000000000000000, 0.000000000000000, 57.1500000000000 ) );
#193 = DIRECTION( '', ( -0.000000000000000, -0.000000000000000, -1.00000000000000 ) );
#194 = DIRECTION( '', ( 1.00000000000000, 0.000000000000000, 0.000000000000000 ) );
#195 = SURFACE_STYLE_FILL_AREA( #226 );
#196 = ORIENTED_EDGE( '', *, *, #225, .F. );
#197 = ORIENTED_EDGE( '', *, *, #227, .T. );
#198 = CARTESIAN_POINT( '', ( 8.75000000000000, 0.000000000000000, 0.000000000000000 ) );
#199 = DIRECTION( '', ( 0.000000000000000, 0.000000000000000, 1.00000000000000 ) );
#200 = DIRECTION( '', ( 1.00000000000000, 0.000000000000000, 0.000000000000000 ) );
#201 = SURFACE_STYLE_FILL_AREA( #228 );
#202 = ORIENTED_EDGE( '', *, *, #229, .F. );
#203 = CARTESIAN_POINT( '', ( 8.75000000000000, 0.000000000000000, 4.00000000000000 ) );
#204 = DIRECTION( '', ( 0.000000000000000, 0.000000000000000, 1.00000000000000 ) );
#205 = DIRECTION( '', ( 1.00000000000000, 0.000000000000000, 0.000000000000000 ) );
#206 = SURFACE_STYLE_FILL_AREA( #230 );
#207 = ORIENTED_EDGE( '', *, *, #227, .F. );
#208 = ORIENTED_EDGE( '', *, *, #229, .T. );
#209 = CARTESIAN_POINT( '', ( 0.000000000000000, 0.000000000000000, 57.1500000000000 ) );
#210 = DIRECTION( '', ( -0.000000000000000, -0.000000000000000, -1.00000000000000 ) );
#211 = DIRECTION( '', ( 1.00000000000000, 0.000000000000000, 0.000000000000000 ) );
#212 = FILL_AREA_STYLE( '', ( #231 ) );
#213 = EDGE_CURVE( '', #232, #232, #233, .T. );
#214 = EDGE_CURVE( '', #234, #234, #235, .T. );
#215 = FILL_AREA_STYLE( '', ( #236 ) );
#216 = EDGE_CURVE( '', #237, #237, #238, .F. );
#217 = EDGE_CURVE( '', #239, #239, #240, .T. );
#218 = FILL_AREA_STYLE( '', ( #241 ) );
#219 = FILL_AREA_STYLE( '', ( #242 ) );
#220 = EDGE_CURVE( '', #243, #243, #244, .T. );
#221 = FILL_AREA_STYLE( '', ( #245 ) );
#222 = EDGE_CURVE( '', #246, #246, #247, .T. );
#223 = FILL_AREA_STYLE( '', ( #248 ) );
#224 = FILL_AREA_STYLE( '', ( #249 ) );
#225 = EDGE_CURVE( '', #250, #250, #251, .T. );
#226 = FILL_AREA_STYLE( '', ( #252 ) );
#227 = EDGE_CURVE( '', #253, #253, #254, .T. );
#228 = FILL_AREA_STYLE( '', ( #255 ) );
#229 = EDGE_CURVE( '', #256, #256, #257, .T. );
#230 = FILL_AREA_STYLE( '', ( #258 ) );
#231 = FILL_AREA_STYLE_COLOUR( '', #259 );
#232 = VERTEX_POINT( '', #260 );
#233 = CIRCLE( '', #261, 15.7000000000000 );
#234 = VERTEX_POINT( '', #262 );
#235 = CIRCLE( '', #263, 16.0000000000000 );
#236 = FILL_AREA_STYLE_COLOUR( '', #264 );
#237 = VERTEX_POINT( '', #265 );
#238 = CIRCLE( '', #266, 13.8500000000000 );
#239 = VERTEX_POINT( '', #267 );
#240 = CIRCLE( '', #268, 12.7000000000000 );
#241 = FILL_AREA_STYLE_COLOUR( '', #269 );
#242 = FILL_AREA_STYLE_COLOUR( '', #270 );
#243 = VERTEX_POINT( '', #271 );
#244 = CIRCLE( '', #272, 12.7000000000000 );
#245 = FILL_AREA_STYLE_COLOUR( '', #273 );
#246 = VERTEX_POINT( '', #274 );
#247 = CIRCLE( '', #275, 14.1500000000000 );
#248 = FILL_AREA_STYLE_COLOUR( '', #276 );
#249 = FILL_AREA_STYLE_COLOUR( '', #277 );
#250 = VERTEX_POINT( '', #278 );
#251 = CIRCLE( '', #279, 14.1500000000000 );
#252 = FILL_AREA_STYLE_COLOUR( '', #280 );
#253 = VERTEX_POINT( '', #281 );
#254 = CIRCLE( '', #282, 8.75000000000000 );
#255 = FILL_AREA_STYLE_COLOUR( '', #283 );
#256 = VERTEX_POINT( '', #284 );
#257 = CIRCLE( '', #285, 8.75000000000000 );
#258 = FILL_AREA_STYLE_COLOUR( '', #286 );
#259 = COLOUR_RGB( '', 0.200000002980232, 0.200000002980232, 0.200000002980232 );
#260 = CARTESIAN_POINT( '', ( 15.7000000000000, 0.000000000000000, 4.90000000000000 ) );
#261 = AXIS2_PLACEMENT_3D( '', #287, #288, #289 );
#262 = CARTESIAN_POINT( '', ( 16.0000000000000, 0.000000000000000, 4.60000000000000 ) );
#263 = AXIS2_PLACEMENT_3D( '', #290, #291, #292 );
#264 = COLOUR_RGB( '', 0.200000002980232, 0.200000002980232, 0.200000002980232 );
#265 = CARTESIAN_POINT( '', ( -13.8500000000000, 0.000000000000000, 3.00000000000000 ) );
#266 = AXIS2_PLACEMENT_3D( '', #293, #294, #295 );
#267 = CARTESIAN_POINT( '', ( 12.7000000000000, 0.000000000000000, 3.00000000000000 ) );
#268 = AXIS2_PLACEMENT_3D( '', #296, #297, #298 );
#269 = COLOUR_RGB( '', 0.200000002980232, 0.200000002980232, 0.200000002980232 );
#270 = COLOUR_RGB( '', 0.200000002980232, 0.200000002980232, 0.200000002980232 );
#271 = CARTESIAN_POINT( '', ( 12.7000000000000, 0.000000000000000, 4.60000000000000 ) );
#272 = AXIS2_PLACEMENT_3D( '', #299, #300, #301 );
#273 = COLOUR_RGB( '', 0.200000002980232, 0.200000002980232, 0.200000002980232 );
#274 = CARTESIAN_POINT( '', ( -14.1500000000000, 0.000000000000000, 2.70000000000000 ) );
#275 = AXIS2_PLACEMENT_3D( '', #302, #303, #304 );
#276 = COLOUR_RGB( '', 0.200000002980232, 0.200000002980232, 0.200000002980232 );
#277 = COLOUR_RGB( '', 0.200000002980232, 0.200000002980232, 0.200000002980232 );
#278 = CARTESIAN_POINT( '', ( 14.1500000000000, 0.000000000000000, 0.000000000000000 ) );
#279 = AXIS2_PLACEMENT_3D( '', #305, #306, #307 );
#280 = COLOUR_RGB( '', 0.200000002980232, 0.200000002980232, 0.200000002980232 );
#281 = CARTESIAN_POINT( '', ( 8.75000000000000, 0.000000000000000, 0.000000000000000 ) );
#282 = AXIS2_PLACEMENT_3D( '', #308, #309, #310 );
#283 = COLOUR_RGB( '', 0.200000002980232, 0.200000002980232, 0.200000002980232 );
#284 = CARTESIAN_POINT( '', ( 8.75000000000000, 0.000000000000000, 4.00000000000000 ) );
#285 = AXIS2_PLACEMENT_3D( '', #311, #312, #313 );
#286 = COLOUR_RGB( '', 0.200000002980232, 0.200000002980232, 0.200000002980232 );
#287 = CARTESIAN_POINT( '', ( 0.000000000000000, 0.000000000000000, 4.90000000000000 ) );
#288 = DIRECTION( '', ( 0.000000000000000, 0.000000000000000, 1.00000000000000 ) );
#289 = DIRECTION( '', ( 1.00000000000000, 0.000000000000000, 0.000000000000000 ) );
#290 = CARTESIAN_POINT( '', ( 0.000000000000000, 0.000000000000000, 4.60000000000000 ) );
#291 = DIRECTION( '', ( 0.000000000000000, 0.000000000000000, 1.00000000000000 ) );
#292 = DIRECTION( '', ( 1.00000000000000, 0.000000000000000, 0.000000000000000 ) );
#293 = CARTESIAN_POINT( '', ( 0.000000000000000, 0.000000000000000, 3.00000000000000 ) );
#294 = DIRECTION( '', ( 0.000000000000000, 0.000000000000000, -1.00000000000000 ) );
#295 = DIRECTION( '', ( -1.00000000000000, 0.000000000000000, 0.000000000000000 ) );
#296 = CARTESIAN_POINT( '', ( 0.000000000000000, 0.000000000000000, 3.00000000000000 ) );
#297 = DIRECTION( '', ( 0.000000000000000, 0.000000000000000, 1.00000000000000 ) );
#298 = DIRECTION( '', ( 1.00000000000000, 0.000000000000000, 0.000000000000000 ) );
#299 = CARTESIAN_POINT( '', ( 0.000000000000000, 0.000000000000000, 4.60000000000000 ) );
#300 = DIRECTION( '', ( 0.000000000000000, 0.000000000000000, 1.00000000000000 ) );
#301 = DIRECTION( '', ( 1.00000000000000, 0.000000000000000, 0.000000000000000 ) );
#302 = CARTESIAN_POINT( '', ( 0.000000000000000, 0.000000000000000, 2.70000000000000 ) );
#303 = DIRECTION( '', ( 0.000000000000000, 0.000000000000000, -1.00000000000000 ) );
#304 = DIRECTION( '', ( -1.00000000000000, 0.000000000000000, 0.000000000000000 ) );
#305 = CARTESIAN_POINT( '', ( 0.000000000000000, 0.000000000000000, 0.000000000000000 ) );
#306 = DIRECTION( '', ( 0.000000000000000, 0.000000000000000, 1.00000000000000 ) );
#307 = DIRECTION( '', ( 1.00000000000000, 0.000000000000000, 0.000000000000000 ) );
#308 = CARTESIAN_POINT( '', ( 0.000000000000000, 0.000000000000000, 0.000000000000000 ) );
#309 = DIRECTION( '', ( 0.000000000000000, 0.000000000000000, 1.00000000000000 ) );
#310 = DIRECTION( '', ( 1.00000000000000, 0.000000000000000, 0.000000000000000 ) );
#311 = CARTESIAN_POINT( '', ( 0.000000000000000, 0.000000000000000, 4.00000000000000 ) );
#312 = DIRECTION( '', ( 0.000000000000000, 0.000000000000000, 1.00000000000000 ) );
#313 = DIRECTION( '', ( 1.00000000000000, 0.000000000000000, 0.000000000000000 ) );
ENDSEC;
END-ISO-10303-21;
