ISO-10303-21;
HEADER;
FILE_DESCRIPTION( ( 'Unknown' ), '1' );
FILE_NAME( '//SBS2003/HD_Usb/Disegni/08_LIB/Users_3D/PROD_GAMM_3D/TPFL/7372748.stp', 'Unknown', ( 'Unknown' ), ( 'Unknown' ), 'PSStep 14.0', 'Unknown', '  ' );
FILE_SCHEMA( ( 'AUTOMOTIVE_DESIGN { 1 0 10303 214 1 1 1 1 }' ) );
ENDSEC;
DATA;
#1 = MECHANICAL_DESIGN_GEOMETRIC_PRESENTATION_REPRESENTATION( ' ', ( #10, #11, #12, #13, #14, #15, #16, #17, #18, #19 ), #6 );
#2 = PRODUCT_DEFINITION_CONTEXT( '', #20, 'design' );
#3 = APPLICATION_PROTOCOL_DEFINITION( 'international standard', 'automotive_design', 2001, #20 );
#4 = PRODUCT_CATEGORY_RELATIONSHIP( 'NONE', 'NONE', #21, #22 );
#5 = SHAPE_DEFINITION_REPRESENTATION( #23, #24 );
#6 =  ( GEOMETRIC_REPRESENTATION_CONTEXT( 3 )GLOBAL_UNCERTAINTY_ASSIGNED_CONTEXT( ( #27 ) )GLOBAL_UNIT_ASSIGNED_CONTEXT( ( #29, #30, #31 ) )REPRESENTATION_CONTEXT( 'NONE', 'WORKSPACE' ) );
#10 = STYLED_ITEM( '', ( #33 ), #34 );
#11 = STYLED_ITEM( '', ( #35 ), #36 );
#12 = STYLED_ITEM( '', ( #37 ), #38 );
#13 = STYLED_ITEM( '', ( #39 ), #40 );
#14 = STYLED_ITEM( '', ( #41 ), #42 );
#15 = STYLED_ITEM( '', ( #43 ), #44 );
#16 = STYLED_ITEM( '', ( #45 ), #46 );
#17 = STYLED_ITEM( '', ( #47 ), #48 );
#18 = STYLED_ITEM( '', ( #49 ), #50 );
#19 = STYLED_ITEM( '', ( #51 ), #52 );
#20 = APPLICATION_CONTEXT( 'core data for automotive mechanical design processes' );
#21 = PRODUCT_CATEGORY( 'part', 'NONE' );
#22 = PRODUCT_RELATED_PRODUCT_CATEGORY( 'detail', ' ', ( #53 ) );
#23 = PRODUCT_DEFINITION_SHAPE( 'NONE', 'NONE', #54 );
#24 = ADVANCED_BREP_SHAPE_REPRESENTATION( '1', ( #55, #56 ), #6 );
#27 = UNCERTAINTY_MEASURE_WITH_UNIT( LENGTH_MEASURE( 0.00100000000000000 ), #29, '', '' );
#29 =  ( CONVERSION_BASED_UNIT( 'MILLIMETRE', #59 )LENGTH_UNIT(  )NAMED_UNIT( #62 ) );
#30 =  ( NAMED_UNIT( #64 )PLANE_ANGLE_UNIT(  )SI_UNIT( $, .RADIAN. ) );
#31 =  ( NAMED_UNIT( #64 )SI_UNIT( $, .STERADIAN. )SOLID_ANGLE_UNIT(  ) );
#33 = PRESENTATION_STYLE_ASSIGNMENT( ( #70 ) );
#34 = ADVANCED_FACE( '', ( #71, #72 ), #73, .T. );
#35 = PRESENTATION_STYLE_ASSIGNMENT( ( #74 ) );
#36 = ADVANCED_FACE( '', ( #75, #76 ), #77, .F. );
#37 = PRESENTATION_STYLE_ASSIGNMENT( ( #78 ) );
#38 = ADVANCED_FACE( '', ( #79, #80 ), #81, .F. );
#39 = PRESENTATION_STYLE_ASSIGNMENT( ( #82 ) );
#40 = ADVANCED_FACE( '', ( #83, #84 ), #85, .T. );
#41 = PRESENTATION_STYLE_ASSIGNMENT( ( #86 ) );
#42 = ADVANCED_FACE( '', ( #87, #88 ), #89, .T. );
#43 = PRESENTATION_STYLE_ASSIGNMENT( ( #90 ) );
#44 = ADVANCED_FACE( '', ( #91, #92 ), #93, .F. );
#45 = PRESENTATION_STYLE_ASSIGNMENT( ( #94 ) );
#46 = ADVANCED_FACE( '', ( #95, #96 ), #97, .T. );
#47 = PRESENTATION_STYLE_ASSIGNMENT( ( #98 ) );
#48 = ADVANCED_FACE( '', ( #99 ), #100, .T. );
#49 = PRESENTATION_STYLE_ASSIGNMENT( ( #101 ) );
#50 = ADVANCED_FACE( '', ( #102, #103 ), #104, .F. );
#51 = PRESENTATION_STYLE_ASSIGNMENT( ( #105 ) );
#52 = ADVANCED_FACE( '', ( #106 ), #107, .F. );
#53 = PRODUCT( '1', '1', 'PART-1-DESC', ( #108 ) );
#54 = PRODUCT_DEFINITION( 'NONE', 'NONE', #109, #2 );
#55 = MANIFOLD_SOLID_BREP( '1', #110 );
#56 = AXIS2_PLACEMENT_3D( '', #111, #112, #113 );
#59 = LENGTH_MEASURE_WITH_UNIT( LENGTH_MEASURE( 1.00000000000000 ), #114 );
#62 = DIMENSIONAL_EXPONENTS( 1.00000000000000, 0.000000000000000, 0.000000000000000, 0.000000000000000, 0.000000000000000, 0.000000000000000, 0.000000000000000 );
#64 = DIMENSIONAL_EXPONENTS( 0.000000000000000, 0.000000000000000, 0.000000000000000, 0.000000000000000, 0.000000000000000, 0.000000000000000, 0.000000000000000 );
#70 = SURFACE_STYLE_USAGE( .BOTH., #115 );
#71 = FACE_OUTER_BOUND( '', #116, .T. );
#72 = FACE_OUTER_BOUND( '', #117, .T. );
#73 = CYLINDRICAL_SURFACE( '', #118, 15.7500000000000 );
#74 = SURFACE_STYLE_USAGE( .BOTH., #119 );
#75 = FACE_OUTER_BOUND( '', #120, .T. );
#76 = FACE_BOUND( '', #121, .T. );
#77 = PLANE( '', #122 );
#78 = SURFACE_STYLE_USAGE( .BOTH., #123 );
#79 = FACE_OUTER_BOUND( '', #124, .T. );
#80 = FACE_BOUND( '', #125, .T. );
#81 = PLANE( '', #126 );
#82 = SURFACE_STYLE_USAGE( .BOTH., #127 );
#83 = FACE_BOUND( '', #128, .T. );
#84 = FACE_OUTER_BOUND( '', #129, .T. );
#85 = CONICAL_SURFACE( '', #130, 19.1000000000000, 0.785398163397448 );
#86 = SURFACE_STYLE_USAGE( .BOTH., #131 );
#87 = FACE_OUTER_BOUND( '', #132, .T. );
#88 = FACE_OUTER_BOUND( '', #133, .T. );
#89 = CYLINDRICAL_SURFACE( '', #134, 17.7000000000000 );
#90 = SURFACE_STYLE_USAGE( .BOTH., #135 );
#91 = FACE_OUTER_BOUND( '', #136, .T. );
#92 = FACE_BOUND( '', #137, .T. );
#93 = PLANE( '', #138 );
#94 = SURFACE_STYLE_USAGE( .BOTH., #139 );
#95 = FACE_OUTER_BOUND( '', #140, .T. );
#96 = FACE_OUTER_BOUND( '', #141, .T. );
#97 = TOROIDAL_SURFACE( '', #142, 17.4000000000000, 0.300000000000000 );
#98 = SURFACE_STYLE_USAGE( .BOTH., #143 );
#99 = FACE_OUTER_BOUND( '', #144, .T. );
#100 = SPHERICAL_SURFACE( '', #145, 45.1524390243902 );
#101 = SURFACE_STYLE_USAGE( .BOTH., #146 );
#102 = FACE_OUTER_BOUND( '', #147, .T. );
#103 = FACE_OUTER_BOUND( '', #148, .T. );
#104 = CYLINDRICAL_SURFACE( '', #149, 11.7500000000000 );
#105 = SURFACE_STYLE_USAGE( .BOTH., #150 );
#106 = FACE_OUTER_BOUND( '', #151, .T. );
#107 = PLANE( '', #152 );
#108 = PRODUCT_CONTEXT( '', #20, 'mechanical' );
#109 = PRODUCT_DEFINITION_FORMATION_WITH_SPECIFIED_SOURCE( ' ', 'NONE', #53, .NOT_KNOWN. );
#110 = CLOSED_SHELL( '', ( #50, #46, #52, #48, #40, #38, #42, #44, #34, #36 ) );
#111 = CARTESIAN_POINT( '', ( 0.000000000000000, 0.000000000000000, 0.000000000000000 ) );
#112 = DIRECTION( '', ( 0.000000000000000, 0.000000000000000, 1.00000000000000 ) );
#113 = DIRECTION( '', ( 1.00000000000000, 0.000000000000000, 0.000000000000000 ) );
#114 =  ( LENGTH_UNIT(  )NAMED_UNIT( #62 )SI_UNIT( .MILLI., .METRE. ) );
#115 = SURFACE_SIDE_STYLE( '', ( #154 ) );
#116 = EDGE_LOOP( '', ( #155 ) );
#117 = EDGE_LOOP( '', ( #156 ) );
#118 = AXIS2_PLACEMENT_3D( '', #157, #158, #159 );
#119 = SURFACE_SIDE_STYLE( '', ( #160 ) );
#120 = EDGE_LOOP( '', ( #161 ) );
#121 = EDGE_LOOP( '', ( #162 ) );
#122 = AXIS2_PLACEMENT_3D( '', #163, #164, #165 );
#123 = SURFACE_SIDE_STYLE( '', ( #166 ) );
#124 = EDGE_LOOP( '', ( #167 ) );
#125 = EDGE_LOOP( '', ( #168 ) );
#126 = AXIS2_PLACEMENT_3D( '', #169, #170, #171 );
#127 = SURFACE_SIDE_STYLE( '', ( #172 ) );
#128 = EDGE_LOOP( '', ( #173 ) );
#129 = EDGE_LOOP( '', ( #174 ) );
#130 = AXIS2_PLACEMENT_3D( '', #175, #176, #177 );
#131 = SURFACE_SIDE_STYLE( '', ( #178 ) );
#132 = EDGE_LOOP( '', ( #179 ) );
#133 = EDGE_LOOP( '', ( #180 ) );
#134 = AXIS2_PLACEMENT_3D( '', #181, #182, #183 );
#135 = SURFACE_SIDE_STYLE( '', ( #184 ) );
#136 = EDGE_LOOP( '', ( #185 ) );
#137 = EDGE_LOOP( '', ( #186 ) );
#138 = AXIS2_PLACEMENT_3D( '', #187, #188, #189 );
#139 = SURFACE_SIDE_STYLE( '', ( #190 ) );
#140 = EDGE_LOOP( '', ( #191 ) );
#141 = EDGE_LOOP( '', ( #192 ) );
#142 = AXIS2_PLACEMENT_3D( '', #193, #194, #195 );
#143 = SURFACE_SIDE_STYLE( '', ( #196 ) );
#144 = EDGE_LOOP( '', ( #197 ) );
#145 = AXIS2_PLACEMENT_3D( '', #198, #199, #200 );
#146 = SURFACE_SIDE_STYLE( '', ( #201 ) );
#147 = EDGE_LOOP( '', ( #202 ) );
#148 = EDGE_LOOP( '', ( #203 ) );
#149 = AXIS2_PLACEMENT_3D( '', #204, #205, #206 );
#150 = SURFACE_SIDE_STYLE( '', ( #207 ) );
#151 = EDGE_LOOP( '', ( #208 ) );
#152 = AXIS2_PLACEMENT_3D( '', #209, #210, #211 );
#154 = SURFACE_STYLE_FILL_AREA( #212 );
#155 = ORIENTED_EDGE( '', *, *, #213, .F. );
#156 = ORIENTED_EDGE( '', *, *, #214, .T. );
#157 = CARTESIAN_POINT( '', ( 0.000000000000000, 0.000000000000000, 57.1500000000000 ) );
#158 = DIRECTION( '', ( -0.000000000000000, -0.000000000000000, -1.00000000000000 ) );
#159 = DIRECTION( '', ( 1.00000000000000, 0.000000000000000, 0.000000000000000 ) );
#160 = SURFACE_STYLE_FILL_AREA( #215 );
#161 = ORIENTED_EDGE( '', *, *, #216, .F. );
#162 = ORIENTED_EDGE( '', *, *, #213, .T. );
#163 = CARTESIAN_POINT( '', ( 15.7500000000000, 0.000000000000000, 3.10000000000000 ) );
#164 = DIRECTION( '', ( 0.000000000000000, 0.000000000000000, 1.00000000000000 ) );
#165 = DIRECTION( '', ( 1.00000000000000, 0.000000000000000, 0.000000000000000 ) );
#166 = SURFACE_STYLE_FILL_AREA( #217 );
#167 = ORIENTED_EDGE( '', *, *, #218, .F. );
#168 = ORIENTED_EDGE( '', *, *, #219, .T. );
#169 = CARTESIAN_POINT( '', ( 11.7500000000000, 0.000000000000000, 0.000000000000000 ) );
#170 = DIRECTION( '', ( 0.000000000000000, 0.000000000000000, 1.00000000000000 ) );
#171 = DIRECTION( '', ( 1.00000000000000, 0.000000000000000, 0.000000000000000 ) );
#172 = SURFACE_STYLE_FILL_AREA( #220 );
#173 = ORIENTED_EDGE( '', *, *, #221, .F. );
#174 = ORIENTED_EDGE( '', *, *, #216, .T. );
#175 = CARTESIAN_POINT( '', ( 0.000000000000000, 0.000000000000000, 3.10000000000000 ) );
#176 = DIRECTION( '', ( -0.000000000000000, 0.000000000000000, -1.00000000000000 ) );
#177 = DIRECTION( '', ( -1.00000000000000, 0.000000000000000, 0.000000000000000 ) );
#178 = SURFACE_STYLE_FILL_AREA( #222 );
#179 = ORIENTED_EDGE( '', *, *, #223, .T. );
#180 = ORIENTED_EDGE( '', *, *, #218, .T. );
#181 = CARTESIAN_POINT( '', ( 0.000000000000000, 0.000000000000000, 57.1500000000000 ) );
#182 = DIRECTION( '', ( -0.000000000000000, -0.000000000000000, -1.00000000000000 ) );
#183 = DIRECTION( '', ( 1.00000000000000, 0.000000000000000, 0.000000000000000 ) );
#184 = SURFACE_STYLE_FILL_AREA( #224 );
#185 = ORIENTED_EDGE( '', *, *, #225, .T. );
#186 = ORIENTED_EDGE( '', *, *, #214, .F. );
#187 = CARTESIAN_POINT( '', ( 17.7000000000000, 0.000000000000000, 1.50000000000000 ) );
#188 = DIRECTION( '', ( 0.000000000000000, 0.000000000000000, -1.00000000000000 ) );
#189 = DIRECTION( '', ( -1.00000000000000, 0.000000000000000, 0.000000000000000 ) );
#190 = SURFACE_STYLE_FILL_AREA( #226 );
#191 = ORIENTED_EDGE( '', *, *, #223, .F. );
#192 = ORIENTED_EDGE( '', *, *, #225, .F. );
#193 = CARTESIAN_POINT( '', ( 0.000000000000000, 0.000000000000000, 1.20000000000000 ) );
#194 = DIRECTION( '', ( 0.000000000000000, 0.000000000000000, -1.00000000000000 ) );
#195 = DIRECTION( '', ( -1.00000000000000, 0.000000000000000, 0.000000000000000 ) );
#196 = SURFACE_STYLE_FILL_AREA( #227 );
#197 = ORIENTED_EDGE( '', *, *, #221, .T. );
#198 = CARTESIAN_POINT( '', ( 5.02747380484113E-015, 0.000000000000000, -37.6524390243902 ) );
#199 = DIRECTION( '', ( 0.000000000000000, 0.000000000000000, 1.00000000000000 ) );
#200 = DIRECTION( '', ( 1.00000000000000, 0.000000000000000, 0.000000000000000 ) );
#201 = SURFACE_STYLE_FILL_AREA( #228 );
#202 = ORIENTED_EDGE( '', *, *, #219, .F. );
#203 = ORIENTED_EDGE( '', *, *, #229, .T. );
#204 = CARTESIAN_POINT( '', ( 0.000000000000000, 0.000000000000000, 57.1500000000000 ) );
#205 = DIRECTION( '', ( -0.000000000000000, -0.000000000000000, -1.00000000000000 ) );
#206 = DIRECTION( '', ( 1.00000000000000, 0.000000000000000, 0.000000000000000 ) );
#207 = SURFACE_STYLE_FILL_AREA( #230 );
#208 = ORIENTED_EDGE( '', *, *, #229, .F. );
#209 = CARTESIAN_POINT( '', ( 11.7500000000000, 0.000000000000000, 2.50000000000000 ) );
#210 = DIRECTION( '', ( 0.000000000000000, 0.000000000000000, 1.00000000000000 ) );
#211 = DIRECTION( '', ( 1.00000000000000, 0.000000000000000, 0.000000000000000 ) );
#212 = FILL_AREA_STYLE( '', ( #231 ) );
#213 = EDGE_CURVE( '', #232, #232, #233, .T. );
#214 = EDGE_CURVE( '', #234, #234, #235, .T. );
#215 = FILL_AREA_STYLE( '', ( #236 ) );
#216 = EDGE_CURVE( '', #237, #237, #238, .T. );
#217 = FILL_AREA_STYLE( '', ( #239 ) );
#218 = EDGE_CURVE( '', #240, #240, #241, .T. );
#219 = EDGE_CURVE( '', #242, #242, #243, .T. );
#220 = FILL_AREA_STYLE( '', ( #244 ) );
#221 = EDGE_CURVE( '', #245, #245, #246, .T. );
#222 = FILL_AREA_STYLE( '', ( #247 ) );
#223 = EDGE_CURVE( '', #248, #248, #249, .T. );
#224 = FILL_AREA_STYLE( '', ( #250 ) );
#225 = EDGE_CURVE( '', #251, #251, #252, .F. );
#226 = FILL_AREA_STYLE( '', ( #253 ) );
#227 = FILL_AREA_STYLE( '', ( #254 ) );
#228 = FILL_AREA_STYLE( '', ( #255 ) );
#229 = EDGE_CURVE( '', #256, #256, #257, .T. );
#230 = FILL_AREA_STYLE( '', ( #258 ) );
#231 = FILL_AREA_STYLE_COLOUR( '', #259 );
#232 = VERTEX_POINT( '', #260 );
#233 = CIRCLE( '', #261, 15.7500000000000 );
#234 = VERTEX_POINT( '', #262 );
#235 = CIRCLE( '', #263, 15.7500000000000 );
#236 = FILL_AREA_STYLE_COLOUR( '', #264 );
#237 = VERTEX_POINT( '', #265 );
#238 = CIRCLE( '', #266, 19.1000000000000 );
#239 = FILL_AREA_STYLE_COLOUR( '', #267 );
#240 = VERTEX_POINT( '', #268 );
#241 = CIRCLE( '', #269, 17.7000000000000 );
#242 = VERTEX_POINT( '', #270 );
#243 = CIRCLE( '', #271, 11.7500000000000 );
#244 = FILL_AREA_STYLE_COLOUR( '', #272 );
#245 = VERTEX_POINT( '', #273 );
#246 = CIRCLE( '', #274, 18.8000000000000 );
#247 = FILL_AREA_STYLE_COLOUR( '', #275 );
#248 = VERTEX_POINT( '', #276 );
#249 = CIRCLE( '', #277, 17.7000000000000 );
#250 = FILL_AREA_STYLE_COLOUR( '', #278 );
#251 = VERTEX_POINT( '', #279 );
#252 = CIRCLE( '', #280, 17.4000000000000 );
#253 = FILL_AREA_STYLE_COLOUR( '', #281 );
#254 = FILL_AREA_STYLE_COLOUR( '', #282 );
#255 = FILL_AREA_STYLE_COLOUR( '', #283 );
#256 = VERTEX_POINT( '', #284 );
#257 = CIRCLE( '', #285, 11.7500000000000 );
#258 = FILL_AREA_STYLE_COLOUR( '', #286 );
#259 = COLOUR_RGB( '', 0.200000002980232, 0.200000002980232, 0.200000002980232 );
#260 = CARTESIAN_POINT( '', ( 15.7500000000000, 0.000000000000000, 3.10000000000000 ) );
#261 = AXIS2_PLACEMENT_3D( '', #287, #288, #289 );
#262 = CARTESIAN_POINT( '', ( 15.7500000000000, 0.000000000000000, 1.50000000000000 ) );
#263 = AXIS2_PLACEMENT_3D( '', #290, #291, #292 );
#264 = COLOUR_RGB( '', 0.200000002980232, 0.200000002980232, 0.200000002980232 );
#265 = CARTESIAN_POINT( '', ( 19.1000000000000, 0.000000000000000, 3.10000000000000 ) );
#266 = AXIS2_PLACEMENT_3D( '', #293, #294, #295 );
#267 = COLOUR_RGB( '', 0.200000002980232, 0.200000002980232, 0.200000002980232 );
#268 = CARTESIAN_POINT( '', ( 17.7000000000000, 0.000000000000000, 0.000000000000000 ) );
#269 = AXIS2_PLACEMENT_3D( '', #296, #297, #298 );
#270 = CARTESIAN_POINT( '', ( 11.7500000000000, 0.000000000000000, 0.000000000000000 ) );
#271 = AXIS2_PLACEMENT_3D( '', #299, #300, #301 );
#272 = COLOUR_RGB( '', 0.200000002980232, 0.200000002980232, 0.200000002980232 );
#273 = CARTESIAN_POINT( '', ( 18.8000000000000, 0.000000000000000, 3.40000000000000 ) );
#274 = AXIS2_PLACEMENT_3D( '', #302, #303, #304 );
#275 = COLOUR_RGB( '', 0.200000002980232, 0.200000002980232, 0.200000002980232 );
#276 = CARTESIAN_POINT( '', ( -17.7000000000000, 0.000000000000000, 1.20000000000000 ) );
#277 = AXIS2_PLACEMENT_3D( '', #305, #306, #307 );
#278 = COLOUR_RGB( '', 0.200000002980232, 0.200000002980232, 0.200000002980232 );
#279 = CARTESIAN_POINT( '', ( -17.4000000000000, 0.000000000000000, 1.50000000000000 ) );
#280 = AXIS2_PLACEMENT_3D( '', #308, #309, #310 );
#281 = COLOUR_RGB( '', 0.200000002980232, 0.200000002980232, 0.200000002980232 );
#282 = COLOUR_RGB( '', 0.200000002980232, 0.200000002980232, 0.200000002980232 );
#283 = COLOUR_RGB( '', 0.200000002980232, 0.200000002980232, 0.200000002980232 );
#284 = CARTESIAN_POINT( '', ( 11.7500000000000, 0.000000000000000, 2.50000000000000 ) );
#285 = AXIS2_PLACEMENT_3D( '', #311, #312, #313 );
#286 = COLOUR_RGB( '', 0.200000002980232, 0.200000002980232, 0.200000002980232 );
#287 = CARTESIAN_POINT( '', ( 0.000000000000000, 0.000000000000000, 3.10000000000000 ) );
#288 = DIRECTION( '', ( 0.000000000000000, 0.000000000000000, 1.00000000000000 ) );
#289 = DIRECTION( '', ( 1.00000000000000, 0.000000000000000, 0.000000000000000 ) );
#290 = CARTESIAN_POINT( '', ( 0.000000000000000, 0.000000000000000, 1.50000000000000 ) );
#291 = DIRECTION( '', ( 0.000000000000000, 0.000000000000000, 1.00000000000000 ) );
#292 = DIRECTION( '', ( 1.00000000000000, 0.000000000000000, 0.000000000000000 ) );
#293 = CARTESIAN_POINT( '', ( 0.000000000000000, 0.000000000000000, 3.10000000000000 ) );
#294 = DIRECTION( '', ( 0.000000000000000, 0.000000000000000, 1.00000000000000 ) );
#295 = DIRECTION( '', ( 1.00000000000000, 0.000000000000000, 0.000000000000000 ) );
#296 = CARTESIAN_POINT( '', ( 0.000000000000000, 0.000000000000000, 0.000000000000000 ) );
#297 = DIRECTION( '', ( 0.000000000000000, 0.000000000000000, 1.00000000000000 ) );
#298 = DIRECTION( '', ( 1.00000000000000, 0.000000000000000, 0.000000000000000 ) );
#299 = CARTESIAN_POINT( '', ( 0.000000000000000, 0.000000000000000, 0.000000000000000 ) );
#300 = DIRECTION( '', ( 0.000000000000000, 0.000000000000000, 1.00000000000000 ) );
#301 = DIRECTION( '', ( 1.00000000000000, 0.000000000000000, 0.000000000000000 ) );
#302 = CARTESIAN_POINT( '', ( 0.000000000000000, 0.000000000000000, 3.40000000000000 ) );
#303 = DIRECTION( '', ( 0.000000000000000, 0.000000000000000, 1.00000000000000 ) );
#304 = DIRECTION( '', ( 1.00000000000000, 0.000000000000000, 0.000000000000000 ) );
#305 = CARTESIAN_POINT( '', ( 0.000000000000000, 0.000000000000000, 1.20000000000000 ) );
#306 = DIRECTION( '', ( 0.000000000000000, 0.000000000000000, -1.00000000000000 ) );
#307 = DIRECTION( '', ( -1.00000000000000, 0.000000000000000, 0.000000000000000 ) );
#308 = CARTESIAN_POINT( '', ( 0.000000000000000, 0.000000000000000, 1.50000000000000 ) );
#309 = DIRECTION( '', ( 0.000000000000000, 0.000000000000000, -1.00000000000000 ) );
#310 = DIRECTION( '', ( -1.00000000000000, 0.000000000000000, 0.000000000000000 ) );
#311 = CARTESIAN_POINT( '', ( 0.000000000000000, 0.000000000000000, 2.50000000000000 ) );
#312 = DIRECTION( '', ( 0.000000000000000, 0.000000000000000, 1.00000000000000 ) );
#313 = DIRECTION( '', ( 1.00000000000000, 0.000000000000000, 0.000000000000000 ) );
ENDSEC;
END-ISO-10303-21;
