ISO-10303-21;
HEADER;
FILE_DESCRIPTION( ( 'Unknown' ), '1' );
FILE_NAME( '//SBS2003/HD_Usb/Disegni/08_LIB/Users_3D/PROD_GAMM_3D/SP/7382020_SP25_M05.stp', 'Unknown', ( 'Unknown' ), ( 'Unknown' ), 'PSStep 11.0', 'Unknown', '  ' );
FILE_SCHEMA( ( 'AUTOMOTIVE_DESIGN { 1 0 10303 214 1 1 1 1 }' ) );
ENDSEC;
DATA;
#1 = MECHANICAL_DESIGN_GEOMETRIC_PRESENTATION_REPRESENTATION( ' ', ( #10, #11, #12, #13, #14 ), #6 );
#2 = PRODUCT_DEFINITION_CONTEXT( '', #15, 'design' );
#3 = APPLICATION_PROTOCOL_DEFINITION( 'INTERNATIONAL STANDARD', 'automotive_design', 2001, #15 );
#4 = PRODUCT_CATEGORY_RELATIONSHIP( 'NONE', 'NONE', #16, #17 );
#5 = SHAPE_DEFINITION_REPRESENTATION( #18, #19 );
#6 =  ( GEOMETRIC_REPRESENTATION_CONTEXT( 3 )GLOBAL_UNCERTAINTY_ASSIGNED_CONTEXT( ( #22 ) )GLOBAL_UNIT_ASSIGNED_CONTEXT( ( #24, #25, #26 ) )REPRESENTATION_CONTEXT( 'NONE', 'WORKSPACE' ) );
#10 = STYLED_ITEM( '', ( #28 ), #29 );
#11 = STYLED_ITEM( '', ( #30 ), #31 );
#12 = STYLED_ITEM( '', ( #32 ), #33 );
#13 = STYLED_ITEM( '', ( #34 ), #35 );
#14 = STYLED_ITEM( '', ( #36 ), #37 );
#15 = APPLICATION_CONTEXT( 'core data for automotive mechanical design processes' );
#16 = PRODUCT_CATEGORY( 'part', 'NONE' );
#17 = PRODUCT_RELATED_PRODUCT_CATEGORY( 'detail', ' ', ( #38 ) );
#18 = PRODUCT_DEFINITION_SHAPE( 'NONE', 'NONE', #39 );
#19 = ADVANCED_BREP_SHAPE_REPRESENTATION( '1', ( #40, #41 ), #6 );
#22 = UNCERTAINTY_MEASURE_WITH_UNIT( LENGTH_MEASURE( 0.00100000000000000 ), #24, '', '' );
#24 =  ( CONVERSION_BASED_UNIT( 'MILLIMETRE', #44 )LENGTH_UNIT(  )NAMED_UNIT( #47 ) );
#25 =  ( NAMED_UNIT( #49 )PLANE_ANGLE_UNIT(  )SI_UNIT( $, .RADIAN. ) );
#26 =  ( NAMED_UNIT( #49 )SI_UNIT( $, .STERADIAN. )SOLID_ANGLE_UNIT(  ) );
#28 = PRESENTATION_STYLE_ASSIGNMENT( ( #55 ) );
#29 = ADVANCED_FACE( '', ( #56, #57 ), #58, .F. );
#30 = PRESENTATION_STYLE_ASSIGNMENT( ( #59 ) );
#31 = ADVANCED_FACE( '', ( #60 ), #61, .T. );
#32 = PRESENTATION_STYLE_ASSIGNMENT( ( #62 ) );
#33 = ADVANCED_FACE( '', ( #63, #64 ), #65, .F. );
#34 = PRESENTATION_STYLE_ASSIGNMENT( ( #66 ) );
#35 = ADVANCED_FACE( '', ( #67, #68 ), #69, .F. );
#36 = PRESENTATION_STYLE_ASSIGNMENT( ( #70 ) );
#37 = ADVANCED_FACE( '', ( #71, #72 ), #73, .F. );
#38 = PRODUCT( '1', '1', 'PART-1-DESC', ( #74 ) );
#39 = PRODUCT_DEFINITION( 'NONE', 'NONE', #75, #2 );
#40 = MANIFOLD_SOLID_BREP( '1', #76 );
#41 = AXIS2_PLACEMENT_3D( '', #77, #78, #79 );
#44 = LENGTH_MEASURE_WITH_UNIT( LENGTH_MEASURE( 1.00000000000000 ), #80 );
#47 = DIMENSIONAL_EXPONENTS( 1.00000000000000, 0.000000000000000, 0.000000000000000, 0.000000000000000, 0.000000000000000, 0.000000000000000, 0.000000000000000 );
#49 = DIMENSIONAL_EXPONENTS( 0.000000000000000, 0.000000000000000, 0.000000000000000, 0.000000000000000, 0.000000000000000, 0.000000000000000, 0.000000000000000 );
#55 = SURFACE_STYLE_USAGE( .BOTH., #81 );
#56 = FACE_BOUND( '', #82, .T. );
#57 = FACE_OUTER_BOUND( '', #83, .T. );
#58 = CONICAL_SURFACE( '', #84, 2.57739431438987, 0.889238794968183 );
#59 = SURFACE_STYLE_USAGE( .BOTH., #85 );
#60 = FACE_OUTER_BOUND( '', #86, .T. );
#61 = SPHERICAL_SURFACE( '', #87, 12.5000000000000 );
#62 = SURFACE_STYLE_USAGE( .BOTH., #88 );
#63 = FACE_OUTER_BOUND( '', #89, .T. );
#64 = FACE_BOUND( '', #90, .T. );
#65 = CONICAL_SURFACE( '', #91, 2.06700000000000, 1.02974425867665 );
#66 = SURFACE_STYLE_USAGE( .BOTH., #92 );
#67 = FACE_OUTER_BOUND( '', #93, .T. );
#68 = FACE_OUTER_BOUND( '', #94, .T. );
#69 = CYLINDRICAL_SURFACE( '', #95, 2.06700000000000 );
#70 = SURFACE_STYLE_USAGE( .BOTH., #96 );
#71 = FACE_OUTER_BOUND( '', #97, .T. );
#72 = FACE_OUTER_BOUND( '', #98, .T. );
#73 = CYLINDRICAL_SURFACE( '', #99, 2.06700000000000 );
#74 = PRODUCT_CONTEXT( '', #15, 'mechanical' );
#75 = PRODUCT_DEFINITION_FORMATION_WITH_SPECIFIED_SOURCE( ' ', 'NONE', #38, .NOT_KNOWN. );
#76 = CLOSED_SHELL( '', ( #35, #29, #33, #37, #31 ) );
#77 = CARTESIAN_POINT( '', ( 0.000000000000000, 0.000000000000000, 0.000000000000000 ) );
#78 = DIRECTION( '', ( 0.000000000000000, 0.000000000000000, 1.00000000000000 ) );
#79 = DIRECTION( '', ( 1.00000000000000, 0.000000000000000, 0.000000000000000 ) );
#80 =  ( LENGTH_UNIT(  )NAMED_UNIT( #47 )SI_UNIT( .MILLI., .METRE. ) );
#81 = SURFACE_SIDE_STYLE( '', ( #101 ) );
#82 = EDGE_LOOP( '', ( #102 ) );
#83 = EDGE_LOOP( '', ( #103 ) );
#84 = AXIS2_PLACEMENT_3D( '', #104, #105, #106 );
#85 = SURFACE_SIDE_STYLE( '', ( #107 ) );
#86 = EDGE_LOOP( '', ( #108 ) );
#87 = AXIS2_PLACEMENT_3D( '', #109, #110, #111 );
#88 = SURFACE_SIDE_STYLE( '', ( #112 ) );
#89 = EDGE_LOOP( '', ( #113 ) );
#90 = VERTEX_LOOP( '', #114 );
#91 = AXIS2_PLACEMENT_3D( '', #115, #116, #117 );
#92 = SURFACE_SIDE_STYLE( '', ( #118 ) );
#93 = EDGE_LOOP( '', ( #119 ) );
#94 = EDGE_LOOP( '', ( #120 ) );
#95 = AXIS2_PLACEMENT_3D( '', #121, #122, #123 );
#96 = SURFACE_SIDE_STYLE( '', ( #124 ) );
#97 = EDGE_LOOP( '', ( #125 ) );
#98 = EDGE_LOOP( '', ( #126 ) );
#99 = AXIS2_PLACEMENT_3D( '', #127, #128, #129 );
#101 = SURFACE_STYLE_FILL_AREA( #130 );
#102 = ORIENTED_EDGE( '', *, *, #131, .F. );
#103 = ORIENTED_EDGE( '', *, *, #132, .F. );
#104 = CARTESIAN_POINT( '', ( 0.000000000000000, 0.000000000000000, 0.268604390824784 ) );
#105 = DIRECTION( '', ( -0.000000000000000, 0.000000000000000, -1.00000000000000 ) );
#106 = DIRECTION( '', ( -1.00000000000000, 0.000000000000000, 0.000000000000000 ) );
#107 = SURFACE_STYLE_FILL_AREA( #133 );
#108 = ORIENTED_EDGE( '', *, *, #132, .T. );
#109 = CARTESIAN_POINT( '', ( 0.000000000000000, 0.000000000000000, 12.5000000000000 ) );
#110 = DIRECTION( '', ( 0.000000000000000, 0.000000000000000, 1.00000000000000 ) );
#111 = DIRECTION( '', ( 1.00000000000000, 0.000000000000000, 0.000000000000000 ) );
#112 = SURFACE_STYLE_FILL_AREA( #134 );
#113 = ORIENTED_EDGE( '', *, *, #135, .F. );
#114 = VERTEX_POINT( '', #136 );
#115 = CARTESIAN_POINT( '', ( 0.000000000000000, 0.000000000000000, 16.5000000000000 ) );
#116 = DIRECTION( '', ( 0.000000000000000, -0.000000000000000, -1.00000000000000 ) );
#117 = DIRECTION( '', ( 0.000000000000000, -1.00000000000000, 0.000000000000000 ) );
#118 = SURFACE_STYLE_FILL_AREA( #137 );
#119 = ORIENTED_EDGE( '', *, *, #135, .T. );
#120 = ORIENTED_EDGE( '', *, *, #138, .T. );
#121 = CARTESIAN_POINT( '', ( 0.000000000000000, 0.000000000000000, 0.000000000000000 ) );
#122 = DIRECTION( '', ( -0.000000000000000, 0.000000000000000, -1.00000000000000 ) );
#123 = DIRECTION( '', ( 0.000000000000000, 1.00000000000000, 0.000000000000000 ) );
#124 = SURFACE_STYLE_FILL_AREA( #139 );
#125 = ORIENTED_EDGE( '', *, *, #131, .T. );
#126 = ORIENTED_EDGE( '', *, *, #138, .F. );
#127 = CARTESIAN_POINT( '', ( 0.000000000000000, 0.000000000000000, 0.000000000000000 ) );
#128 = DIRECTION( '', ( -0.000000000000000, 0.000000000000000, -1.00000000000000 ) );
#129 = DIRECTION( '', ( 0.000000000000000, 1.00000000000000, 0.000000000000000 ) );
#130 = FILL_AREA_STYLE( '', ( #140 ) );
#131 = EDGE_CURVE( '', #141, #141, #142, .F. );
#132 = EDGE_CURVE( '', #143, #143, #144, .T. );
#133 = FILL_AREA_STYLE( '', ( #145 ) );
#134 = FILL_AREA_STYLE( '', ( #146 ) );
#135 = EDGE_CURVE( '', #147, #147, #148, .T. );
#136 = CARTESIAN_POINT( '', ( 0.000000000000000, 0.000000000000000, 17.7419788995300 ) );
#137 = FILL_AREA_STYLE( '', ( #149 ) );
#138 = EDGE_CURVE( '', #150, #150, #151, .T. );
#139 = FILL_AREA_STYLE( '', ( #152 ) );
#140 = FILL_AREA_STYLE_COLOUR( '', #153 );
#141 = VERTEX_POINT( '', #154 );
#142 = CIRCLE( '', #155, 2.06700000000000 );
#143 = VERTEX_POINT( '', #156 );
#144 = CIRCLE( '', #157, 2.57739431438987 );
#145 = FILL_AREA_STYLE_COLOUR( '', #158 );
#146 = FILL_AREA_STYLE_COLOUR( '', #159 );
#147 = VERTEX_POINT( '', #160 );
#148 = CIRCLE( '', #161, 2.06700000000000 );
#149 = FILL_AREA_STYLE_COLOUR( '', #162 );
#150 = VERTEX_POINT( '', #163 );
#151 = CIRCLE( '', #164, 2.06700000000000 );
#152 = FILL_AREA_STYLE_COLOUR( '', #165 );
#153 = COLOUR_RGB( '', 0.200000002980232, 0.200000002980232, 0.200000002980232 );
#154 = CARTESIAN_POINT( '', ( 2.06700000000000, 0.000000000000000, 0.682657021259610 ) );
#155 = AXIS2_PLACEMENT_3D( '', #166, #167, #168 );
#156 = CARTESIAN_POINT( '', ( 2.57739431438987, 0.000000000000000, 0.268604390824788 ) );
#157 = AXIS2_PLACEMENT_3D( '', #169, #170, #171 );
#158 = COLOUR_RGB( '', 0.200000002980232, 0.200000002980232, 0.200000002980232 );
#159 = COLOUR_RGB( '', 0.200000002980232, 0.200000002980232, 0.200000002980232 );
#160 = CARTESIAN_POINT( '', ( 0.000000000000000, -2.06700000000000, 16.5000000000000 ) );
#161 = AXIS2_PLACEMENT_3D( '', #172, #173, #174 );
#162 = COLOUR_RGB( '', 0.200000002980232, 0.200000002980232, 0.200000002980232 );
#163 = CARTESIAN_POINT( '', ( 0.000000000000000, 2.06700000000000, 15.2700000000000 ) );
#164 = AXIS2_PLACEMENT_3D( '', #175, #176, #177 );
#165 = COLOUR_RGB( '', 0.752941191196442, 0.752941191196442, 0.752941191196442 );
#166 = CARTESIAN_POINT( '', ( 0.000000000000000, 0.000000000000000, 0.682657021259610 ) );
#167 = DIRECTION( '', ( 0.000000000000000, 0.000000000000000, 1.00000000000000 ) );
#168 = DIRECTION( '', ( 1.00000000000000, 0.000000000000000, 0.000000000000000 ) );
#169 = CARTESIAN_POINT( '', ( 0.000000000000000, 0.000000000000000, 0.268604390824788 ) );
#170 = DIRECTION( '', ( 0.000000000000000, 0.000000000000000, 1.00000000000000 ) );
#171 = DIRECTION( '', ( 1.00000000000000, 0.000000000000000, 0.000000000000000 ) );
#172 = CARTESIAN_POINT( '', ( 0.000000000000000, 0.000000000000000, 16.5000000000000 ) );
#173 = DIRECTION( '', ( 0.000000000000000, 0.000000000000000, 1.00000000000000 ) );
#174 = DIRECTION( '', ( 0.000000000000000, -1.00000000000000, 0.000000000000000 ) );
#175 = CARTESIAN_POINT( '', ( 0.000000000000000, 0.000000000000000, 15.2700000000000 ) );
#176 = DIRECTION( '', ( 0.000000000000000, 0.000000000000000, -1.00000000000000 ) );
#177 = DIRECTION( '', ( 0.000000000000000, 1.00000000000000, 0.000000000000000 ) );
ENDSEC;
END-ISO-10303-21;
