ISO-10303-21;
HEADER;
FILE_DESCRIPTION( ( 'Unknown' ), '1' );
FILE_NAME( '//SBS2003/HD_Usb/Disegni/08_LIB/Users_3D/PROD_GAMM_3D/SP/7382025_SP25_M06..stp', 'Unknown', ( 'Unknown' ), ( 'Unknown' ), 'PSStep 11.0', 'Unknown', '  ' );
FILE_SCHEMA( ( 'AUTOMOTIVE_DESIGN { 1 0 10303 214 1 1 1 1 }' ) );
ENDSEC;
DATA;
#1 = MECHANICAL_DESIGN_GEOMETRIC_PRESENTATION_REPRESENTATION( ' ', ( #10, #11, #12, #13, #14 ), #6 );
#2 = PRODUCT_DEFINITION_CONTEXT( '', #15, 'design' );
#3 = APPLICATION_PROTOCOL_DEFINITION( 'INTERNATIONAL STANDARD', 'automotive_design', 2001, #15 );
#4 = PRODUCT_CATEGORY_RELATIONSHIP( 'NONE', 'NONE', #16, #17 );
#5 = SHAPE_DEFINITION_REPRESENTATION( #18, #19 );
#6 =  ( GEOMETRIC_REPRESENTATION_CONTEXT( 3 )GLOBAL_UNCERTAINTY_ASSIGNED_CONTEXT( ( #22 ) )GLOBAL_UNIT_ASSIGNED_CONTEXT( ( #24, #25, #26 ) )REPRESENTATION_CONTEXT( 'NONE', 'WORKSPACE' ) );
#10 = STYLED_ITEM( '', ( #28 ), #29 );
#11 = STYLED_ITEM( '', ( #30 ), #31 );
#12 = STYLED_ITEM( '', ( #32 ), #33 );
#13 = STYLED_ITEM( '', ( #34 ), #35 );
#14 = STYLED_ITEM( '', ( #36 ), #37 );
#15 = APPLICATION_CONTEXT( 'core data for automotive mechanical design processes' );
#16 = PRODUCT_CATEGORY( 'part', 'NONE' );
#17 = PRODUCT_RELATED_PRODUCT_CATEGORY( 'detail', ' ', ( #38 ) );
#18 = PRODUCT_DEFINITION_SHAPE( 'NONE', 'NONE', #39 );
#19 = ADVANCED_BREP_SHAPE_REPRESENTATION( '1', ( #40, #41 ), #6 );
#22 = UNCERTAINTY_MEASURE_WITH_UNIT( LENGTH_MEASURE( 0.00100000000000000 ), #24, '', '' );
#24 =  ( CONVERSION_BASED_UNIT( 'MILLIMETRE', #44 )LENGTH_UNIT(  )NAMED_UNIT( #47 ) );
#25 =  ( NAMED_UNIT( #49 )PLANE_ANGLE_UNIT(  )SI_UNIT( $, .RADIAN. ) );
#26 =  ( NAMED_UNIT( #49 )SI_UNIT( $, .STERADIAN. )SOLID_ANGLE_UNIT(  ) );
#28 = PRESENTATION_STYLE_ASSIGNMENT( ( #55 ) );
#29 = ADVANCED_FACE( '', ( #56, #57 ), #58, .F. );
#30 = PRESENTATION_STYLE_ASSIGNMENT( ( #59 ) );
#31 = ADVANCED_FACE( '', ( #60, #61 ), #62, .F. );
#32 = PRESENTATION_STYLE_ASSIGNMENT( ( #63 ) );
#33 = ADVANCED_FACE( '', ( #64, #65 ), #66, .F. );
#34 = PRESENTATION_STYLE_ASSIGNMENT( ( #67 ) );
#35 = ADVANCED_FACE( '', ( #68, #69 ), #70, .F. );
#36 = PRESENTATION_STYLE_ASSIGNMENT( ( #71 ) );
#37 = ADVANCED_FACE( '', ( #72 ), #73, .T. );
#38 = PRODUCT( '1', '1', 'PART-1-DESC', ( #74 ) );
#39 = PRODUCT_DEFINITION( 'NONE', 'NONE', #75, #2 );
#40 = MANIFOLD_SOLID_BREP( '1', #76 );
#41 = AXIS2_PLACEMENT_3D( '', #77, #78, #79 );
#44 = LENGTH_MEASURE_WITH_UNIT( LENGTH_MEASURE( 1.00000000000000 ), #80 );
#47 = DIMENSIONAL_EXPONENTS( 1.00000000000000, 0.000000000000000, 0.000000000000000, 0.000000000000000, 0.000000000000000, 0.000000000000000, 0.000000000000000 );
#49 = DIMENSIONAL_EXPONENTS( 0.000000000000000, 0.000000000000000, 0.000000000000000, 0.000000000000000, 0.000000000000000, 0.000000000000000, 0.000000000000000 );
#55 = SURFACE_STYLE_USAGE( .BOTH., #81 );
#56 = FACE_OUTER_BOUND( '', #82, .T. );
#57 = FACE_OUTER_BOUND( '', #83, .T. );
#58 = CYLINDRICAL_SURFACE( '', #84, 2.45850000000000 );
#59 = SURFACE_STYLE_USAGE( .BOTH., #85 );
#60 = FACE_BOUND( '', #86, .T. );
#61 = FACE_OUTER_BOUND( '', #87, .T. );
#62 = CONICAL_SURFACE( '', #88, 2.96534465110320, 0.905153641951113 );
#63 = SURFACE_STYLE_USAGE( .BOTH., #89 );
#64 = FACE_OUTER_BOUND( '', #90, .T. );
#65 = FACE_BOUND( '', #91, .T. );
#66 = CONICAL_SURFACE( '', #92, 2.45850000000000, 1.02974425867665 );
#67 = SURFACE_STYLE_USAGE( .BOTH., #93 );
#68 = FACE_OUTER_BOUND( '', #94, .T. );
#69 = FACE_OUTER_BOUND( '', #95, .T. );
#70 = CYLINDRICAL_SURFACE( '', #96, 2.45850000000000 );
#71 = SURFACE_STYLE_USAGE( .BOTH., #97 );
#72 = FACE_OUTER_BOUND( '', #98, .T. );
#73 = SPHERICAL_SURFACE( '', #99, 12.5000000000000 );
#74 = PRODUCT_CONTEXT( '', #15, 'mechanical' );
#75 = PRODUCT_DEFINITION_FORMATION_WITH_SPECIFIED_SOURCE( ' ', 'NONE', #38, .NOT_KNOWN. );
#76 = CLOSED_SHELL( '', ( #29, #31, #33, #35, #37 ) );
#77 = CARTESIAN_POINT( '', ( 0.000000000000000, 0.000000000000000, 0.000000000000000 ) );
#78 = DIRECTION( '', ( 0.000000000000000, 0.000000000000000, 1.00000000000000 ) );
#79 = DIRECTION( '', ( 1.00000000000000, 0.000000000000000, 0.000000000000000 ) );
#80 =  ( LENGTH_UNIT(  )NAMED_UNIT( #47 )SI_UNIT( .MILLI., .METRE. ) );
#81 = SURFACE_SIDE_STYLE( '', ( #101 ) );
#82 = EDGE_LOOP( '', ( #102 ) );
#83 = EDGE_LOOP( '', ( #103 ) );
#84 = AXIS2_PLACEMENT_3D( '', #104, #105, #106 );
#85 = SURFACE_SIDE_STYLE( '', ( #107 ) );
#86 = EDGE_LOOP( '', ( #108 ) );
#87 = EDGE_LOOP( '', ( #109 ) );
#88 = AXIS2_PLACEMENT_3D( '', #110, #111, #112 );
#89 = SURFACE_SIDE_STYLE( '', ( #113 ) );
#90 = EDGE_LOOP( '', ( #114 ) );
#91 = VERTEX_LOOP( '', #115 );
#92 = AXIS2_PLACEMENT_3D( '', #116, #117, #118 );
#93 = SURFACE_SIDE_STYLE( '', ( #119 ) );
#94 = EDGE_LOOP( '', ( #120 ) );
#95 = EDGE_LOOP( '', ( #121 ) );
#96 = AXIS2_PLACEMENT_3D( '', #122, #123, #124 );
#97 = SURFACE_SIDE_STYLE( '', ( #125 ) );
#98 = EDGE_LOOP( '', ( #126 ) );
#99 = AXIS2_PLACEMENT_3D( '', #127, #128, #129 );
#101 = SURFACE_STYLE_FILL_AREA( #130 );
#102 = ORIENTED_EDGE( '', *, *, #131, .T. );
#103 = ORIENTED_EDGE( '', *, *, #132, .T. );
#104 = CARTESIAN_POINT( '', ( 0.000000000000000, 0.000000000000000, 0.000000000000000 ) );
#105 = DIRECTION( '', ( -0.000000000000000, 0.000000000000000, -1.00000000000000 ) );
#106 = DIRECTION( '', ( 0.000000000000000, 1.00000000000000, 0.000000000000000 ) );
#107 = SURFACE_STYLE_FILL_AREA( #133 );
#108 = ORIENTED_EDGE( '', *, *, #134, .F. );
#109 = ORIENTED_EDGE( '', *, *, #135, .F. );
#110 = CARTESIAN_POINT( '', ( 0.000000000000000, 0.000000000000000, 0.356823681582581 ) );
#111 = DIRECTION( '', ( -0.000000000000000, 0.000000000000000, -1.00000000000000 ) );
#112 = DIRECTION( '', ( -1.00000000000000, 0.000000000000000, 0.000000000000000 ) );
#113 = SURFACE_STYLE_FILL_AREA( #136 );
#114 = ORIENTED_EDGE( '', *, *, #131, .F. );
#115 = VERTEX_POINT( '', #137 );
#116 = CARTESIAN_POINT( '', ( 0.000000000000000, 0.000000000000000, 16.5000000000000 ) );
#117 = DIRECTION( '', ( 0.000000000000000, -0.000000000000000, -1.00000000000000 ) );
#118 = DIRECTION( '', ( 0.000000000000000, -1.00000000000000, 0.000000000000000 ) );
#119 = SURFACE_STYLE_FILL_AREA( #138 );
#120 = ORIENTED_EDGE( '', *, *, #134, .T. );
#121 = ORIENTED_EDGE( '', *, *, #132, .F. );
#122 = CARTESIAN_POINT( '', ( 0.000000000000000, 0.000000000000000, 0.000000000000000 ) );
#123 = DIRECTION( '', ( -0.000000000000000, 0.000000000000000, -1.00000000000000 ) );
#124 = DIRECTION( '', ( 0.000000000000000, 1.00000000000000, 0.000000000000000 ) );
#125 = SURFACE_STYLE_FILL_AREA( #139 );
#126 = ORIENTED_EDGE( '', *, *, #135, .T. );
#127 = CARTESIAN_POINT( '', ( 0.000000000000000, 0.000000000000000, 12.5000000000000 ) );
#128 = DIRECTION( '', ( 0.000000000000000, 0.000000000000000, 1.00000000000000 ) );
#129 = DIRECTION( '', ( 1.00000000000000, 0.000000000000000, 0.000000000000000 ) );
#130 = FILL_AREA_STYLE( '', ( #140 ) );
#131 = EDGE_CURVE( '', #141, #141, #142, .T. );
#132 = EDGE_CURVE( '', #143, #143, #144, .T. );
#133 = FILL_AREA_STYLE( '', ( #145 ) );
#134 = EDGE_CURVE( '', #146, #146, #147, .F. );
#135 = EDGE_CURVE( '', #148, #148, #149, .T. );
#136 = FILL_AREA_STYLE( '', ( #150 ) );
#137 = CARTESIAN_POINT( '', ( 0.000000000000000, 0.000000000000000, 17.9772158318792 ) );
#138 = FILL_AREA_STYLE( '', ( #151 ) );
#139 = FILL_AREA_STYLE( '', ( #152 ) );
#140 = FILL_AREA_STYLE_COLOUR( '', #153 );
#141 = VERTEX_POINT( '', #154 );
#142 = CIRCLE( '', #155, 2.45850000000000 );
#143 = VERTEX_POINT( '', #156 );
#144 = CIRCLE( '', #157, 2.45850000000000 );
#145 = FILL_AREA_STYLE_COLOUR( '', #158 );
#146 = VERTEX_POINT( '', #159 );
#147 = CIRCLE( '', #160, 2.45850000000000 );
#148 = VERTEX_POINT( '', #161 );
#149 = CIRCLE( '', #162, 2.96534465110320 );
#150 = FILL_AREA_STYLE_COLOUR( '', #163 );
#151 = FILL_AREA_STYLE_COLOUR( '', #164 );
#152 = FILL_AREA_STYLE_COLOUR( '', #165 );
#153 = COLOUR_RGB( '', 0.200000002980232, 0.200000002980232, 0.200000002980232 );
#154 = CARTESIAN_POINT( '', ( 0.000000000000000, -2.45850000000000, 16.5000000000000 ) );
#155 = AXIS2_PLACEMENT_3D( '', #166, #167, #168 );
#156 = CARTESIAN_POINT( '', ( 0.000000000000000, 2.45850000000000, 15.3600000000000 ) );
#157 = AXIS2_PLACEMENT_3D( '', #169, #170, #171 );
#158 = COLOUR_RGB( '', 0.200000002980232, 0.200000002980232, 0.200000002980232 );
#159 = CARTESIAN_POINT( '', ( 2.45850000000000, 0.000000000000000, 0.754791143882485 ) );
#160 = AXIS2_PLACEMENT_3D( '', #172, #173, #174 );
#161 = CARTESIAN_POINT( '', ( 2.96534465110320, 0.000000000000000, 0.356823681582583 ) );
#162 = AXIS2_PLACEMENT_3D( '', #175, #176, #177 );
#163 = COLOUR_RGB( '', 0.200000002980232, 0.200000002980232, 0.200000002980232 );
#164 = COLOUR_RGB( '', 0.752941191196442, 0.752941191196442, 0.752941191196442 );
#165 = COLOUR_RGB( '', 0.200000002980232, 0.200000002980232, 0.200000002980232 );
#166 = CARTESIAN_POINT( '', ( 0.000000000000000, 0.000000000000000, 16.5000000000000 ) );
#167 = DIRECTION( '', ( 0.000000000000000, 0.000000000000000, 1.00000000000000 ) );
#168 = DIRECTION( '', ( 0.000000000000000, -1.00000000000000, 0.000000000000000 ) );
#169 = CARTESIAN_POINT( '', ( 0.000000000000000, 0.000000000000000, 15.3600000000000 ) );
#170 = DIRECTION( '', ( 0.000000000000000, 0.000000000000000, -1.00000000000000 ) );
#171 = DIRECTION( '', ( 0.000000000000000, 1.00000000000000, 0.000000000000000 ) );
#172 = CARTESIAN_POINT( '', ( 0.000000000000000, 0.000000000000000, 0.754791143882485 ) );
#173 = DIRECTION( '', ( 0.000000000000000, 0.000000000000000, 1.00000000000000 ) );
#174 = DIRECTION( '', ( 1.00000000000000, 0.000000000000000, 0.000000000000000 ) );
#175 = CARTESIAN_POINT( '', ( 0.000000000000000, 0.000000000000000, 0.356823681582583 ) );
#176 = DIRECTION( '', ( 0.000000000000000, 0.000000000000000, 1.00000000000000 ) );
#177 = DIRECTION( '', ( 1.00000000000000, 0.000000000000000, 0.000000000000000 ) );
ENDSEC;
END-ISO-10303-21;
