ISO-10303-21;
HEADER;
FILE_DESCRIPTION( ( 'Unknown' ), '1' );
FILE_NAME( '//SBS2003/HD_Usb/Disegni/08_LIB/Users_3D/PROD_GAMM_3D/APP-I/7747211_APP_12_IR.stp', 'Unknown', ( 'Unknown' ), ( 'Unknown' ), 'PSStep 14.0', 'Unknown', '  ' );
FILE_SCHEMA( ( 'AUTOMOTIVE_DESIGN { 1 0 10303 214 1 1 1 1 }' ) );
ENDSEC;
DATA;
#1 = MECHANICAL_DESIGN_GEOMETRIC_PRESENTATION_REPRESENTATION( ' ', ( #10, #11, #12, #13, #14, #15, #16, #17, #18, #19, #20, #21, #22 ), #6 );
#2 = PRODUCT_DEFINITION_CONTEXT( '', #23, 'design' );
#3 = APPLICATION_PROTOCOL_DEFINITION( 'international standard', 'automotive_design', 2001, #23 );
#4 = PRODUCT_CATEGORY_RELATIONSHIP( 'NONE', 'NONE', #24, #25 );
#5 = SHAPE_DEFINITION_REPRESENTATION( #26, #27 );
#6 =  ( GEOMETRIC_REPRESENTATION_CONTEXT( 3 )GLOBAL_UNCERTAINTY_ASSIGNED_CONTEXT( ( #30 ) )GLOBAL_UNIT_ASSIGNED_CONTEXT( ( #32, #33, #34 ) )REPRESENTATION_CONTEXT( 'NONE', 'WORKSPACE' ) );
#10 = STYLED_ITEM( '', ( #36 ), #37 );
#11 = STYLED_ITEM( '', ( #38 ), #39 );
#12 = STYLED_ITEM( '', ( #40 ), #41 );
#13 = STYLED_ITEM( '', ( #42 ), #43 );
#14 = STYLED_ITEM( '', ( #44 ), #45 );
#15 = STYLED_ITEM( '', ( #46 ), #47 );
#16 = STYLED_ITEM( '', ( #48 ), #49 );
#17 = STYLED_ITEM( '', ( #50 ), #51 );
#18 = STYLED_ITEM( '', ( #52 ), #53 );
#19 = STYLED_ITEM( '', ( #54 ), #55 );
#20 = STYLED_ITEM( '', ( #56 ), #57 );
#21 = STYLED_ITEM( '', ( #58 ), #59 );
#22 = STYLED_ITEM( '', ( #60 ), #61 );
#23 = APPLICATION_CONTEXT( 'core data for automotive mechanical design processes' );
#24 = PRODUCT_CATEGORY( 'part', 'NONE' );
#25 = PRODUCT_RELATED_PRODUCT_CATEGORY( 'detail', ' ', ( #62 ) );
#26 = PRODUCT_DEFINITION_SHAPE( 'NONE', 'NONE', #63 );
#27 = ADVANCED_BREP_SHAPE_REPRESENTATION( '1', ( #64, #65 ), #6 );
#30 = UNCERTAINTY_MEASURE_WITH_UNIT( LENGTH_MEASURE( 0.00100000000000000 ), #32, '', '' );
#32 =  ( CONVERSION_BASED_UNIT( 'MILLIMETRE', #68 )LENGTH_UNIT(  )NAMED_UNIT( #71 ) );
#33 =  ( NAMED_UNIT( #73 )PLANE_ANGLE_UNIT(  )SI_UNIT( $, .RADIAN. ) );
#34 =  ( NAMED_UNIT( #73 )SI_UNIT( $, .STERADIAN. )SOLID_ANGLE_UNIT(  ) );
#36 = PRESENTATION_STYLE_ASSIGNMENT( ( #79 ) );
#37 = ADVANCED_FACE( '', ( #80 ), #81, .T. );
#38 = PRESENTATION_STYLE_ASSIGNMENT( ( #82 ) );
#39 = ADVANCED_FACE( '', ( #83, #84 ), #85, .T. );
#40 = PRESENTATION_STYLE_ASSIGNMENT( ( #86 ) );
#41 = ADVANCED_FACE( '', ( #87 ), #88, .T. );
#42 = PRESENTATION_STYLE_ASSIGNMENT( ( #89 ) );
#43 = ADVANCED_FACE( '', ( #90, #91 ), #92, .T. );
#44 = PRESENTATION_STYLE_ASSIGNMENT( ( #93 ) );
#45 = ADVANCED_FACE( '', ( #94 ), #95, .F. );
#46 = PRESENTATION_STYLE_ASSIGNMENT( ( #96 ) );
#47 = ADVANCED_FACE( '', ( #97, #98 ), #99, .F. );
#48 = PRESENTATION_STYLE_ASSIGNMENT( ( #100 ) );
#49 = ADVANCED_FACE( '', ( #101 ), #102, .T. );
#50 = PRESENTATION_STYLE_ASSIGNMENT( ( #103 ) );
#51 = ADVANCED_FACE( '', ( #104 ), #105, .T. );
#52 = PRESENTATION_STYLE_ASSIGNMENT( ( #106 ) );
#53 = ADVANCED_FACE( '', ( #107 ), #108, .T. );
#54 = PRESENTATION_STYLE_ASSIGNMENT( ( #109 ) );
#55 = ADVANCED_FACE( '', ( #110, #111 ), #112, .T. );
#56 = PRESENTATION_STYLE_ASSIGNMENT( ( #113 ) );
#57 = ADVANCED_FACE( '', ( #114 ), #115, .F. );
#58 = PRESENTATION_STYLE_ASSIGNMENT( ( #116 ) );
#59 = ADVANCED_FACE( '', ( #117 ), #118, .T. );
#60 = PRESENTATION_STYLE_ASSIGNMENT( ( #119 ) );
#61 = ADVANCED_FACE( '', ( #120, #121 ), #122, .T. );
#62 = PRODUCT( '1', '1', 'PART-1-DESC', ( #123 ) );
#63 = PRODUCT_DEFINITION( 'NONE', 'NONE', #124, #2 );
#64 = MANIFOLD_SOLID_BREP( '1', #125 );
#65 = AXIS2_PLACEMENT_3D( '', #126, #127, #128 );
#68 = LENGTH_MEASURE_WITH_UNIT( LENGTH_MEASURE( 1.00000000000000 ), #129 );
#71 = DIMENSIONAL_EXPONENTS( 1.00000000000000, 0.000000000000000, 0.000000000000000, 0.000000000000000, 0.000000000000000, 0.000000000000000, 0.000000000000000 );
#73 = DIMENSIONAL_EXPONENTS( 0.000000000000000, 0.000000000000000, 0.000000000000000, 0.000000000000000, 0.000000000000000, 0.000000000000000, 0.000000000000000 );
#79 = SURFACE_STYLE_USAGE( .BOTH., #130 );
#80 = FACE_OUTER_BOUND( '', #131, .T. );
#81 = CONICAL_SURFACE( '', #132, 2.00000000000000, 0.785398163397448 );
#82 = SURFACE_STYLE_USAGE( .BOTH., #133 );
#83 = FACE_BOUND( '', #134, .T. );
#84 = FACE_OUTER_BOUND( '', #135, .T. );
#85 = CONICAL_SURFACE( '', #136, 2.50000000000000, 0.785398163397449 );
#86 = SURFACE_STYLE_USAGE( .BOTH., #137 );
#87 = FACE_OUTER_BOUND( '', #138, .T. );
#88 = PLANE( '', #139 );
#89 = SURFACE_STYLE_USAGE( .BOTH., #140 );
#90 = FACE_OUTER_BOUND( '', #141, .T. );
#91 = FACE_OUTER_BOUND( '', #142, .T. );
#92 = CYLINDRICAL_SURFACE( '', #143, 2.50000000000000 );
#93 = SURFACE_STYLE_USAGE( .BOTH., #144 );
#94 = FACE_OUTER_BOUND( '', #145, .T. );
#95 = PLANE( '', #146 );
#96 = SURFACE_STYLE_USAGE( .BOTH., #147 );
#97 = FACE_OUTER_BOUND( '', #148, .T. );
#98 = FACE_BOUND( '', #149, .T. );
#99 = PLANE( '', #150 );
#100 = SURFACE_STYLE_USAGE( .BOTH., #151 );
#101 = FACE_OUTER_BOUND( '', #152, .T. );
#102 = SPHERICAL_SURFACE( '', #153, 1.20000000000000 );
#103 = SURFACE_STYLE_USAGE( .BOTH., #154 );
#104 = FACE_OUTER_BOUND( '', #155, .T. );
#105 = PLANE( '', #156 );
#106 = SURFACE_STYLE_USAGE( .BOTH., #157 );
#107 = FACE_OUTER_BOUND( '', #158, .T. );
#108 = CONICAL_SURFACE( '', #159, 2.00000000000000, 0.785398163397448 );
#109 = SURFACE_STYLE_USAGE( .BOTH., #160 );
#110 = FACE_OUTER_BOUND( '', #161, .T. );
#111 = FACE_OUTER_BOUND( '', #162, .T. );
#112 = CYLINDRICAL_SURFACE( '', #163, 1.20000000000000 );
#113 = SURFACE_STYLE_USAGE( .BOTH., #164 );
#114 = FACE_OUTER_BOUND( '', #165, .T. );
#115 = PLANE( '', #166 );
#116 = SURFACE_STYLE_USAGE( .BOTH., #167 );
#117 = FACE_OUTER_BOUND( '', #168, .T. );
#118 = PLANE( '', #169 );
#119 = SURFACE_STYLE_USAGE( .BOTH., #170 );
#120 = FACE_OUTER_BOUND( '', #171, .T. );
#121 = FACE_OUTER_BOUND( '', #172, .T. );
#122 = CYLINDRICAL_SURFACE( '', #173, 1.75000000000000 );
#123 = PRODUCT_CONTEXT( '', #23, 'mechanical' );
#124 = PRODUCT_DEFINITION_FORMATION_WITH_SPECIFIED_SOURCE( ' ', 'NONE', #62, .NOT_KNOWN. );
#125 = CLOSED_SHELL( '', ( #43, #37, #51, #41, #53, #39, #49, #55, #45, #47, #61, #57, #59 ) );
#126 = CARTESIAN_POINT( '', ( 0.000000000000000, 0.000000000000000, 0.000000000000000 ) );
#127 = DIRECTION( '', ( 0.000000000000000, 0.000000000000000, 1.00000000000000 ) );
#128 = DIRECTION( '', ( 1.00000000000000, 0.000000000000000, 0.000000000000000 ) );
#129 =  ( LENGTH_UNIT(  )NAMED_UNIT( #71 )SI_UNIT( .MILLI., .METRE. ) );
#130 = SURFACE_SIDE_STYLE( '', ( #175 ) );
#131 = EDGE_LOOP( '', ( #176, #177, #178, #179 ) );
#132 = AXIS2_PLACEMENT_3D( '', #180, #181, #182 );
#133 = SURFACE_SIDE_STYLE( '', ( #183 ) );
#134 = EDGE_LOOP( '', ( #184 ) );
#135 = EDGE_LOOP( '', ( #185 ) );
#136 = AXIS2_PLACEMENT_3D( '', #186, #187, #188 );
#137 = SURFACE_SIDE_STYLE( '', ( #189 ) );
#138 = EDGE_LOOP( '', ( #190, #191, #192, #193, #194, #195 ) );
#139 = AXIS2_PLACEMENT_3D( '', #196, #197, #198 );
#140 = SURFACE_SIDE_STYLE( '', ( #199 ) );
#141 = EDGE_LOOP( '', ( #200 ) );
#142 = EDGE_LOOP( '', ( #201, #202, #203, #204, #205, #206, #207, #208 ) );
#143 = AXIS2_PLACEMENT_3D( '', #209, #210, #211 );
#144 = SURFACE_SIDE_STYLE( '', ( #212 ) );
#145 = EDGE_LOOP( '', ( #213, #214 ) );
#146 = AXIS2_PLACEMENT_3D( '', #215, #216, #217 );
#147 = SURFACE_SIDE_STYLE( '', ( #218 ) );
#148 = EDGE_LOOP( '', ( #219 ) );
#149 = EDGE_LOOP( '', ( #220 ) );
#150 = AXIS2_PLACEMENT_3D( '', #221, #222, #223 );
#151 = SURFACE_SIDE_STYLE( '', ( #224 ) );
#152 = EDGE_LOOP( '', ( #225 ) );
#153 = AXIS2_PLACEMENT_3D( '', #226, #227, #228 );
#154 = SURFACE_SIDE_STYLE( '', ( #229 ) );
#155 = EDGE_LOOP( '', ( #230, #231, #232, #233 ) );
#156 = AXIS2_PLACEMENT_3D( '', #234, #235, #236 );
#157 = SURFACE_SIDE_STYLE( '', ( #237 ) );
#158 = EDGE_LOOP( '', ( #238, #239, #240, #241 ) );
#159 = AXIS2_PLACEMENT_3D( '', #242, #243, #244 );
#160 = SURFACE_SIDE_STYLE( '', ( #245 ) );
#161 = EDGE_LOOP( '', ( #246 ) );
#162 = EDGE_LOOP( '', ( #247 ) );
#163 = AXIS2_PLACEMENT_3D( '', #248, #249, #250 );
#164 = SURFACE_SIDE_STYLE( '', ( #251 ) );
#165 = EDGE_LOOP( '', ( #252, #253 ) );
#166 = AXIS2_PLACEMENT_3D( '', #254, #255, #256 );
#167 = SURFACE_SIDE_STYLE( '', ( #257 ) );
#168 = EDGE_LOOP( '', ( #258, #259, #260, #261, #262, #263 ) );
#169 = AXIS2_PLACEMENT_3D( '', #264, #265, #266 );
#170 = SURFACE_SIDE_STYLE( '', ( #267 ) );
#171 = EDGE_LOOP( '', ( #268 ) );
#172 = EDGE_LOOP( '', ( #269 ) );
#173 = AXIS2_PLACEMENT_3D( '', #270, #271, #272 );
#175 = SURFACE_STYLE_FILL_AREA( #273 );
#176 = ORIENTED_EDGE( '', *, *, #274, .F. );
#177 = ORIENTED_EDGE( '', *, *, #275, .F. );
#178 = ORIENTED_EDGE( '', *, *, #276, .F. );
#179 = ORIENTED_EDGE( '', *, *, #277, .F. );
#180 = CARTESIAN_POINT( '', ( 1.20685606719362E-016, 0.000000000000000, 14.0000000000000 ) );
#181 = DIRECTION( '', ( -1.37926407679271E-017, 0.000000000000000, -1.00000000000000 ) );
#182 = DIRECTION( '', ( -1.00000000000000, 0.000000000000000, 1.37926407679271E-017 ) );
#183 = SURFACE_STYLE_FILL_AREA( #278 );
#184 = ORIENTED_EDGE( '', *, *, #279, .F. );
#185 = ORIENTED_EDGE( '', *, *, #280, .F. );
#186 = CARTESIAN_POINT( '', ( -2.41371213438723E-017, 0.000000000000000, 3.50000000000000 ) );
#187 = DIRECTION( '', ( 1.37926407679270E-017, -0.000000000000000, 1.00000000000000 ) );
#188 = DIRECTION( '', ( 1.00000000000000, 0.000000000000000, -1.37926407679270E-017 ) );
#189 = SURFACE_STYLE_FILL_AREA( #281 );
#190 = ORIENTED_EDGE( '', *, *, #282, .T. );
#191 = ORIENTED_EDGE( '', *, *, #283, .T. );
#192 = ORIENTED_EDGE( '', *, *, #284, .T. );
#193 = ORIENTED_EDGE( '', *, *, #285, .F. );
#194 = ORIENTED_EDGE( '', *, *, #286, .T. );
#195 = ORIENTED_EDGE( '', *, *, #287, .T. );
#196 = CARTESIAN_POINT( '', ( 0.250000000000000, -15.0000000000000, 13.0000000000000 ) );
#197 = DIRECTION( '', ( -1.00000000000000, 0.000000000000000, 1.08420217248550E-016 ) );
#198 = DIRECTION( '', ( 1.08420217248550E-016, 0.000000000000000, 1.00000000000000 ) );
#199 = SURFACE_STYLE_FILL_AREA( #288 );
#200 = ORIENTED_EDGE( '', *, *, #280, .T. );
#201 = ORIENTED_EDGE( '', *, *, #284, .F. );
#202 = ORIENTED_EDGE( '', *, *, #289, .T. );
#203 = ORIENTED_EDGE( '', *, *, #286, .F. );
#204 = ORIENTED_EDGE( '', *, *, #290, .F. );
#205 = ORIENTED_EDGE( '', *, *, #291, .F. );
#206 = ORIENTED_EDGE( '', *, *, #275, .T. );
#207 = ORIENTED_EDGE( '', *, *, #292, .F. );
#208 = ORIENTED_EDGE( '', *, *, #293, .F. );
#209 = CARTESIAN_POINT( '', ( 7.24113640316170E-017, 0.000000000000000, 10.5000000000000 ) );
#210 = DIRECTION( '', ( -1.37926407679271E-017, -0.000000000000000, -1.00000000000000 ) );
#211 = DIRECTION( '', ( 1.00000000000000, 0.000000000000000, -1.37926407679271E-017 ) );
#212 = SURFACE_STYLE_FILL_AREA( #294 );
#213 = ORIENTED_EDGE( '', *, *, #282, .F. );
#214 = ORIENTED_EDGE( '', *, *, #295, .T. );
#215 = CARTESIAN_POINT( '', ( 2.50000000000000, 0.000000000000000, 14.0000000000000 ) );
#216 = DIRECTION( '', ( -1.37926407679271E-017, 0.000000000000000, -1.00000000000000 ) );
#217 = DIRECTION( '', ( -1.00000000000000, 0.000000000000000, 1.37926407679271E-017 ) );
#218 = SURFACE_STYLE_FILL_AREA( #296 );
#219 = ORIENTED_EDGE( '', *, *, #297, .F. );
#220 = ORIENTED_EDGE( '', *, *, #298, .T. );
#221 = CARTESIAN_POINT( '', ( 1.20000000000000, 0.000000000000000, 2.00000000000000 ) );
#222 = DIRECTION( '', ( 1.37926407679271E-017, 0.000000000000000, 1.00000000000000 ) );
#223 = DIRECTION( '', ( 1.00000000000000, 0.000000000000000, -1.37926407679271E-017 ) );
#224 = SURFACE_STYLE_FILL_AREA( #299 );
#225 = ORIENTED_EDGE( '', *, *, #300, .F. );
#226 = CARTESIAN_POINT( '', ( 0.000000000000000, 0.000000000000000, 1.20000000000000 ) );
#227 = DIRECTION( '', ( 1.37926407679271E-017, 0.000000000000000, 1.00000000000000 ) );
#228 = DIRECTION( '', ( 1.00000000000000, 0.000000000000000, -1.37926407679271E-017 ) );
#229 = SURFACE_STYLE_FILL_AREA( #301 );
#230 = ORIENTED_EDGE( '', *, *, #293, .T. );
#231 = ORIENTED_EDGE( '', *, *, #302, .F. );
#232 = ORIENTED_EDGE( '', *, *, #290, .T. );
#233 = ORIENTED_EDGE( '', *, *, #285, .T. );
#234 = CARTESIAN_POINT( '', ( -0.250000000000000, -15.0000000000000, 13.0000000000000 ) );
#235 = DIRECTION( '', ( 0.000000000000000, 0.000000000000000, 1.00000000000000 ) );
#236 = DIRECTION( '', ( 1.00000000000000, 0.000000000000000, 0.000000000000000 ) );
#237 = SURFACE_STYLE_FILL_AREA( #303 );
#238 = ORIENTED_EDGE( '', *, *, #287, .F. );
#239 = ORIENTED_EDGE( '', *, *, #289, .F. );
#240 = ORIENTED_EDGE( '', *, *, #283, .F. );
#241 = ORIENTED_EDGE( '', *, *, #295, .F. );
#242 = CARTESIAN_POINT( '', ( 1.20685606719362E-016, 0.000000000000000, 14.0000000000000 ) );
#243 = DIRECTION( '', ( -1.37926407679271E-017, 0.000000000000000, -1.00000000000000 ) );
#244 = DIRECTION( '', ( -1.00000000000000, 0.000000000000000, 1.37926407679271E-017 ) );
#245 = SURFACE_STYLE_FILL_AREA( #304 );
#246 = ORIENTED_EDGE( '', *, *, #298, .F. );
#247 = ORIENTED_EDGE( '', *, *, #300, .T. );
#248 = CARTESIAN_POINT( '', ( 7.24113640316170E-017, 0.000000000000000, 10.5000000000000 ) );
#249 = DIRECTION( '', ( -1.37926407679271E-017, -0.000000000000000, -1.00000000000000 ) );
#250 = DIRECTION( '', ( 1.00000000000000, 0.000000000000000, -1.37926407679271E-017 ) );
#251 = SURFACE_STYLE_FILL_AREA( #305 );
#252 = ORIENTED_EDGE( '', *, *, #306, .T. );
#253 = ORIENTED_EDGE( '', *, *, #277, .T. );
#254 = CARTESIAN_POINT( '', ( 2.50000000000000, 0.000000000000000, 14.0000000000000 ) );
#255 = DIRECTION( '', ( -1.37926407679271E-017, 0.000000000000000, -1.00000000000000 ) );
#256 = DIRECTION( '', ( -1.00000000000000, 0.000000000000000, 1.37926407679271E-017 ) );
#257 = SURFACE_STYLE_FILL_AREA( #307 );
#258 = ORIENTED_EDGE( '', *, *, #306, .F. );
#259 = ORIENTED_EDGE( '', *, *, #276, .T. );
#260 = ORIENTED_EDGE( '', *, *, #291, .T. );
#261 = ORIENTED_EDGE( '', *, *, #302, .T. );
#262 = ORIENTED_EDGE( '', *, *, #292, .T. );
#263 = ORIENTED_EDGE( '', *, *, #274, .T. );
#264 = CARTESIAN_POINT( '', ( -0.250000000000000, -15.0000000000000, 14.0000000000000 ) );
#265 = DIRECTION( '', ( 1.00000000000000, 0.000000000000000, 1.08420217248550E-016 ) );
#266 = DIRECTION( '', ( 1.08420217248550E-016, 0.000000000000000, -1.00000000000000 ) );
#267 = SURFACE_STYLE_FILL_AREA( #308 );
#268 = ORIENTED_EDGE( '', *, *, #279, .T. );
#269 = ORIENTED_EDGE( '', *, *, #297, .T. );
#270 = CARTESIAN_POINT( '', ( 7.24113640316170E-017, 0.000000000000000, 10.5000000000000 ) );
#271 = DIRECTION( '', ( -1.37926407679271E-017, -0.000000000000000, -1.00000000000000 ) );
#272 = DIRECTION( '', ( 1.00000000000000, 0.000000000000000, -1.37926407679271E-017 ) );
#273 = FILL_AREA_STYLE( '', ( #309 ) );
#274 = EDGE_CURVE( '', #310, #311, #312, .T. );
#275 = EDGE_CURVE( '', #313, #310, #314, .T. );
#276 = EDGE_CURVE( '', #315, #313, #316, .T. );
#277 = EDGE_CURVE( '', #311, #315, #317, .F. );
#278 = FILL_AREA_STYLE( '', ( #318 ) );
#279 = EDGE_CURVE( '', #319, #319, #320, .F. );
#280 = EDGE_CURVE( '', #321, #321, #322, .T. );
#281 = FILL_AREA_STYLE( '', ( #323 ) );
#282 = EDGE_CURVE( '', #324, #325, #326, .T. );
#283 = EDGE_CURVE( '', #325, #327, #328, .T. );
#284 = EDGE_CURVE( '', #327, #329, #330, .F. );
#285 = EDGE_CURVE( '', #331, #329, #332, .T. );
#286 = EDGE_CURVE( '', #331, #333, #334, .T. );
#287 = EDGE_CURVE( '', #333, #324, #335, .T. );
#288 = FILL_AREA_STYLE( '', ( #336 ) );
#289 = EDGE_CURVE( '', #327, #333, #337, .T. );
#290 = EDGE_CURVE( '', #338, #331, #339, .T. );
#291 = EDGE_CURVE( '', #313, #338, #340, .F. );
#292 = EDGE_CURVE( '', #341, #310, #342, .T. );
#293 = EDGE_CURVE( '', #329, #341, #343, .T. );
#294 = FILL_AREA_STYLE( '', ( #344 ) );
#295 = EDGE_CURVE( '', #324, #325, #345, .F. );
#296 = FILL_AREA_STYLE( '', ( #346 ) );
#297 = EDGE_CURVE( '', #347, #347, #348, .T. );
#298 = EDGE_CURVE( '', #349, #349, #350, .T. );
#299 = FILL_AREA_STYLE( '', ( #351 ) );
#300 = EDGE_CURVE( '', #352, #352, #353, .T. );
#301 = FILL_AREA_STYLE( '', ( #354 ) );
#302 = EDGE_CURVE( '', #338, #341, #355, .T. );
#303 = FILL_AREA_STYLE( '', ( #356 ) );
#304 = FILL_AREA_STYLE( '', ( #357 ) );
#305 = FILL_AREA_STYLE( '', ( #358 ) );
#306 = EDGE_CURVE( '', #315, #311, #359, .T. );
#307 = FILL_AREA_STYLE( '', ( #360 ) );
#308 = FILL_AREA_STYLE( '', ( #361 ) );
#309 = FILL_AREA_STYLE_COLOUR( '', #362 );
#310 = VERTEX_POINT( '', #363 );
#311 = VERTEX_POINT( '', #364 );
#312 = B_SPLINE_CURVE_WITH_KNOTS( '', 3, ( #365, #366, #367, #368 ), .UNSPECIFIED., .F., .F., ( 4, 4 ), ( 0.000000000000000, 0.000709341288932106 ), .UNSPECIFIED. );
#313 = VERTEX_POINT( '', #369 );
#314 = CIRCLE( '', #370, 2.50000000000000 );
#315 = VERTEX_POINT( '', #371 );
#316 = B_SPLINE_CURVE_WITH_KNOTS( '', 3, ( #372, #373, #374, #375 ), .UNSPECIFIED., .F., .F., ( 4, 4 ), ( 0.000000000000000, 0.000709341288932106 ), .UNSPECIFIED. );
#317 = CIRCLE( '', #376, 2.00000000000000 );
#318 = FILL_AREA_STYLE_COLOUR( '', #377 );
#319 = VERTEX_POINT( '', #378 );
#320 = CIRCLE( '', #379, 1.75000000000000 );
#321 = VERTEX_POINT( '', #380 );
#322 = CIRCLE( '', #381, 2.50000000000000 );
#323 = FILL_AREA_STYLE_COLOUR( '', #382 );
#324 = VERTEX_POINT( '', #383 );
#325 = VERTEX_POINT( '', #384 );
#326 = LINE( '', #385, #386 );
#327 = VERTEX_POINT( '', #387 );
#328 = B_SPLINE_CURVE_WITH_KNOTS( '', 3, ( #388, #389, #390, #391 ), .UNSPECIFIED., .F., .F., ( 4, 4 ), ( 0.000000000000000, 0.000709341288932106 ), .UNSPECIFIED. );
#329 = VERTEX_POINT( '', #392 );
#330 = LINE( '', #393, #394 );
#331 = VERTEX_POINT( '', #395 );
#332 = LINE( '', #396, #397 );
#333 = VERTEX_POINT( '', #398 );
#334 = LINE( '', #399, #400 );
#335 = B_SPLINE_CURVE_WITH_KNOTS( '', 3, ( #401, #402, #403, #404 ), .UNSPECIFIED., .F., .F., ( 4, 4 ), ( 0.000000000000000, 0.000709341288932106 ), .UNSPECIFIED. );
#336 = FILL_AREA_STYLE_COLOUR( '', #405 );
#337 = CIRCLE( '', #406, 2.50000000000000 );
#338 = VERTEX_POINT( '', #407 );
#339 = CIRCLE( '', #408, 2.50000000000000 );
#340 = LINE( '', #409, #410 );
#341 = VERTEX_POINT( '', #411 );
#342 = LINE( '', #412, #413 );
#343 = CIRCLE( '', #414, 2.50000000000000 );
#344 = FILL_AREA_STYLE_COLOUR( '', #415 );
#345 = CIRCLE( '', #416, 2.00000000000000 );
#346 = FILL_AREA_STYLE_COLOUR( '', #417 );
#347 = VERTEX_POINT( '', #418 );
#348 = CIRCLE( '', #419, 1.75000000000000 );
#349 = VERTEX_POINT( '', #420 );
#350 = CIRCLE( '', #421, 1.20000000000000 );
#351 = FILL_AREA_STYLE_COLOUR( '', #422 );
#352 = VERTEX_POINT( '', #423 );
#353 = CIRCLE( '', #424, 1.20000000000000 );
#354 = FILL_AREA_STYLE_COLOUR( '', #425 );
#355 = LINE( '', #426, #427 );
#356 = FILL_AREA_STYLE_COLOUR( '', #428 );
#357 = FILL_AREA_STYLE_COLOUR( '', #429 );
#358 = FILL_AREA_STYLE_COLOUR( '', #430 );
#359 = LINE( '', #431, #432 );
#360 = FILL_AREA_STYLE_COLOUR( '', #433 );
#361 = FILL_AREA_STYLE_COLOUR( '', #434 );
#362 = COLOUR_RGB( '', 0.800000011920929, 0.800000011920929, 0.800000011920929 );
#363 = CARTESIAN_POINT( '', ( -0.250000000000000, 2.48746859276655, 13.5000000000000 ) );
#364 = CARTESIAN_POINT( '', ( -0.250000000000000, 1.98431348329844, 14.0000000000000 ) );
#365 = CARTESIAN_POINT( '', ( -0.250000000000000, 2.48746859276655, 13.5000000000000 ) );
#366 = CARTESIAN_POINT( '', ( -0.250000000000000, 2.31985569021310, 13.6667727323377 ) );
#367 = CARTESIAN_POINT( '', ( -0.250000000000000, 2.15216377933351, 13.8334661972010 ) );
#368 = CARTESIAN_POINT( '', ( -0.250000000000000, 1.98431348329844, 14.0000000000000 ) );
#369 = CARTESIAN_POINT( '', ( -0.250000000000000, -2.48746859276655, 13.5000000000000 ) );
#370 = AXIS2_PLACEMENT_3D( '', #435, #436, #437 );
#371 = CARTESIAN_POINT( '', ( -0.250000000000000, -1.98431348329844, 14.0000000000000 ) );
#372 = CARTESIAN_POINT( '', ( -0.250000000000000, -1.98431348329844, 14.0000000000000 ) );
#373 = CARTESIAN_POINT( '', ( -0.250000000000000, -2.15216377933352, 13.8334661972010 ) );
#374 = CARTESIAN_POINT( '', ( -0.250000000000000, -2.31985569021310, 13.6667727323377 ) );
#375 = CARTESIAN_POINT( '', ( -0.250000000000000, -2.48746859276655, 13.5000000000000 ) );
#376 = AXIS2_PLACEMENT_3D( '', #438, #439, #440 );
#377 = COLOUR_RGB( '', 0.800000011920929, 0.800000011920929, 0.800000011920929 );
#378 = CARTESIAN_POINT( '', ( 1.75000000000000, 0.000000000000000, 2.75000000000000 ) );
#379 = AXIS2_PLACEMENT_3D( '', #441, #442, #443 );
#380 = CARTESIAN_POINT( '', ( 2.50000000000000, 0.000000000000000, 3.50000000000000 ) );
#381 = AXIS2_PLACEMENT_3D( '', #444, #445, #446 );
#382 = COLOUR_RGB( '', 0.800000011920929, 0.800000011920929, 0.800000011920929 );
#383 = CARTESIAN_POINT( '', ( 0.250000000000000, -1.98431348329844, 14.0000000000000 ) );
#384 = CARTESIAN_POINT( '', ( 0.250000000000000, 1.98431348329844, 14.0000000000000 ) );
#385 = CARTESIAN_POINT( '', ( 0.250000000000000, -15.0000000000000, 14.0000000000000 ) );
#386 = VECTOR( '', #447, 1000.00000000000 );
#387 = CARTESIAN_POINT( '', ( 0.250000000000000, 2.48746859276655, 13.5000000000000 ) );
#388 = CARTESIAN_POINT( '', ( 0.250000000000000, 1.98431348329844, 14.0000000000000 ) );
#389 = CARTESIAN_POINT( '', ( 0.250000000000000, 2.15216377933352, 13.8334661972010 ) );
#390 = CARTESIAN_POINT( '', ( 0.250000000000000, 2.31985569021310, 13.6667727323377 ) );
#391 = CARTESIAN_POINT( '', ( 0.250000000000000, 2.48746859276655, 13.5000000000000 ) );
#392 = CARTESIAN_POINT( '', ( 0.250000000000000, 2.48746859276655, 13.0000000000000 ) );
#393 = CARTESIAN_POINT( '', ( 0.250000000000000, 2.48746859276655, 10.5000000000000 ) );
#394 = VECTOR( '', #448, 1000.00000000000 );
#395 = CARTESIAN_POINT( '', ( 0.250000000000000, -2.48746859276655, 13.0000000000000 ) );
#396 = CARTESIAN_POINT( '', ( 0.250000000000000, -15.0000000000000, 13.0000000000000 ) );
#397 = VECTOR( '', #449, 1000.00000000000 );
#398 = CARTESIAN_POINT( '', ( 0.250000000000000, -2.48746859276655, 13.5000000000000 ) );
#399 = CARTESIAN_POINT( '', ( 0.250000000000000, -2.48746859276655, 10.5000000000000 ) );
#400 = VECTOR( '', #450, 1000.00000000000 );
#401 = CARTESIAN_POINT( '', ( 0.250000000000000, -2.48746859276655, 13.5000000000000 ) );
#402 = CARTESIAN_POINT( '', ( 0.250000000000000, -2.31985569021310, 13.6667727323377 ) );
#403 = CARTESIAN_POINT( '', ( 0.250000000000000, -2.15216377933352, 13.8334661972010 ) );
#404 = CARTESIAN_POINT( '', ( 0.250000000000000, -1.98431348329844, 14.0000000000000 ) );
#405 = COLOUR_RGB( '', 0.752941191196442, 0.752941191196442, 0.752941191196442 );
#406 = AXIS2_PLACEMENT_3D( '', #451, #452, #453 );
#407 = CARTESIAN_POINT( '', ( -0.250000000000000, -2.48746859276655, 13.0000000000000 ) );
#408 = AXIS2_PLACEMENT_3D( '', #454, #455, #456 );
#409 = CARTESIAN_POINT( '', ( -0.250000000000000, -2.48746859276655, 10.5000000000000 ) );
#410 = VECTOR( '', #457, 1000.00000000000 );
#411 = CARTESIAN_POINT( '', ( -0.250000000000000, 2.48746859276655, 13.0000000000000 ) );
#412 = CARTESIAN_POINT( '', ( -0.250000000000000, 2.48746859276655, 10.5000000000000 ) );
#413 = VECTOR( '', #458, 1000.00000000000 );
#414 = AXIS2_PLACEMENT_3D( '', #459, #460, #461 );
#415 = COLOUR_RGB( '', 0.800000011920929, 0.800000011920929, 0.800000011920929 );
#416 = AXIS2_PLACEMENT_3D( '', #462, #463, #464 );
#417 = COLOUR_RGB( '', 0.800000011920929, 0.800000011920929, 0.800000011920929 );
#418 = CARTESIAN_POINT( '', ( 1.75000000000000, 0.000000000000000, 2.00000000000000 ) );
#419 = AXIS2_PLACEMENT_3D( '', #465, #466, #467 );
#420 = CARTESIAN_POINT( '', ( 1.20000000000000, 0.000000000000000, 2.00000000000000 ) );
#421 = AXIS2_PLACEMENT_3D( '', #468, #469, #470 );
#422 = COLOUR_RGB( '', 0.800000011920929, 0.800000011920929, 0.800000011920929 );
#423 = CARTESIAN_POINT( '', ( 1.20000000000000, 0.000000000000000, 1.20000000000000 ) );
#424 = AXIS2_PLACEMENT_3D( '', #471, #472, #473 );
#425 = COLOUR_RGB( '', 0.800000011920929, 0.800000011920929, 0.800000011920929 );
#426 = CARTESIAN_POINT( '', ( -0.250000000000000, -15.0000000000000, 13.0000000000000 ) );
#427 = VECTOR( '', #474, 1000.00000000000 );
#428 = COLOUR_RGB( '', 0.800000011920929, 0.800000011920929, 0.800000011920929 );
#429 = COLOUR_RGB( '', 0.800000011920929, 0.800000011920929, 0.800000011920929 );
#430 = COLOUR_RGB( '', 0.800000011920929, 0.800000011920929, 0.800000011920929 );
#431 = CARTESIAN_POINT( '', ( -0.250000000000000, -15.0000000000000, 14.0000000000000 ) );
#432 = VECTOR( '', #475, 1000.00000000000 );
#433 = COLOUR_RGB( '', 0.800000011920929, 0.800000011920929, 0.800000011920929 );
#434 = COLOUR_RGB( '', 0.800000011920929, 0.800000011920929, 0.800000011920929 );
#435 = CARTESIAN_POINT( '', ( 1.13789286335398E-016, 0.000000000000000, 13.5000000000000 ) );
#436 = DIRECTION( '', ( -1.37926407679271E-017, 0.000000000000000, -1.00000000000000 ) );
#437 = DIRECTION( '', ( -1.00000000000000, 0.000000000000000, 1.37926407679271E-017 ) );
#438 = CARTESIAN_POINT( '', ( 1.20685606719362E-016, 0.000000000000000, 14.0000000000000 ) );
#439 = DIRECTION( '', ( -1.37926407679271E-017, 0.000000000000000, -1.00000000000000 ) );
#440 = DIRECTION( '', ( -1.00000000000000, 0.000000000000000, 1.37926407679271E-017 ) );
#441 = CARTESIAN_POINT( '', ( -3.44816019198176E-017, 0.000000000000000, 2.75000000000000 ) );
#442 = DIRECTION( '', ( 1.37926407679270E-017, 0.000000000000000, 1.00000000000000 ) );
#443 = DIRECTION( '', ( 1.00000000000000, 0.000000000000000, -1.37926407679270E-017 ) );
#444 = CARTESIAN_POINT( '', ( -2.41371213438723E-017, 0.000000000000000, 3.50000000000000 ) );
#445 = DIRECTION( '', ( 1.37926407679270E-017, 0.000000000000000, 1.00000000000000 ) );
#446 = DIRECTION( '', ( 1.00000000000000, 0.000000000000000, -1.37926407679270E-017 ) );
#447 = DIRECTION( '', ( 0.000000000000000, 1.00000000000000, 0.000000000000000 ) );
#448 = DIRECTION( '', ( 1.37926407679271E-017, 0.000000000000000, 1.00000000000000 ) );
#449 = DIRECTION( '', ( 0.000000000000000, 1.00000000000000, 0.000000000000000 ) );
#450 = DIRECTION( '', ( 1.37926407679271E-017, 0.000000000000000, 1.00000000000000 ) );
#451 = CARTESIAN_POINT( '', ( 1.13789286335398E-016, 0.000000000000000, 13.5000000000000 ) );
#452 = DIRECTION( '', ( -1.37926407679271E-017, 0.000000000000000, -1.00000000000000 ) );
#453 = DIRECTION( '', ( -1.00000000000000, 0.000000000000000, 1.37926407679271E-017 ) );
#454 = CARTESIAN_POINT( '', ( 1.06892965951435E-016, 0.000000000000000, 13.0000000000000 ) );
#455 = DIRECTION( '', ( 0.000000000000000, 0.000000000000000, 1.00000000000000 ) );
#456 = DIRECTION( '', ( 1.00000000000000, 0.000000000000000, 0.000000000000000 ) );
#457 = DIRECTION( '', ( 1.37926407679271E-017, 0.000000000000000, 1.00000000000000 ) );
#458 = DIRECTION( '', ( 1.37926407679271E-017, 0.000000000000000, 1.00000000000000 ) );
#459 = CARTESIAN_POINT( '', ( 1.06892965951435E-016, 0.000000000000000, 13.0000000000000 ) );
#460 = DIRECTION( '', ( 0.000000000000000, 0.000000000000000, 1.00000000000000 ) );
#461 = DIRECTION( '', ( 1.00000000000000, 0.000000000000000, 0.000000000000000 ) );
#462 = CARTESIAN_POINT( '', ( 1.20685606719362E-016, 0.000000000000000, 14.0000000000000 ) );
#463 = DIRECTION( '', ( -1.37926407679271E-017, 0.000000000000000, -1.00000000000000 ) );
#464 = DIRECTION( '', ( -1.00000000000000, 0.000000000000000, 1.37926407679271E-017 ) );
#465 = CARTESIAN_POINT( '', ( -4.48260824957630E-017, 0.000000000000000, 2.00000000000000 ) );
#466 = DIRECTION( '', ( 1.37926407679271E-017, 0.000000000000000, 1.00000000000000 ) );
#467 = DIRECTION( '', ( 1.00000000000000, 0.000000000000000, -1.37926407679271E-017 ) );
#468 = CARTESIAN_POINT( '', ( -4.48260824957630E-017, 0.000000000000000, 2.00000000000000 ) );
#469 = DIRECTION( '', ( 1.37926407679271E-017, 0.000000000000000, 1.00000000000000 ) );
#470 = DIRECTION( '', ( 1.00000000000000, 0.000000000000000, -1.37926407679271E-017 ) );
#471 = CARTESIAN_POINT( '', ( -5.58601951101045E-017, 0.000000000000000, 1.20000000000000 ) );
#472 = DIRECTION( '', ( 1.37926407679271E-017, 0.000000000000000, 1.00000000000000 ) );
#473 = DIRECTION( '', ( 1.00000000000000, 0.000000000000000, -1.37926407679271E-017 ) );
#474 = DIRECTION( '', ( 0.000000000000000, 1.00000000000000, 0.000000000000000 ) );
#475 = DIRECTION( '', ( 0.000000000000000, 1.00000000000000, 0.000000000000000 ) );
ENDSEC;
END-ISO-10303-21;
