ISO-10303-21;
HEADER;
FILE_DESCRIPTION( ( 'Unknown' ), '1' );
FILE_NAME( '//SBS2003/HD_Usb/Disegni/08_LIB/Users_3D/PROD_GAMM_3D/APP-I/7747215_APP_14_I.stp', 'Unknown', ( 'Unknown' ), ( 'Unknown' ), 'PSStep 14.0', 'Unknown', '  ' );
FILE_SCHEMA( ( 'AUTOMOTIVE_DESIGN { 1 0 10303 214 1 1 1 1 }' ) );
ENDSEC;
DATA;
#1 = MECHANICAL_DESIGN_GEOMETRIC_PRESENTATION_REPRESENTATION( ' ', ( #10, #11, #12, #13, #14, #15, #16, #17, #18, #19, #20, #21, #22 ), #6 );
#2 = PRODUCT_DEFINITION_CONTEXT( '', #23, 'design' );
#3 = APPLICATION_PROTOCOL_DEFINITION( 'international standard', 'automotive_design', 2001, #23 );
#4 = PRODUCT_CATEGORY_RELATIONSHIP( 'NONE', 'NONE', #24, #25 );
#5 = SHAPE_DEFINITION_REPRESENTATION( #26, #27 );
#6 =  ( GEOMETRIC_REPRESENTATION_CONTEXT( 3 )GLOBAL_UNCERTAINTY_ASSIGNED_CONTEXT( ( #30 ) )GLOBAL_UNIT_ASSIGNED_CONTEXT( ( #32, #33, #34 ) )REPRESENTATION_CONTEXT( 'NONE', 'WORKSPACE' ) );
#10 = STYLED_ITEM( '', ( #36 ), #37 );
#11 = STYLED_ITEM( '', ( #38 ), #39 );
#12 = STYLED_ITEM( '', ( #40 ), #41 );
#13 = STYLED_ITEM( '', ( #42 ), #43 );
#14 = STYLED_ITEM( '', ( #44 ), #45 );
#15 = STYLED_ITEM( '', ( #46 ), #47 );
#16 = STYLED_ITEM( '', ( #48 ), #49 );
#17 = STYLED_ITEM( '', ( #50 ), #51 );
#18 = STYLED_ITEM( '', ( #52 ), #53 );
#19 = STYLED_ITEM( '', ( #54 ), #55 );
#20 = STYLED_ITEM( '', ( #56 ), #57 );
#21 = STYLED_ITEM( '', ( #58 ), #59 );
#22 = STYLED_ITEM( '', ( #60 ), #61 );
#23 = APPLICATION_CONTEXT( 'core data for automotive mechanical design processes' );
#24 = PRODUCT_CATEGORY( 'part', 'NONE' );
#25 = PRODUCT_RELATED_PRODUCT_CATEGORY( 'detail', ' ', ( #62 ) );
#26 = PRODUCT_DEFINITION_SHAPE( 'NONE', 'NONE', #63 );
#27 = ADVANCED_BREP_SHAPE_REPRESENTATION( '1', ( #64, #65 ), #6 );
#30 = UNCERTAINTY_MEASURE_WITH_UNIT( LENGTH_MEASURE( 0.00100000000000000 ), #32, '', '' );
#32 =  ( CONVERSION_BASED_UNIT( 'MILLIMETRE', #68 )LENGTH_UNIT(  )NAMED_UNIT( #71 ) );
#33 =  ( NAMED_UNIT( #73 )PLANE_ANGLE_UNIT(  )SI_UNIT( $, .RADIAN. ) );
#34 =  ( NAMED_UNIT( #73 )SI_UNIT( $, .STERADIAN. )SOLID_ANGLE_UNIT(  ) );
#36 = PRESENTATION_STYLE_ASSIGNMENT( ( #79 ) );
#37 = ADVANCED_FACE( '', ( #80 ), #81, .T. );
#38 = PRESENTATION_STYLE_ASSIGNMENT( ( #82 ) );
#39 = ADVANCED_FACE( '', ( #83, #84 ), #85, .F. );
#40 = PRESENTATION_STYLE_ASSIGNMENT( ( #86 ) );
#41 = ADVANCED_FACE( '', ( #87 ), #88, .T. );
#42 = PRESENTATION_STYLE_ASSIGNMENT( ( #89 ) );
#43 = ADVANCED_FACE( '', ( #90 ), #91, .T. );
#44 = PRESENTATION_STYLE_ASSIGNMENT( ( #92 ) );
#45 = ADVANCED_FACE( '', ( #93 ), #94, .F. );
#46 = PRESENTATION_STYLE_ASSIGNMENT( ( #95 ) );
#47 = ADVANCED_FACE( '', ( #96, #97 ), #98, .T. );
#48 = PRESENTATION_STYLE_ASSIGNMENT( ( #99 ) );
#49 = ADVANCED_FACE( '', ( #100 ), #101, .T. );
#50 = PRESENTATION_STYLE_ASSIGNMENT( ( #102 ) );
#51 = ADVANCED_FACE( '', ( #103, #104 ), #105, .T. );
#52 = PRESENTATION_STYLE_ASSIGNMENT( ( #106 ) );
#53 = ADVANCED_FACE( '', ( #107 ), #108, .T. );
#54 = PRESENTATION_STYLE_ASSIGNMENT( ( #109 ) );
#55 = ADVANCED_FACE( '', ( #110, #111 ), #112, .T. );
#56 = PRESENTATION_STYLE_ASSIGNMENT( ( #113 ) );
#57 = ADVANCED_FACE( '', ( #114 ), #115, .T. );
#58 = PRESENTATION_STYLE_ASSIGNMENT( ( #116 ) );
#59 = ADVANCED_FACE( '', ( #117 ), #118, .F. );
#60 = PRESENTATION_STYLE_ASSIGNMENT( ( #119 ) );
#61 = ADVANCED_FACE( '', ( #120, #121 ), #122, .T. );
#62 = PRODUCT( '1', '1', 'PART-1-DESC', ( #123 ) );
#63 = PRODUCT_DEFINITION( 'NONE', 'NONE', #124, #2 );
#64 = MANIFOLD_SOLID_BREP( '1', #125 );
#65 = AXIS2_PLACEMENT_3D( '', #126, #127, #128 );
#68 = LENGTH_MEASURE_WITH_UNIT( LENGTH_MEASURE( 1.00000000000000 ), #129 );
#71 = DIMENSIONAL_EXPONENTS( 1.00000000000000, 0.000000000000000, 0.000000000000000, 0.000000000000000, 0.000000000000000, 0.000000000000000, 0.000000000000000 );
#73 = DIMENSIONAL_EXPONENTS( 0.000000000000000, 0.000000000000000, 0.000000000000000, 0.000000000000000, 0.000000000000000, 0.000000000000000, 0.000000000000000 );
#79 = SURFACE_STYLE_USAGE( .BOTH., #130 );
#80 = FACE_OUTER_BOUND( '', #131, .T. );
#81 = SPHERICAL_SURFACE( '', #132, 1.35000000000000 );
#82 = SURFACE_STYLE_USAGE( .BOTH., #133 );
#83 = FACE_OUTER_BOUND( '', #134, .T. );
#84 = FACE_BOUND( '', #135, .T. );
#85 = PLANE( '', #136 );
#86 = SURFACE_STYLE_USAGE( .BOTH., #137 );
#87 = FACE_OUTER_BOUND( '', #138, .T. );
#88 = CONICAL_SURFACE( '', #139, 2.50000000000000, 0.785398163397448 );
#89 = SURFACE_STYLE_USAGE( .BOTH., #140 );
#90 = FACE_OUTER_BOUND( '', #141, .T. );
#91 = CONICAL_SURFACE( '', #142, 2.50000000000000, 0.785398163397448 );
#92 = SURFACE_STYLE_USAGE( .BOTH., #143 );
#93 = FACE_OUTER_BOUND( '', #144, .T. );
#94 = PLANE( '', #145 );
#95 = SURFACE_STYLE_USAGE( .BOTH., #146 );
#96 = FACE_OUTER_BOUND( '', #147, .T. );
#97 = FACE_OUTER_BOUND( '', #148, .T. );
#98 = CYLINDRICAL_SURFACE( '', #149, 3.00000000000000 );
#99 = SURFACE_STYLE_USAGE( .BOTH., #150 );
#100 = FACE_OUTER_BOUND( '', #151, .T. );
#101 = PLANE( '', #152 );
#102 = SURFACE_STYLE_USAGE( .BOTH., #153 );
#103 = FACE_BOUND( '', #154, .T. );
#104 = FACE_OUTER_BOUND( '', #155, .T. );
#105 = CONICAL_SURFACE( '', #156, 3.00000000000000, 0.785398163397449 );
#106 = SURFACE_STYLE_USAGE( .BOTH., #157 );
#107 = FACE_OUTER_BOUND( '', #158, .T. );
#108 = PLANE( '', #159 );
#109 = SURFACE_STYLE_USAGE( .BOTH., #160 );
#110 = FACE_OUTER_BOUND( '', #161, .T. );
#111 = FACE_OUTER_BOUND( '', #162, .T. );
#112 = CYLINDRICAL_SURFACE( '', #163, 1.35000000000000 );
#113 = SURFACE_STYLE_USAGE( .BOTH., #164 );
#114 = FACE_OUTER_BOUND( '', #165, .T. );
#115 = PLANE( '', #166 );
#116 = SURFACE_STYLE_USAGE( .BOTH., #167 );
#117 = FACE_OUTER_BOUND( '', #168, .T. );
#118 = PLANE( '', #169 );
#119 = SURFACE_STYLE_USAGE( .BOTH., #170 );
#120 = FACE_OUTER_BOUND( '', #171, .T. );
#121 = FACE_OUTER_BOUND( '', #172, .T. );
#122 = CYLINDRICAL_SURFACE( '', #173, 2.00000000000000 );
#123 = PRODUCT_CONTEXT( '', #23, 'mechanical' );
#124 = PRODUCT_DEFINITION_FORMATION_WITH_SPECIFIED_SOURCE( ' ', 'NONE', #62, .NOT_KNOWN. );
#125 = CLOSED_SHELL( '', ( #47, #41, #53, #49, #43, #51, #37, #55, #45, #39, #61, #59, #57 ) );
#126 = CARTESIAN_POINT( '', ( 0.000000000000000, 0.000000000000000, 0.000000000000000 ) );
#127 = DIRECTION( '', ( 0.000000000000000, 0.000000000000000, 1.00000000000000 ) );
#128 = DIRECTION( '', ( 1.00000000000000, 0.000000000000000, 0.000000000000000 ) );
#129 =  ( LENGTH_UNIT(  )NAMED_UNIT( #71 )SI_UNIT( .MILLI., .METRE. ) );
#130 = SURFACE_SIDE_STYLE( '', ( #175 ) );
#131 = EDGE_LOOP( '', ( #176 ) );
#132 = AXIS2_PLACEMENT_3D( '', #177, #178, #179 );
#133 = SURFACE_SIDE_STYLE( '', ( #180 ) );
#134 = EDGE_LOOP( '', ( #181 ) );
#135 = EDGE_LOOP( '', ( #182 ) );
#136 = AXIS2_PLACEMENT_3D( '', #183, #184, #185 );
#137 = SURFACE_SIDE_STYLE( '', ( #186 ) );
#138 = EDGE_LOOP( '', ( #187, #188, #189, #190 ) );
#139 = AXIS2_PLACEMENT_3D( '', #191, #192, #193 );
#140 = SURFACE_SIDE_STYLE( '', ( #194 ) );
#141 = EDGE_LOOP( '', ( #195, #196, #197, #198 ) );
#142 = AXIS2_PLACEMENT_3D( '', #199, #200, #201 );
#143 = SURFACE_SIDE_STYLE( '', ( #202 ) );
#144 = EDGE_LOOP( '', ( #203, #204 ) );
#145 = AXIS2_PLACEMENT_3D( '', #205, #206, #207 );
#146 = SURFACE_SIDE_STYLE( '', ( #208 ) );
#147 = EDGE_LOOP( '', ( #209 ) );
#148 = EDGE_LOOP( '', ( #210, #211, #212, #213, #214, #215, #216, #217 ) );
#149 = AXIS2_PLACEMENT_3D( '', #218, #219, #220 );
#150 = SURFACE_SIDE_STYLE( '', ( #221 ) );
#151 = EDGE_LOOP( '', ( #222, #223, #224, #225, #226, #227 ) );
#152 = AXIS2_PLACEMENT_3D( '', #228, #229, #230 );
#153 = SURFACE_SIDE_STYLE( '', ( #231 ) );
#154 = EDGE_LOOP( '', ( #232 ) );
#155 = EDGE_LOOP( '', ( #233 ) );
#156 = AXIS2_PLACEMENT_3D( '', #234, #235, #236 );
#157 = SURFACE_SIDE_STYLE( '', ( #237 ) );
#158 = EDGE_LOOP( '', ( #238, #239, #240, #241 ) );
#159 = AXIS2_PLACEMENT_3D( '', #242, #243, #244 );
#160 = SURFACE_SIDE_STYLE( '', ( #245 ) );
#161 = EDGE_LOOP( '', ( #246 ) );
#162 = EDGE_LOOP( '', ( #247 ) );
#163 = AXIS2_PLACEMENT_3D( '', #248, #249, #250 );
#164 = SURFACE_SIDE_STYLE( '', ( #251 ) );
#165 = EDGE_LOOP( '', ( #252, #253, #254, #255, #256, #257 ) );
#166 = AXIS2_PLACEMENT_3D( '', #258, #259, #260 );
#167 = SURFACE_SIDE_STYLE( '', ( #261 ) );
#168 = EDGE_LOOP( '', ( #262, #263 ) );
#169 = AXIS2_PLACEMENT_3D( '', #264, #265, #266 );
#170 = SURFACE_SIDE_STYLE( '', ( #267 ) );
#171 = EDGE_LOOP( '', ( #268 ) );
#172 = EDGE_LOOP( '', ( #269 ) );
#173 = AXIS2_PLACEMENT_3D( '', #270, #271, #272 );
#175 = SURFACE_STYLE_FILL_AREA( #273 );
#176 = ORIENTED_EDGE( '', *, *, #274, .F. );
#177 = CARTESIAN_POINT( '', ( 0.000000000000000, 0.000000000000000, 1.35000000000000 ) );
#178 = DIRECTION( '', ( 1.37926407679271E-017, 0.000000000000000, 1.00000000000000 ) );
#179 = DIRECTION( '', ( 1.00000000000000, 0.000000000000000, -1.37926407679271E-017 ) );
#180 = SURFACE_STYLE_FILL_AREA( #275 );
#181 = ORIENTED_EDGE( '', *, *, #276, .F. );
#182 = ORIENTED_EDGE( '', *, *, #277, .T. );
#183 = CARTESIAN_POINT( '', ( 1.35000000000000, 0.000000000000000, 2.00000000000000 ) );
#184 = DIRECTION( '', ( 1.37926407679271E-017, 0.000000000000000, 1.00000000000000 ) );
#185 = DIRECTION( '', ( 1.00000000000000, 0.000000000000000, -1.37926407679271E-017 ) );
#186 = SURFACE_STYLE_FILL_AREA( #278 );
#187 = ORIENTED_EDGE( '', *, *, #279, .F. );
#188 = ORIENTED_EDGE( '', *, *, #280, .F. );
#189 = ORIENTED_EDGE( '', *, *, #281, .F. );
#190 = ORIENTED_EDGE( '', *, *, #282, .F. );
#191 = CARTESIAN_POINT( '', ( 1.48270888255216E-016, 0.000000000000000, 16.0000000000000 ) );
#192 = DIRECTION( '', ( -1.37926407679270E-017, 0.000000000000000, -1.00000000000000 ) );
#193 = DIRECTION( '', ( -1.00000000000000, 0.000000000000000, 1.37926407679270E-017 ) );
#194 = SURFACE_STYLE_FILL_AREA( #283 );
#195 = ORIENTED_EDGE( '', *, *, #284, .F. );
#196 = ORIENTED_EDGE( '', *, *, #285, .F. );
#197 = ORIENTED_EDGE( '', *, *, #286, .F. );
#198 = ORIENTED_EDGE( '', *, *, #287, .F. );
#199 = CARTESIAN_POINT( '', ( 1.48270888255216E-016, 0.000000000000000, 16.0000000000000 ) );
#200 = DIRECTION( '', ( -1.37926407679270E-017, 0.000000000000000, -1.00000000000000 ) );
#201 = DIRECTION( '', ( -1.00000000000000, 0.000000000000000, 1.37926407679270E-017 ) );
#202 = SURFACE_STYLE_FILL_AREA( #288 );
#203 = ORIENTED_EDGE( '', *, *, #289, .F. );
#204 = ORIENTED_EDGE( '', *, *, #287, .T. );
#205 = CARTESIAN_POINT( '', ( 3.00000000000000, 0.000000000000000, 16.0000000000000 ) );
#206 = DIRECTION( '', ( -1.37926407679271E-017, 0.000000000000000, -1.00000000000000 ) );
#207 = DIRECTION( '', ( -1.00000000000000, 0.000000000000000, 1.37926407679271E-017 ) );
#208 = SURFACE_STYLE_FILL_AREA( #290 );
#209 = ORIENTED_EDGE( '', *, *, #291, .T. );
#210 = ORIENTED_EDGE( '', *, *, #292, .F. );
#211 = ORIENTED_EDGE( '', *, *, #285, .T. );
#212 = ORIENTED_EDGE( '', *, *, #293, .F. );
#213 = ORIENTED_EDGE( '', *, *, #294, .F. );
#214 = ORIENTED_EDGE( '', *, *, #295, .F. );
#215 = ORIENTED_EDGE( '', *, *, #280, .T. );
#216 = ORIENTED_EDGE( '', *, *, #296, .F. );
#217 = ORIENTED_EDGE( '', *, *, #297, .F. );
#218 = CARTESIAN_POINT( '', ( 7.24113640316170E-017, 0.000000000000000, 10.5000000000000 ) );
#219 = DIRECTION( '', ( -1.37926407679271E-017, -0.000000000000000, -1.00000000000000 ) );
#220 = DIRECTION( '', ( 1.00000000000000, 0.000000000000000, -1.37926407679271E-017 ) );
#221 = SURFACE_STYLE_FILL_AREA( #298 );
#222 = ORIENTED_EDGE( '', *, *, #289, .T. );
#223 = ORIENTED_EDGE( '', *, *, #286, .T. );
#224 = ORIENTED_EDGE( '', *, *, #292, .T. );
#225 = ORIENTED_EDGE( '', *, *, #299, .F. );
#226 = ORIENTED_EDGE( '', *, *, #293, .T. );
#227 = ORIENTED_EDGE( '', *, *, #284, .T. );
#228 = CARTESIAN_POINT( '', ( 0.500000000000000, -12.5000000000000, 15.0000000000000 ) );
#229 = DIRECTION( '', ( -1.00000000000000, 0.000000000000000, 1.08420217248550E-016 ) );
#230 = DIRECTION( '', ( 1.08420217248550E-016, 0.000000000000000, 1.00000000000000 ) );
#231 = SURFACE_STYLE_FILL_AREA( #300 );
#232 = ORIENTED_EDGE( '', *, *, #301, .T. );
#233 = ORIENTED_EDGE( '', *, *, #291, .F. );
#234 = CARTESIAN_POINT( '', ( -2.41371213438723E-017, 0.000000000000000, 3.50000000000000 ) );
#235 = DIRECTION( '', ( 1.37926407679270E-017, -0.000000000000000, 1.00000000000000 ) );
#236 = DIRECTION( '', ( 1.00000000000000, 0.000000000000000, -1.37926407679270E-017 ) );
#237 = SURFACE_STYLE_FILL_AREA( #302 );
#238 = ORIENTED_EDGE( '', *, *, #297, .T. );
#239 = ORIENTED_EDGE( '', *, *, #303, .F. );
#240 = ORIENTED_EDGE( '', *, *, #294, .T. );
#241 = ORIENTED_EDGE( '', *, *, #299, .T. );
#242 = CARTESIAN_POINT( '', ( -0.500000000000000, -12.5000000000000, 15.0000000000000 ) );
#243 = DIRECTION( '', ( 0.000000000000000, 0.000000000000000, 1.00000000000000 ) );
#244 = DIRECTION( '', ( 1.00000000000000, 0.000000000000000, 0.000000000000000 ) );
#245 = SURFACE_STYLE_FILL_AREA( #304 );
#246 = ORIENTED_EDGE( '', *, *, #277, .F. );
#247 = ORIENTED_EDGE( '', *, *, #274, .T. );
#248 = CARTESIAN_POINT( '', ( 7.24113640316170E-017, 0.000000000000000, 10.5000000000000 ) );
#249 = DIRECTION( '', ( -1.37926407679271E-017, -0.000000000000000, -1.00000000000000 ) );
#250 = DIRECTION( '', ( 1.00000000000000, 0.000000000000000, -1.37926407679271E-017 ) );
#251 = SURFACE_STYLE_FILL_AREA( #305 );
#252 = ORIENTED_EDGE( '', *, *, #306, .F. );
#253 = ORIENTED_EDGE( '', *, *, #281, .T. );
#254 = ORIENTED_EDGE( '', *, *, #295, .T. );
#255 = ORIENTED_EDGE( '', *, *, #303, .T. );
#256 = ORIENTED_EDGE( '', *, *, #296, .T. );
#257 = ORIENTED_EDGE( '', *, *, #279, .T. );
#258 = CARTESIAN_POINT( '', ( -0.500000000000000, -12.5000000000000, 16.0000000000000 ) );
#259 = DIRECTION( '', ( 1.00000000000000, 0.000000000000000, 1.08420217248550E-016 ) );
#260 = DIRECTION( '', ( 1.08420217248550E-016, 0.000000000000000, -1.00000000000000 ) );
#261 = SURFACE_STYLE_FILL_AREA( #307 );
#262 = ORIENTED_EDGE( '', *, *, #306, .T. );
#263 = ORIENTED_EDGE( '', *, *, #282, .T. );
#264 = CARTESIAN_POINT( '', ( 3.00000000000000, 0.000000000000000, 16.0000000000000 ) );
#265 = DIRECTION( '', ( -1.37926407679271E-017, 0.000000000000000, -1.00000000000000 ) );
#266 = DIRECTION( '', ( -1.00000000000000, 0.000000000000000, 1.37926407679271E-017 ) );
#267 = SURFACE_STYLE_FILL_AREA( #308 );
#268 = ORIENTED_EDGE( '', *, *, #301, .F. );
#269 = ORIENTED_EDGE( '', *, *, #276, .T. );
#270 = CARTESIAN_POINT( '', ( 7.24113640316170E-017, 0.000000000000000, 10.5000000000000 ) );
#271 = DIRECTION( '', ( -1.37926407679271E-017, -0.000000000000000, -1.00000000000000 ) );
#272 = DIRECTION( '', ( 1.00000000000000, 0.000000000000000, -1.37926407679271E-017 ) );
#273 = FILL_AREA_STYLE( '', ( #309 ) );
#274 = EDGE_CURVE( '', #310, #310, #311, .T. );
#275 = FILL_AREA_STYLE( '', ( #312 ) );
#276 = EDGE_CURVE( '', #313, #313, #314, .T. );
#277 = EDGE_CURVE( '', #315, #315, #316, .T. );
#278 = FILL_AREA_STYLE( '', ( #317 ) );
#279 = EDGE_CURVE( '', #318, #319, #320, .T. );
#280 = EDGE_CURVE( '', #321, #318, #322, .T. );
#281 = EDGE_CURVE( '', #323, #321, #324, .T. );
#282 = EDGE_CURVE( '', #319, #323, #325, .F. );
#283 = FILL_AREA_STYLE( '', ( #326 ) );
#284 = EDGE_CURVE( '', #327, #328, #329, .T. );
#285 = EDGE_CURVE( '', #330, #327, #331, .T. );
#286 = EDGE_CURVE( '', #332, #330, #333, .T. );
#287 = EDGE_CURVE( '', #328, #332, #334, .F. );
#288 = FILL_AREA_STYLE( '', ( #335 ) );
#289 = EDGE_CURVE( '', #328, #332, #336, .T. );
#290 = FILL_AREA_STYLE( '', ( #337 ) );
#291 = EDGE_CURVE( '', #338, #338, #339, .T. );
#292 = EDGE_CURVE( '', #330, #340, #341, .F. );
#293 = EDGE_CURVE( '', #342, #327, #343, .T. );
#294 = EDGE_CURVE( '', #344, #342, #345, .T. );
#295 = EDGE_CURVE( '', #321, #344, #346, .F. );
#296 = EDGE_CURVE( '', #347, #318, #348, .T. );
#297 = EDGE_CURVE( '', #340, #347, #349, .T. );
#298 = FILL_AREA_STYLE( '', ( #350 ) );
#299 = EDGE_CURVE( '', #342, #340, #351, .T. );
#300 = FILL_AREA_STYLE( '', ( #352 ) );
#301 = EDGE_CURVE( '', #353, #353, #354, .T. );
#302 = FILL_AREA_STYLE( '', ( #355 ) );
#303 = EDGE_CURVE( '', #344, #347, #356, .T. );
#304 = FILL_AREA_STYLE( '', ( #357 ) );
#305 = FILL_AREA_STYLE( '', ( #358 ) );
#306 = EDGE_CURVE( '', #323, #319, #359, .T. );
#307 = FILL_AREA_STYLE( '', ( #360 ) );
#308 = FILL_AREA_STYLE( '', ( #361 ) );
#309 = FILL_AREA_STYLE_COLOUR( '', #362 );
#310 = VERTEX_POINT( '', #363 );
#311 = CIRCLE( '', #364, 1.35000000000000 );
#312 = FILL_AREA_STYLE_COLOUR( '', #365 );
#313 = VERTEX_POINT( '', #366 );
#314 = CIRCLE( '', #367, 2.00000000000000 );
#315 = VERTEX_POINT( '', #368 );
#316 = CIRCLE( '', #369, 1.35000000000000 );
#317 = FILL_AREA_STYLE_COLOUR( '', #370 );
#318 = VERTEX_POINT( '', #371 );
#319 = VERTEX_POINT( '', #372 );
#320 = B_SPLINE_CURVE_WITH_KNOTS( '', 3, ( #373, #374, #375, #376 ), .UNSPECIFIED., .F., .F., ( 4, 4 ), ( 0.000000000000000, 0.000713178276317053 ), .UNSPECIFIED. );
#321 = VERTEX_POINT( '', #377 );
#322 = CIRCLE( '', #378, 3.00000000000000 );
#323 = VERTEX_POINT( '', #379 );
#324 = B_SPLINE_CURVE_WITH_KNOTS( '', 3, ( #380, #381, #382, #383 ), .UNSPECIFIED., .F., .F., ( 4, 4 ), ( 0.000000000000000, 0.000713178276317053 ), .UNSPECIFIED. );
#325 = CIRCLE( '', #384, 2.50000000000000 );
#326 = FILL_AREA_STYLE_COLOUR( '', #385 );
#327 = VERTEX_POINT( '', #386 );
#328 = VERTEX_POINT( '', #387 );
#329 = B_SPLINE_CURVE_WITH_KNOTS( '', 3, ( #388, #389, #390, #391 ), .UNSPECIFIED., .F., .F., ( 4, 4 ), ( 0.000000000000000, 0.000713178276317053 ), .UNSPECIFIED. );
#330 = VERTEX_POINT( '', #392 );
#331 = CIRCLE( '', #393, 3.00000000000000 );
#332 = VERTEX_POINT( '', #394 );
#333 = B_SPLINE_CURVE_WITH_KNOTS( '', 3, ( #395, #396, #397, #398 ), .UNSPECIFIED., .F., .F., ( 4, 4 ), ( 0.000000000000000, 0.000713178276317053 ), .UNSPECIFIED. );
#334 = CIRCLE( '', #399, 2.50000000000000 );
#335 = FILL_AREA_STYLE_COLOUR( '', #400 );
#336 = LINE( '', #401, #402 );
#337 = FILL_AREA_STYLE_COLOUR( '', #403 );
#338 = VERTEX_POINT( '', #404 );
#339 = CIRCLE( '', #405, 3.00000000000000 );
#340 = VERTEX_POINT( '', #406 );
#341 = LINE( '', #407, #408 );
#342 = VERTEX_POINT( '', #409 );
#343 = LINE( '', #410, #411 );
#344 = VERTEX_POINT( '', #412 );
#345 = CIRCLE( '', #413, 3.00000000000000 );
#346 = LINE( '', #414, #415 );
#347 = VERTEX_POINT( '', #416 );
#348 = LINE( '', #417, #418 );
#349 = CIRCLE( '', #419, 3.00000000000000 );
#350 = FILL_AREA_STYLE_COLOUR( '', #420 );
#351 = LINE( '', #421, #422 );
#352 = FILL_AREA_STYLE_COLOUR( '', #423 );
#353 = VERTEX_POINT( '', #424 );
#354 = CIRCLE( '', #425, 2.00000000000000 );
#355 = FILL_AREA_STYLE_COLOUR( '', #426 );
#356 = LINE( '', #427, #428 );
#357 = FILL_AREA_STYLE_COLOUR( '', #429 );
#358 = FILL_AREA_STYLE_COLOUR( '', #430 );
#359 = LINE( '', #431, #432 );
#360 = FILL_AREA_STYLE_COLOUR( '', #433 );
#361 = FILL_AREA_STYLE_COLOUR( '', #434 );
#362 = COLOUR_RGB( '', 0.800000011920929, 0.800000011920929, 0.800000011920929 );
#363 = CARTESIAN_POINT( '', ( 1.35000000000000, 0.000000000000000, 1.35000000000000 ) );
#364 = AXIS2_PLACEMENT_3D( '', #435, #436, #437 );
#365 = COLOUR_RGB( '', 0.800000011920929, 0.800000011920929, 0.800000011920929 );
#366 = CARTESIAN_POINT( '', ( 2.00000000000000, 0.000000000000000, 2.00000000000000 ) );
#367 = AXIS2_PLACEMENT_3D( '', #438, #439, #440 );
#368 = CARTESIAN_POINT( '', ( 1.35000000000000, 0.000000000000000, 2.00000000000000 ) );
#369 = AXIS2_PLACEMENT_3D( '', #441, #442, #443 );
#370 = COLOUR_RGB( '', 0.800000011920929, 0.800000011920929, 0.800000011920929 );
#371 = CARTESIAN_POINT( '', ( -0.500000000000000, 2.95803989154981, 15.5000000000000 ) );
#372 = CARTESIAN_POINT( '', ( -0.500000000000000, 2.44948974278318, 16.0000000000000 ) );
#373 = CARTESIAN_POINT( '', ( -0.500000000000000, 2.95803989154981, 15.5000000000000 ) );
#374 = CARTESIAN_POINT( '', ( -0.500000000000000, 2.78876251207873, 15.6669097470708 ) );
#375 = CARTESIAN_POINT( '', ( -0.500000000000000, 2.61929409428724, 15.8336263930843 ) );
#376 = CARTESIAN_POINT( '', ( -0.500000000000000, 2.44948974278318, 16.0000000000000 ) );
#377 = CARTESIAN_POINT( '', ( -0.500000000000000, -2.95803989154981, 15.5000000000000 ) );
#378 = AXIS2_PLACEMENT_3D( '', #444, #445, #446 );
#379 = CARTESIAN_POINT( '', ( -0.500000000000000, -2.44948974278318, 16.0000000000000 ) );
#380 = CARTESIAN_POINT( '', ( -0.500000000000000, -2.44948974278318, 16.0000000000000 ) );
#381 = CARTESIAN_POINT( '', ( -0.500000000000000, -2.61929409428724, 15.8336263930843 ) );
#382 = CARTESIAN_POINT( '', ( -0.500000000000000, -2.78876251207873, 15.6669097470708 ) );
#383 = CARTESIAN_POINT( '', ( -0.500000000000000, -2.95803989154981, 15.5000000000000 ) );
#384 = AXIS2_PLACEMENT_3D( '', #447, #448, #449 );
#385 = COLOUR_RGB( '', 0.800000011920929, 0.800000011920929, 0.800000011920929 );
#386 = CARTESIAN_POINT( '', ( 0.500000000000000, -2.95803989154981, 15.5000000000000 ) );
#387 = CARTESIAN_POINT( '', ( 0.500000000000000, -2.44948974278318, 16.0000000000000 ) );
#388 = CARTESIAN_POINT( '', ( 0.500000000000000, -2.95803989154981, 15.5000000000000 ) );
#389 = CARTESIAN_POINT( '', ( 0.500000000000000, -2.78876251207873, 15.6669097470708 ) );
#390 = CARTESIAN_POINT( '', ( 0.500000000000000, -2.61929409428724, 15.8336263930843 ) );
#391 = CARTESIAN_POINT( '', ( 0.500000000000000, -2.44948974278318, 16.0000000000000 ) );
#392 = CARTESIAN_POINT( '', ( 0.500000000000000, 2.95803989154981, 15.5000000000000 ) );
#393 = AXIS2_PLACEMENT_3D( '', #450, #451, #452 );
#394 = CARTESIAN_POINT( '', ( 0.500000000000000, 2.44948974278318, 16.0000000000000 ) );
#395 = CARTESIAN_POINT( '', ( 0.500000000000000, 2.44948974278318, 16.0000000000000 ) );
#396 = CARTESIAN_POINT( '', ( 0.500000000000000, 2.61929409428724, 15.8336263930843 ) );
#397 = CARTESIAN_POINT( '', ( 0.500000000000000, 2.78876251207873, 15.6669097470708 ) );
#398 = CARTESIAN_POINT( '', ( 0.500000000000000, 2.95803989154981, 15.5000000000000 ) );
#399 = AXIS2_PLACEMENT_3D( '', #453, #454, #455 );
#400 = COLOUR_RGB( '', 0.800000011920929, 0.800000011920929, 0.800000011920929 );
#401 = CARTESIAN_POINT( '', ( 0.500000000000000, -12.5000000000000, 16.0000000000000 ) );
#402 = VECTOR( '', #456, 1000.00000000000 );
#403 = COLOUR_RGB( '', 0.752941191196442, 0.752941191196442, 0.752941191196442 );
#404 = CARTESIAN_POINT( '', ( 3.00000000000000, 0.000000000000000, 3.50000000000000 ) );
#405 = AXIS2_PLACEMENT_3D( '', #457, #458, #459 );
#406 = CARTESIAN_POINT( '', ( 0.500000000000000, 2.95803989154981, 15.0000000000000 ) );
#407 = CARTESIAN_POINT( '', ( 0.500000000000000, 2.95803989154981, 10.5000000000000 ) );
#408 = VECTOR( '', #460, 1000.00000000000 );
#409 = CARTESIAN_POINT( '', ( 0.500000000000000, -2.95803989154981, 15.0000000000000 ) );
#410 = CARTESIAN_POINT( '', ( 0.500000000000000, -2.95803989154981, 10.5000000000000 ) );
#411 = VECTOR( '', #461, 1000.00000000000 );
#412 = CARTESIAN_POINT( '', ( -0.500000000000000, -2.95803989154981, 15.0000000000000 ) );
#413 = AXIS2_PLACEMENT_3D( '', #462, #463, #464 );
#414 = CARTESIAN_POINT( '', ( -0.500000000000000, -2.95803989154981, 10.5000000000000 ) );
#415 = VECTOR( '', #465, 1000.00000000000 );
#416 = CARTESIAN_POINT( '', ( -0.500000000000000, 2.95803989154981, 15.0000000000000 ) );
#417 = CARTESIAN_POINT( '', ( -0.500000000000000, 2.95803989154981, 10.5000000000000 ) );
#418 = VECTOR( '', #466, 1000.00000000000 );
#419 = AXIS2_PLACEMENT_3D( '', #467, #468, #469 );
#420 = COLOUR_RGB( '', 0.800000011920929, 0.800000011920929, 0.800000011920929 );
#421 = CARTESIAN_POINT( '', ( 0.500000000000000, -12.5000000000000, 15.0000000000000 ) );
#422 = VECTOR( '', #470, 1000.00000000000 );
#423 = COLOUR_RGB( '', 0.800000011920929, 0.800000011920929, 0.800000011920929 );
#424 = CARTESIAN_POINT( '', ( 2.00000000000000, 0.000000000000000, 2.50000000000000 ) );
#425 = AXIS2_PLACEMENT_3D( '', #471, #472, #473 );
#426 = COLOUR_RGB( '', 0.800000011920929, 0.800000011920929, 0.800000011920929 );
#427 = CARTESIAN_POINT( '', ( -0.500000000000000, -12.5000000000000, 15.0000000000000 ) );
#428 = VECTOR( '', #474, 1000.00000000000 );
#429 = COLOUR_RGB( '', 0.800000011920929, 0.800000011920929, 0.800000011920929 );
#430 = COLOUR_RGB( '', 0.800000011920929, 0.800000011920929, 0.800000011920929 );
#431 = CARTESIAN_POINT( '', ( -0.500000000000000, -12.5000000000000, 16.0000000000000 ) );
#432 = VECTOR( '', #475, 1000.00000000000 );
#433 = COLOUR_RGB( '', 0.800000011920929, 0.800000011920929, 0.800000011920929 );
#434 = COLOUR_RGB( '', 0.800000011920929, 0.800000011920929, 0.800000011920929 );
#435 = CARTESIAN_POINT( '', ( -5.37912989949155E-017, 0.000000000000000, 1.35000000000000 ) );
#436 = DIRECTION( '', ( 1.37926407679271E-017, 0.000000000000000, 1.00000000000000 ) );
#437 = DIRECTION( '', ( 1.00000000000000, 0.000000000000000, -1.37926407679271E-017 ) );
#438 = CARTESIAN_POINT( '', ( -4.48260824957630E-017, 0.000000000000000, 2.00000000000000 ) );
#439 = DIRECTION( '', ( 1.37926407679271E-017, 0.000000000000000, 1.00000000000000 ) );
#440 = DIRECTION( '', ( 1.00000000000000, 0.000000000000000, -1.37926407679271E-017 ) );
#441 = CARTESIAN_POINT( '', ( -4.48260824957630E-017, 0.000000000000000, 2.00000000000000 ) );
#442 = DIRECTION( '', ( 1.37926407679271E-017, 0.000000000000000, 1.00000000000000 ) );
#443 = DIRECTION( '', ( 1.00000000000000, 0.000000000000000, -1.37926407679271E-017 ) );
#444 = CARTESIAN_POINT( '', ( 1.41374567871252E-016, 0.000000000000000, 15.5000000000000 ) );
#445 = DIRECTION( '', ( -1.37926407679270E-017, 0.000000000000000, -1.00000000000000 ) );
#446 = DIRECTION( '', ( -1.00000000000000, 0.000000000000000, 1.37926407679270E-017 ) );
#447 = CARTESIAN_POINT( '', ( 1.48270888255216E-016, 0.000000000000000, 16.0000000000000 ) );
#448 = DIRECTION( '', ( -1.37926407679271E-017, 0.000000000000000, -1.00000000000000 ) );
#449 = DIRECTION( '', ( -1.00000000000000, 0.000000000000000, 1.37926407679271E-017 ) );
#450 = CARTESIAN_POINT( '', ( 1.41374567871252E-016, 0.000000000000000, 15.5000000000000 ) );
#451 = DIRECTION( '', ( -1.37926407679270E-017, 0.000000000000000, -1.00000000000000 ) );
#452 = DIRECTION( '', ( -1.00000000000000, 0.000000000000000, 1.37926407679270E-017 ) );
#453 = CARTESIAN_POINT( '', ( 1.48270888255216E-016, 0.000000000000000, 16.0000000000000 ) );
#454 = DIRECTION( '', ( -1.37926407679271E-017, 0.000000000000000, -1.00000000000000 ) );
#455 = DIRECTION( '', ( -1.00000000000000, 0.000000000000000, 1.37926407679271E-017 ) );
#456 = DIRECTION( '', ( 0.000000000000000, 1.00000000000000, 0.000000000000000 ) );
#457 = CARTESIAN_POINT( '', ( -2.41371213438723E-017, 0.000000000000000, 3.50000000000000 ) );
#458 = DIRECTION( '', ( 1.37926407679270E-017, 0.000000000000000, 1.00000000000000 ) );
#459 = DIRECTION( '', ( 1.00000000000000, 0.000000000000000, -1.37926407679270E-017 ) );
#460 = DIRECTION( '', ( 1.37926407679271E-017, 0.000000000000000, 1.00000000000000 ) );
#461 = DIRECTION( '', ( 1.37926407679271E-017, 0.000000000000000, 1.00000000000000 ) );
#462 = CARTESIAN_POINT( '', ( 1.34478247487289E-016, 0.000000000000000, 15.0000000000000 ) );
#463 = DIRECTION( '', ( 0.000000000000000, 0.000000000000000, 1.00000000000000 ) );
#464 = DIRECTION( '', ( 1.00000000000000, 0.000000000000000, 0.000000000000000 ) );
#465 = DIRECTION( '', ( 1.37926407679271E-017, 0.000000000000000, 1.00000000000000 ) );
#466 = DIRECTION( '', ( 1.37926407679271E-017, 0.000000000000000, 1.00000000000000 ) );
#467 = CARTESIAN_POINT( '', ( 1.34478247487289E-016, 0.000000000000000, 15.0000000000000 ) );
#468 = DIRECTION( '', ( 0.000000000000000, 0.000000000000000, 1.00000000000000 ) );
#469 = DIRECTION( '', ( 1.00000000000000, 0.000000000000000, 0.000000000000000 ) );
#470 = DIRECTION( '', ( 0.000000000000000, 1.00000000000000, 0.000000000000000 ) );
#471 = CARTESIAN_POINT( '', ( -3.79297621117994E-017, 0.000000000000000, 2.50000000000000 ) );
#472 = DIRECTION( '', ( 1.37926407679271E-017, 0.000000000000000, 1.00000000000000 ) );
#473 = DIRECTION( '', ( 1.00000000000000, 0.000000000000000, -1.37926407679271E-017 ) );
#474 = DIRECTION( '', ( 0.000000000000000, 1.00000000000000, 0.000000000000000 ) );
#475 = DIRECTION( '', ( 0.000000000000000, 1.00000000000000, 0.000000000000000 ) );
ENDSEC;
END-ISO-10303-21;
